  0
SECTION
  2
HEADER
  0
ENDSEC
  0
SECTION
  2
TABLES
  0
TABLE
  2
LTYPE
 70
     4
  0
LTYPE
  2
CONTINUOUS
 70
    64
  3
Solid line
 72
    65
 73
     0
 40
0.000000
  0
LTYPE
  2
DASHED
 70
    64
  3
__ __ __ __ __ __ __ __ __ __ __ __ __ __ __
 72
    65
 73
     2
 40
3.500000
 49
2.000000
 49
-1.500000
  0
LTYPE
  2
CENTER
 70
    64
  3
____ _ ____ _ ____ _ ____ _ ____ _ ____ _ ____
 72
    65
 73
     4
 40
17.500000
 49
13.000000
 49
-1.500000
 49
1.500000
 49
-1.500000
  0
LTYPE
  2
PHANTOM
 70
    64
  3
_____ _ _ _____ _ _ _____ _ _ _____ _ _ ____  
 72
    65
 73
     6
 40
15.500000
 49
8.000000
 49
-1.500000
 49
1.500000
 49
-1.500000
 49
1.500000
 49
-1.500000
  0
LTYPE
  2
DASHED1
 70
    64
  3
__ __ __ __ __ __ __ __ __ __ __ __ __ __ __
 72
    65
 73
     2
 40
1.500000
 49
1.000000
 49
-0.500000
  0
LTYPE
  2
DASHED2
 70
    64
  3
__ __ __ __ __ __ __ __ __ __ __ __ __ __ __
 72
    65
 73
     2
 40
3.500000
 49
2.500000
 49
-1.000000
  0
LTYPE
  2
DASHED3
 70
    64
  3
__ __ __ __ __ __ __ __ __ __ __ __ __ __ __
 72
    65
 73
     2
 40
6.000000
 49
4.000000
 49
-2.000000
  0
LTYPE
  2
DASHED4
 70
    64
  3
__ __ __ __ __ __ __ __ __ __ __ __ __ __ __
 72
    65
 73
     2
 40
12.000000
 49
10.000000
 49
-2.000000
  0
LTYPE
  2
DASHED5
 70
    64
  3
__ __ __ __ __ __ __ __ __ __ __ __ __ __ __
 72
    65
 73
     2
 40
17.000000
 49
15.000000
 49
-2.000000
  0
LTYPE
  2
DASHED6
 70
    64
  3
__ __ __ __ __ __ __ __ __ __ __ __ __ __ __
 72
    65
 73
     2
 40
29.000000
 49
27.000000
 49
-2.000000
  0
LTYPE
  2
PHANTOM1
 70
    64
  3
_____ _ _ _____ _ _ _____ _ _ _____ _ _ ____  
 72
    65
 73
     6
 40
31.000000
 49
25.000000
 49
-1.500000
 49
1.000000
 49
-1.000000
 49
1.000000
 49
-1.500000
  0
LTYPE
  2
PHANTOM2
 70
    64
  3
_____ _ _ _____ _ _ _____ _ _ _____ _ _ ____  
 72
    65
 73
     6
 40
36.000000
 49
27.000000
 49
-1.500000
 49
2.500000
 49
-1.000000
 49
2.500000
 49
-1.500000
  0
LTYPE
  2
PHANTOM3
 70
    64
  3
_____ _ _ _____ _ _ _____ _ _ _____ _ _ ____  
 72
    65
 73
     6
 40
78.000000
 49
64.000000
 49
-2.000000
 49
4.000000
 49
-2.000000
 49
4.000000
 49
-2.000000
  0
LTYPE
  2
CENTER1
 70
    64
  3
____ _ ____ _ ____ _ ____ _ ____ _ ____ _ ____
 72
    65
 73
     4
 40
19.000000
 49
14.000000
 49
-1.000000
 49
3.000000
 49
-1.000000
  0
LTYPE
  2
CENTER2
 70
    64
  3
____ _ ____ _ ____ _ ____ _ ____ _ ____ _ ____
 72
    65
 73
     4
 40
28.500000
 49
25.000000
 49
-1.000000
 49
1.500000
 49
-1.000000
  0
LTYPE
  2
CENTER3
 70
    64
  3
____ _ ____ _ ____ _ ____ _ ____ _ ____ _ ____
 72
    65
 73
     4
 40
31.500000
 49
27.000000
 49
-1.000000
 49
2.500000
 49
-1.000000
  0
LTYPE
  2
CENTER4
 70
    64
  3
____ _ ____ _ ____ _ ____ _ ____ _ ____ _ ____
 72
    65
 73
     4
 40
50.000000
 49
45.000000
 49
-1.000000
 49
3.000000
 49
-1.000000
  0
LTYPE
  2
CENTER5
 70
    64
  3
____ _ ____ _ ____ _ ____ _ ____ _ ____ _ ____
 72
    65
 73
     4
 40
100.000000
 49
92.000000
 49
-2.000000
 49
4.000000
 49
-2.000000
  0
LTYPE
  2
SBK1
 70
    64
  3
______ _ _ _ ______ _ _ _ ______ _ _ _ _____  
 72
    65
 73
     8
 40
60.500000
 49
45.000000
 49
-2.000000
 49
2.500000
 49
-2.000000
 49
2.500000
 49
-2.000000
 49
2.500000
 49
-2.000000
  0
LTYPE
  2
SBK2
 70
    64
  3
______ _ _ _ ______ _ _ _ ______ _ _ _ _____  
 72
    65
 73
     8
 40
84.000000
 49
64.000000
 49
-2.000000
 49
4.000000
 49
-2.000000
 49
4.000000
 49
-2.000000
 49
4.000000
 49
-2.000000
  0
LTYPE
  2
STCH
 70
    64
  3
__ __ __ __ __ __ __ __ __ __ __ __ __ __ __
 72
    65
 73
     2
 40
3.000000
 49
1.000000
 49
-2.000000
  0
LTYPE
  2
MTCH
 70
    64
  3
_____ _ _ _____ _ _ _____ _ _ _____ _ _ ____  
 72
    65
 73
     6
 40
80.000000
 49
66.000000
 49
-2.000000
 49
4.000000
 49
-2.000000
 49
4.000000
 49
-2.000000
  0
ENDTAB
  0
TABLE
  2
LAYER
 70
     1
  0
LAYER
  2
0
 70
     0
 62
     7
  6
CONTINUOUS
  0
ENDTAB
  0
TABLE
  2
STYLE
 70
     1
  0
STYLE
  2
STANDARD
 70
     0
 40
0.000000
 41
1.000000
 50
0.000000
 71
     0
 42
0.200000
  3
txt
  4
BIGFONT
  0
ENDTAB
  0
TABLE
  2
VIEW
 70
     0
  0
ENDTAB
  0
ENDSEC
  0
SECTION
  2
BLOCKS
  0
ENDSEC
  0
SECTION
  2
ENTITIES
  0
LINE
  8
0
 10
-17.000000
 20
15.000000
 11
-14.000000
 21
15.000000
  0
LINE
  8
0
  6
CENTER
 62
     2
 10
-28.446678
 20
34.500000
 11
-12.409863
 21
34.500000
  0
LINE
  8
0
 10
-13.500000
 20
45.000000
 11
22.500000
 21
45.000000
  0
LINE
  8
0
 10
-17.000000
 20
-21.500000
 11
-17.000000
 21
43.500015
  0
LINE
  8
0
 10
-27.000000
 20
43.500000
 11
-27.000000
 21
-21.500000
  0
LINE
  8
0
 10
-26.500000
 20
-22.000000
 11
-17.500000
 21
-22.000000
  0
LINE
  8
0
 10
-26.500000
 20
44.000000
 11
-17.500000
 21
44.000000
  0
LINE
  8
0
 10
-17.000000
 20
7.000000
 11
-14.000000
 21
7.000000
  0
LINE
  8
0
 10
-17.000000
 20
-17.500000
 11
-14.000000
 21
-17.500000
  0
LINE
  8
0
 10
-17.000000
 20
-7.500000
 11
-14.000000
 21
-7.500000
  0
LINE
  8
0
  6
CENTER
 62
     2
 10
-28.446678
 20
-12.500000
 11
-12.061066
 21
-12.500000
  0
LINE
  8
0
 10
-17.000000
 20
9.063507
 11
-15.500000
 21
9.063507
  0
LINE
  8
0
 10
-15.500000
 20
12.936495
 11
-15.500000
 21
9.063507
  0
LINE
  8
0
 62
     2
 10
-16.999998
 20
11.968288
 11
-15.499976
 21
9.063508
  0
LINE
  8
0
 62
     2
 10
-15.499996
 20
12.936507
 11
-17.000015
 21
10.031731
  0
LINE
  8
0
 10
-26.999992
 20
-21.499971
 11
-26.499992
 21
-21.999971
  0
LINE
  8
0
 10
-17.000015
 20
-21.500002
 11
-17.500004
 21
-21.999990
  0
LINE
  8
0
 10
-26.499977
 20
43.999985
 11
-26.999977
 21
43.499985
  0
LINE
  8
0
 10
-17.500006
 20
44.000015
 11
-17.000004
 21
43.500015
  0
LINE
  8
0
 10
-13.499969
 20
44.999985
 11
-13.999969
 21
44.499985
  0
LINE
  8
0
 10
22.499990
 20
44.999981
 11
22.999987
 21
44.499989
  0
LINE
  8
0
 10
-14.000000
 20
12.900002
 11
23.000000
 21
12.900002
  0
LINE
  8
0
 10
-14.000000
 20
15.700012
 11
23.000000
 21
15.700012
  0
LINE
  8
0
 10
-14.000000
 20
17.500015
 11
23.000000
 21
17.500015
  0
LINE
  8
0
 10
-14.000000
 20
44.000000
 11
23.000000
 21
44.000000
  0
LINE
  8
0
 10
-14.000000
 20
35.150002
 11
23.000000
 21
35.150002
  0
LINE
  8
0
 10
-14.000000
 20
30.849998
 11
23.000000
 21
30.849998
  0
LINE
  8
0
 10
-17.000000
 20
12.936510
 11
-15.500000
 21
12.936510
  0
LINE
  8
0
  6
CENTER
 62
     2
 10
-14.000000
 20
24.000000
 11
-3.971458
 21
24.000000
  0
LINE
  8
0
  6
DASHED
 62
     2
 10
46.000000
 20
-17.000000
 11
46.000000
 21
-7.999996
  0
LINE
  8
0
  6
DASHED
 62
     2
 10
23.000000
 20
-7.500000
 11
45.500000
 21
-7.500000
  0
LINE
  8
0
  6
DASHED
 62
     2
 10
23.000000
 20
-17.500000
 11
45.500000
 21
-17.500000
  0
LINE
  8
0
  6
DASHED
 62
     2
 10
45.499985
 20
-7.500007
 11
45.999985
 21
-8.000007
  0
LINE
  8
0
  6
DASHED
 62
     2
 10
45.999989
 20
-16.999990
 11
45.499989
 21
-17.499992
  0
LINE
  8
0
  6
DASHED
 62
     2
 10
45.500000
 20
-7.500004
 11
45.500000
 21
-17.500000
  0
LINE
  8
0
  6
DASHED
 62
     2
 10
46.000000
 20
30.000000
 11
46.000000
 21
39.000004
  0
LINE
  8
0
  6
DASHED
 62
     2
 10
23.000000
 20
39.500000
 11
45.500000
 21
39.500000
  0
LINE
  8
0
  6
DASHED
 62
     2
 10
23.000000
 20
29.500000
 11
45.500000
 21
29.500000
  0
LINE
  8
0
  6
DASHED
 62
     2
 10
45.499981
 20
39.499992
 11
45.999981
 21
38.999996
  0
LINE
  8
0
  6
DASHED
 62
     2
 10
46.000000
 20
30.000000
 11
45.500000
 21
29.500000
  0
LINE
  8
0
  6
DASHED
 62
     2
 10
45.500000
 20
39.499996
 11
45.500000
 21
29.500000
  0
LINE
  8
0
 10
-14.000000
 20
19.000023
 11
23.000000
 21
19.000023
  0
LINE
  8
0
 10
-17.000000
 20
39.500000
 11
-14.000000
 21
39.500000
  0
LINE
  8
0
 10
-17.000000
 20
29.500000
 11
-14.000000
 21
29.500000
  0
LINE
  8
0
  6
CENTER
 62
     2
 10
-14.000000
 20
-2.000000
 11
-4.333664
 21
-2.000000
  0
LINE
  8
0
  6
CENTER
 62
     2
 10
-9.000000
 20
-7.201691
 11
-9.000000
 21
2.835175
  0
LINE
  8
0
  6
CENTER
 62
     2
 10
1.184097
 20
-2.000000
 11
11.111519
 21
-2.000000
  0
LINE
  8
0
  6
CENTER
 62
     2
 10
6.000015
 20
-7.201691
 11
6.000015
 21
2.754852
  0
LINE
  8
0
 10
-14.000000
 20
9.100006
 11
23.000008
 21
9.100006
  0
LINE
  8
0
  6
CENTER
 62
     2
 10
-0.979294
 20
-8.000000
 11
-7.053421
 21
-8.000000
  0
LINE
  8
0
  6
CENTER
 62
     2
 10
18.891785
 20
-8.000000
 11
12.126236
 21
-8.000000
  0
LINE
  8
0
  6
CENTER
 62
     2
 10
15.500008
 20
-11.384434
 11
15.500008
 21
-4.624853
  0
LINE
  8
0
  6
CENTER
 62
     2
 10
-28.622551
 20
11.000000
 11
25.072990
 21
11.000000
  0
LINE
  8
0
 10
-13.500000
 20
-23.000000
 11
22.500008
 21
-23.000000
  0
LINE
  8
0
 10
-14.000000
 20
-22.500000
 11
-14.000000
 21
44.500000
  0
LINE
  8
0
  6
DASHED
 62
     2
 10
4.500015
 20
-23.000000
 11
4.500015
 21
-20.692692
  0
LINE
  8
0
  6
DASHED
 62
     2
 10
9.500008
 20
-23.000000
 11
9.500008
 21
-20.692692
  0
LINE
  8
0
  6
DASHED
 62
     2
 10
4.900009
 20
-23.000000
 11
4.900009
 21
-20.692692
  0
LINE
  8
0
  6
DASHED
 62
     2
 10
9.099998
 20
-23.000000
 11
9.099998
 21
-20.692692
  0
LINE
  8
0
  6
CENTER
 62
     2
 10
-4.000000
 20
-11.429937
 11
-4.000000
 21
-4.624853
  0
LINE
  8
0
  6
DASHED
 62
     2
 10
-7.500000
 20
-23.000000
 11
-7.500000
 21
-20.692692
  0
LINE
  8
0
  6
DASHED
 62
     2
 10
-2.500000
 20
-23.000000
 11
-2.500000
 21
-20.692692
  0
LINE
  8
0
  6
DASHED
 62
     2
 10
-7.099991
 20
-23.000000
 11
-7.099991
 21
-20.692692
  0
LINE
  8
0
  6
DASHED
 62
     2
 10
-2.900009
 20
-23.000000
 11
-2.900009
 21
-20.692692
  0
LINE
  8
0
 10
-14.000000
 20
-22.000000
 11
23.000008
 21
-22.000000
  0
LINE
  8
0
 10
-14.000000
 20
3.000015
 11
23.000008
 21
3.000015
  0
LINE
  8
0
 10
-14.000000
 20
-13.500000
 11
23.000008
 21
-13.500000
  0
LINE
  8
0
 10
-14.000000
 20
-16.017288
 11
23.000008
 21
-16.017288
  0
LINE
  8
0
 10
-14.000000
 20
-19.592545
 11
23.000008
 21
-19.592545
  0
LINE
  8
0
 10
-14.000000
 20
6.299988
 11
23.000008
 21
6.299988
  0
LINE
  8
0
 10
-14.000000
 20
4.499985
 11
23.000008
 21
4.499985
  0
LINE
  8
0
 10
23.000015
 20
-22.500004
 11
22.500013
 21
-23.000004
  0
LINE
  8
0
 10
-13.999972
 20
-22.499981
 11
-13.499983
 21
-22.999969
  0
LINE
  8
0
  6
CENTER
 62
     2
 10
7.000008
 20
-24.017120
 11
7.000008
 21
-19.723778
  0
LINE
  8
0
 10
23.000008
 20
-22.500000
 11
23.000008
 21
44.500000
  0
LINE
  8
0
  6
CENTER
 62
     2
 10
6.000000
 20
28.957390
 11
6.000000
 21
19.026604
  0
LINE
  8
0
  6
CENTER
 62
     2
 10
-9.000000
 20
28.878262
 11
-9.000000
 21
19.066168
  0
LINE
  8
0
  6
CENTER
 62
     2
 10
0.998383
 20
24.000000
 11
11.126995
 21
24.000000
  0
LINE
  8
0
  6
CENTER
 62
     2
 10
-5.000000
 20
-24.116150
 11
-5.000000
 21
-19.866489
  0
LINE
  8
0
  6
PHANTOM
 62
     3
 10
11.500000
 20
53.000000
 11
11.500000
 21
-11.000000
  0
LINE
  8
0
  6
PHANTOM
 62
     3
 10
0.500000
 20
60.000000
 11
0.500000
 21
-28.000000
  0
LINE
  8
0
  6
PHANTOM
 62
     3
 10
3.000000
 20
-11.000000
 11
3.000000
 21
-28.000000
  0
LINE
  8
0
  6
PHANTOM
 62
     3
 10
3.000000
 20
-11.000000
 11
11.500000
 21
-11.000000
  0
LINE
  8
0
 10
-140.500015
 20
12.000000
 11
-140.000000
 21
12.000000
  0
LINE
  8
0
 10
-140.500015
 20
16.200012
 11
-140.000000
 21
16.200012
  0
LINE
  8
0
 10
-141.500015
 20
9.799988
 11
-141.500015
 21
12.200012
  0
LINE
  8
0
 10
-141.200012
 20
15.700012
 11
-141.000015
 21
15.700012
  0
LINE
  8
0
 10
-141.200012
 20
12.500000
 11
-141.000015
 21
12.500000
  0
LINE
  8
0
 10
-140.500015
 20
11.999976
 11
-141.000000
 21
12.499964
  0
LINE
  8
0
 10
-141.000137
 20
15.700157
 11
-140.500122
 21
16.200172
  0
LINE
  8
0
 10
-141.500015
 20
16.000000
 11
-141.500015
 21
17.500015
  0
LINE
  8
0
 10
-140.500015
 20
10.000000
 11
-140.000000
 21
10.000000
  0
LINE
  8
0
 10
-140.500015
 20
5.799988
 11
-140.000000
 21
5.799988
  0
LINE
  8
0
 10
-141.200012
 20
6.299988
 11
-141.000015
 21
6.299988
  0
LINE
  8
0
 10
-141.200012
 20
9.500000
 11
-141.000015
 21
9.500000
  0
LINE
  8
0
 10
-140.500122
 20
10.000122
 11
-141.000107
 21
9.500130
  0
LINE
  8
0
 10
-141.000061
 20
6.299958
 11
-140.500061
 21
5.799957
  0
LINE
  8
0
 10
-141.500092
 20
17.499985
 11
-143.000076
 21
18.999964
  0
LINE
  8
0
 10
-141.500015
 20
6.000000
 11
-141.500015
 21
4.499985
  0
LINE
  8
0
 10
-141.500092
 20
4.500059
 11
-143.000076
 21
3.000076
  0
LINE
  8
0
 10
-143.000000
 20
19.000000
 11
-143.000000
 21
30.550003
  0
LINE
  8
0
 10
-142.000000
 20
45.000000
 11
-112.000000
 21
45.000000
  0
LINE
  8
0
 10
-141.999939
 20
44.999931
 11
-142.999939
 21
43.999928
  0
LINE
  8
0
 10
-143.000000
 20
35.449997
 11
-143.000000
 21
44.000000
  0
LINE
  8
0
 10
-113.999924
 20
36.650002
 11
-112.500000
 21
36.650002
  0
LINE
  8
0
 10
-113.999924
 20
29.349998
 11
-112.500000
 21
29.349998
  0
LINE
  8
0
 10
-112.500000
 20
35.150002
 11
-111.300003
 21
35.150002
  0
LINE
  8
0
 10
-112.500000
 20
30.849998
 11
-111.300003
 21
30.849998
  0
LINE
  8
0
 10
-112.500000
 20
29.349998
 11
-112.500000
 21
30.849998
  0
LINE
  8
0
 10
-112.500000
 20
35.150002
 11
-112.500000
 21
36.650002
  0
LINE
  8
0
 10
-111.000000
 20
35.449997
 11
-111.000000
 21
44.000000
  0
LINE
  8
0
 10
-112.000015
 20
44.999989
 11
-111.000015
 21
43.999989
  0
LINE
  8
0
 10
-113.499985
 20
12.000000
 11
-113.999924
 21
12.000000
  0
LINE
  8
0
 10
-113.499985
 20
16.200012
 11
-113.999924
 21
16.200012
  0
LINE
  8
0
 10
-112.499985
 20
9.799988
 11
-112.499985
 21
12.200012
  0
LINE
  8
0
 10
-112.799988
 20
15.700012
 11
-112.999985
 21
15.700012
  0
LINE
  8
0
 10
-112.799988
 20
12.500000
 11
-112.999985
 21
12.500000
  0
LINE
  8
0
 10
-113.500061
 20
12.000046
 11
-113.000084
 21
12.500026
  0
LINE
  8
0
 10
-112.999931
 20
15.700071
 11
-113.499931
 21
16.200071
  0
LINE
  8
0
 10
-112.499985
 20
16.000000
 11
-112.499985
 21
17.500015
  0
LINE
  8
0
 10
-113.499985
 20
10.000000
 11
-113.999924
 21
10.000000
  0
LINE
  8
0
 10
-113.499985
 20
5.799988
 11
-113.999924
 21
5.799988
  0
LINE
  8
0
 10
-112.799988
 20
6.299988
 11
-112.999985
 21
6.299988
  0
LINE
  8
0
 10
-112.799988
 20
9.500000
 11
-112.999985
 21
9.500000
  0
LINE
  8
0
 10
-113.499939
 20
10.000054
 11
-112.999931
 21
9.500046
  0
LINE
  8
0
 10
-113.000023
 20
6.299997
 11
-113.500031
 21
5.799988
  0
LINE
  8
0
 10
-111.000000
 20
-22.000011
 11
-111.000000
 21
-19.592545
  0
LINE
  8
0
 10
-112.500008
 20
17.500053
 11
-111.000015
 21
19.000048
  0
LINE
  8
0
 10
-112.499985
 20
6.000000
 11
-112.499985
 21
4.499985
  0
LINE
  8
0
 10
-112.500000
 20
4.499992
 11
-111.000008
 21
3.000002
  0
LINE
  8
0
 10
-111.000000
 20
19.000000
 11
-111.000000
 21
30.550003
  0
LINE
  8
0
 10
-112.000008
 20
-22.999949
 11
-111.000015
 21
-21.999960
  0
LINE
  8
0
 10
-143.000000
 20
3.000000
 11
-143.000000
 21
-8.550003
  0
LINE
  8
0
 10
-142.000000
 20
-23.000000
 11
-112.000000
 21
-23.000000
  0
LINE
  8
0
 10
-141.999954
 20
-22.999977
 11
-142.999954
 21
-21.999975
  0
LINE
  8
0
 10
-143.000000
 20
-13.449997
 11
-143.000000
 21
-21.999996
  0
LINE
  8
0
 10
-111.000000
 20
-19.592575
 11
-114.000008
 21
-16.017311
  0
LINE
  8
0
 10
-113.999977
 20
-16.017303
 11
-110.999969
 21
-13.500001
  0
LINE
  8
0
 10
-111.000000
 20
-13.499992
 11
-111.000000
 21
3.000008
  0
LINE
  8
0
 10
-140.000000
 20
35.150002
 11
-142.699997
 21
35.150002
  0
LINE
  8
0
 10
-140.000000
 20
30.849998
 11
-142.699997
 21
30.849998
  0
LINE
  8
0
 10
-140.000000
 20
-13.150002
 11
-142.699997
 21
-13.150002
  0
LINE
  8
0
 10
-140.000000
 20
-8.849998
 11
-142.699997
 21
-8.849998
  0
LINE
  8
0
 10
-139.000000
 20
44.000000
 11
-115.000000
 21
44.000000
  0
LINE
  8
0
 10
-139.000000
 20
-22.000000
 11
-115.000000
 21
-22.000000
  0
LINE
  8
0
 10
-138.999939
 20
43.999954
 11
-139.999939
 21
42.999954
  0
LINE
  8
0
 10
-114.999947
 20
44.000072
 11
-113.999947
 21
43.000072
  0
LINE
  8
0
 10
-139.999954
 20
-20.999990
 11
-138.999954
 21
-21.999992
  0
LINE
  8
0
 10
-113.999977
 20
-20.999971
 11
-114.999977
 21
-21.999973
  0
LINE
  8
0
  6
CENTER
 62
     2
 10
-144.162216
 20
11.000000
 11
-109.874069
 21
11.000000
  0
LINE
  8
0
  6
CENTER
 62
     2
 10
-127.000000
 20
47.375366
 11
-127.000000
 21
-25.272449
  0
LINE
  8
0
  6
CENTER
 62
     2
 10
-131.733643
 20
39.000000
 11
-138.459274
 21
39.000000
  0
LINE
  8
0
  6
CENTER
 62
     2
 10
-119.000000
 20
-20.547089
 11
-119.000000
 21
-13.476543
  0
LINE
  8
0
  6
CENTER
 62
     2
 10
-135.000000
 20
-20.547089
 11
-135.000000
 21
-13.476543
  0
LINE
  8
0
  6
CENTER
 62
     2
 10
-131.733643
 20
-17.000000
 11
-138.459274
 21
-17.000000
  0
LINE
  8
0
 10
-140.000000
 20
43.000004
 11
-140.000000
 21
-21.000008
  0
LINE
  8
0
 10
-113.999924
 20
43.000107
 11
-113.999924
 21
-20.999866
  0
LINE
  8
0
 10
-127.000053
 20
36.232162
 11
-128.500046
 21
35.366138
  0
LINE
  8
0
 10
-128.500000
 20
35.366024
 11
-128.500000
 21
33.633976
  0
LINE
  8
0
 10
-127.000038
 20
32.767906
 11
-128.500031
 21
33.633926
  0
LINE
  8
0
 10
-125.500076
 20
33.634075
 11
-127.000076
 21
32.768044
  0
LINE
  8
0
 10
-125.500000
 20
35.366024
 11
-125.500000
 21
33.633976
  0
LINE
  8
0
 10
-127.000023
 20
36.232021
 11
-125.500015
 21
35.365990
  0
LINE
  8
0
 10
-127.000031
 20
-10.767893
 11
-128.500015
 21
-11.633913
  0
LINE
  8
0
 10
-128.500000
 20
-11.633976
 11
-128.500000
 21
-13.366024
  0
LINE
  8
0
 10
-127.000053
 20
-14.232122
 11
-128.500046
 21
-13.366101
  0
LINE
  8
0
 10
-125.500038
 20
-13.365981
 11
-127.000038
 21
-14.232009
  0
LINE
  8
0
 10
-125.500000
 20
-11.633976
 11
-125.500000
 21
-13.366024
  0
LINE
  8
0
 10
-127.000023
 20
-10.768003
 11
-125.500015
 21
-11.634033
  0
LINE
  8
0
 10
-127.000061
 20
12.732143
 11
-128.500046
 21
11.866122
  0
LINE
  8
0
 10
-128.500000
 20
11.866024
 11
-128.500000
 21
10.133976
  0
LINE
  8
0
 10
-127.000046
 20
9.267898
 11
-128.500031
 21
10.133918
  0
LINE
  8
0
 10
-125.500038
 20
10.134031
 11
-127.000046
 21
9.268001
  0
LINE
  8
0
 10
-125.500000
 20
11.866024
 11
-125.500000
 21
10.133976
  0
LINE
  8
0
 10
-127.000023
 20
12.732004
 11
-125.500015
 21
11.865973
  0
LINE
  8
0
  6
CENTER
 62
     2
 10
-135.000000
 20
42.225422
 11
-135.000000
 21
35.794834
  0
LINE
  8
0
  6
CENTER
 62
     2
 10
-119.000000
 20
42.114552
 11
-119.000000
 21
35.831791
  0
LINE
  8
0
  6
CENTER
 62
     2
 10
-122.285614
 20
39.000000
 11
-115.781120
 21
39.000000
  0
LINE
  8
0
  6
CENTER
 62
     2
 10
-133.261978
 20
34.500000
 11
-120.770370
 21
34.500000
  0
LINE
  8
0
  6
CENTER
 62
     2
 10
-133.296707
 20
-12.500000
 11
-120.570450
 21
-12.500000
  0
LINE
  8
0
  6
CENTER
 62
     2
 10
-122.430756
 20
-17.000000
 11
-115.370010
 21
-17.000000
  0
LINE
  8
0
  6
CENTER
 62
     2
 10
112.500000
 20
-23.871140
 11
112.500000
 21
-19.903601
  0
LINE
  8
0
  6
DASHED
 62
     2
 10
110.000000
 20
-23.000000
 11
110.000000
 21
-20.692692
  0
LINE
  8
0
  6
DASHED
 62
     2
 10
115.000000
 20
-23.000000
 11
115.000000
 21
-20.692692
  0
LINE
  8
0
  6
DASHED
 62
     2
 10
110.000000
 20
-19.000000
 11
115.000000
 21
-19.000000
  0
LINE
  8
0
  6
DASHED
 62
     2
 10
114.599998
 20
-23.000000
 11
114.599998
 21
-20.692692
  0
LINE
  8
0
  6
DASHED
 62
     2
 10
110.400002
 20
-23.000000
 11
110.400002
 21
-20.692692
  0
LINE
  8
0
  6
CENTER
 62
     2
 10
122.000000
 20
-25.312210
 11
122.000000
 21
48.121078
  0
LINE
  8
0
  6
CENTER
 62
     2
 10
103.795761
 20
11.000000
 11
139.343018
 21
11.000000
  0
LINE
  8
0
 10
135.500015
 20
12.000000
 11
133.900009
 21
12.000000
  0
LINE
  8
0
 10
135.500015
 20
16.200012
 11
133.900009
 21
16.200012
  0
LINE
  8
0
 10
136.500015
 20
9.799988
 11
136.500015
 21
12.200012
  0
LINE
  8
0
 10
136.200012
 20
15.700012
 11
136.000015
 21
15.700012
  0
LINE
  8
0
 10
136.200012
 20
12.500000
 11
136.000015
 21
12.500000
  0
LINE
  8
0
 10
135.500000
 20
12.000018
 11
135.999985
 21
12.500010
  0
LINE
  8
0
 10
136.000092
 20
15.700081
 11
135.500092
 21
16.200081
  0
LINE
  8
0
 10
136.500015
 20
16.000000
 11
136.500015
 21
17.500015
  0
LINE
  8
0
 10
135.500015
 20
10.000000
 11
133.900009
 21
10.000000
  0
LINE
  8
0
 10
135.500015
 20
5.799988
 11
133.900009
 21
5.799988
  0
LINE
  8
0
 10
136.200012
 20
6.299988
 11
136.000015
 21
6.299988
  0
LINE
  8
0
 10
136.200012
 20
9.500000
 11
136.000015
 21
9.500000
  0
LINE
  8
0
 10
135.500107
 20
10.000086
 11
136.000107
 21
9.500086
  0
LINE
  8
0
 10
136.000031
 20
6.299987
 11
135.500031
 21
5.799985
  0
LINE
  8
0
 10
136.500031
 20
17.500031
 11
138.000015
 21
19.000008
  0
LINE
  8
0
 10
136.500015
 20
6.000000
 11
136.500015
 21
4.499985
  0
LINE
  8
0
 10
136.500046
 20
4.500008
 11
138.000031
 21
3.000022
  0
LINE
  8
0
 10
137.000000
 20
45.000000
 11
107.000000
 21
45.000000
  0
LINE
  8
0
 10
136.999969
 20
44.999989
 11
137.999969
 21
43.999992
  0
LINE
  8
0
 10
111.000000
 20
36.649994
 11
107.500000
 21
36.649994
  0
LINE
  8
0
 10
111.000000
 20
29.350006
 11
107.500000
 21
29.350006
  0
LINE
  8
0
 10
107.500000
 20
35.149994
 11
106.300003
 21
35.149994
  0
LINE
  8
0
 10
107.500000
 20
30.850006
 11
106.300003
 21
30.850006
  0
LINE
  8
0
 10
111.000000
 20
29.350006
 11
111.000000
 21
36.649994
  0
LINE
  8
0
 10
107.500000
 20
29.350006
 11
107.500000
 21
30.850006
  0
LINE
  8
0
 10
107.500000
 20
35.149994
 11
107.500000
 21
36.649994
  0
LINE
  8
0
 10
106.000000
 20
35.449997
 11
106.000000
 21
44.000000
  0
LINE
  8
0
 10
106.999969
 20
45.000000
 11
105.999969
 21
44.000000
  0
LINE
  8
0
  6
CENTER
 62
     2
 10
129.292236
 20
34.500000
 11
114.660225
 21
34.500000
  0
LINE
  8
0
 10
108.499985
 20
12.000000
 11
110.099991
 21
12.000000
  0
LINE
  8
0
 10
108.499985
 20
16.200012
 11
110.099991
 21
16.200012
  0
LINE
  8
0
 10
107.499985
 20
9.799988
 11
107.499985
 21
12.200012
  0
LINE
  8
0
 10
107.799988
 20
15.700012
 11
107.999985
 21
15.700012
  0
LINE
  8
0
 10
107.799988
 20
12.500000
 11
107.999985
 21
12.500000
  0
LINE
  8
0
 10
108.500023
 20
12.000027
 11
108.000031
 21
12.500015
  0
LINE
  8
0
 10
107.999924
 20
15.700096
 11
108.499924
 21
16.200098
  0
LINE
  8
0
 10
107.499985
 20
16.000000
 11
107.499985
 21
17.500015
  0
LINE
  8
0
 10
108.499985
 20
10.000000
 11
110.099991
 21
10.000000
  0
LINE
  8
0
 10
108.499985
 20
5.799988
 11
110.099991
 21
5.799988
  0
LINE
  8
0
 10
107.799988
 20
6.299988
 11
107.999985
 21
6.299988
  0
LINE
  8
0
 10
107.799988
 20
9.500000
 11
107.999985
 21
9.500000
  0
LINE
  8
0
 10
108.499908
 20
10.000084
 11
107.999908
 21
9.500083
  0
LINE
  8
0
 10
107.999985
 20
6.299983
 11
108.499985
 21
5.799982
  0
LINE
  8
0
 10
107.499969
 20
17.500027
 11
105.999977
 21
19.000017
  0
LINE
  8
0
 10
107.499985
 20
6.000000
 11
107.499985
 21
4.499985
  0
LINE
  8
0
 10
107.499962
 20
4.499984
 11
105.999969
 21
2.999994
  0
LINE
  8
0
 10
106.000000
 20
19.000000
 11
106.000000
 21
30.550003
  0
LINE
  8
0
 10
137.000000
 20
-22.999979
 11
137.999985
 21
-21.999981
  0
LINE
  8
0
  6
CENTER
 62
     2
 10
129.428131
 20
-12.500000
 11
114.986710
 21
-12.500000
  0
LINE
  8
0
  6
CENTER
 62
     2
 10
112.000000
 20
44.204285
 11
112.000000
 21
37.590607
  0
LINE
  8
0
  6
CENTER
 62
     2
 10
108.643593
 20
41.000000
 11
115.182945
 21
41.000000
  0
LINE
  8
0
  6
CENTER
 62
     2
 10
112.000000
 20
-22.204285
 11
112.000000
 21
-15.590622
  0
LINE
  8
0
  6
CENTER
 62
     2
 10
115.356407
 20
-19.000000
 11
108.817055
 21
-19.000000
  0
LINE
  8
0
  6
CENTER
 62
     2
 10
132.000000
 20
44.204285
 11
132.000000
 21
37.590607
  0
LINE
  8
0
  6
CENTER
 62
     2
 10
135.356415
 20
41.000000
 11
128.817047
 21
41.000000
  0
LINE
  8
0
 10
138.000000
 20
19.000000
 11
138.000000
 21
30.550003
  0
LINE
  8
0
 10
138.000000
 20
35.449997
 11
138.000000
 21
44.000000
  0
LINE
  8
0
 10
138.000000
 20
3.000000
 11
138.000000
 21
-8.550003
  0
LINE
  8
0
 10
138.000000
 20
-13.449997
 11
138.000000
 21
-22.000000
  0
LINE
  8
0
 10
131.500000
 20
36.649994
 11
135.000000
 21
36.649994
  0
LINE
  8
0
 10
131.500000
 20
29.350006
 11
135.000000
 21
29.350006
  0
LINE
  8
0
 10
135.000000
 20
35.149994
 11
137.699997
 21
35.149994
  0
LINE
  8
0
 10
135.000000
 20
30.850006
 11
137.699997
 21
30.850006
  0
LINE
  8
0
 10
131.500000
 20
29.350006
 11
131.500000
 21
36.649994
  0
LINE
  8
0
 10
135.000000
 20
29.350006
 11
135.000000
 21
30.850006
  0
LINE
  8
0
 10
135.000000
 20
35.149994
 11
135.000000
 21
36.649994
  0
LINE
  8
0
 10
131.500000
 20
-7.350006
 11
131.500000
 21
-14.649994
  0
LINE
  8
0
 10
131.500000
 20
-14.649994
 11
135.000000
 21
-14.649994
  0
LINE
  8
0
 10
131.500000
 20
-7.350006
 11
135.000000
 21
-7.350006
  0
LINE
  8
0
 10
135.000000
 20
-13.149994
 11
137.699997
 21
-13.149994
  0
LINE
  8
0
 10
135.000000
 20
-8.850006
 11
137.699997
 21
-8.850006
  0
LINE
  8
0
 10
135.000000
 20
-7.350006
 11
135.000000
 21
-8.850006
  0
LINE
  8
0
 10
135.000000
 20
-13.149994
 11
135.000000
 21
-14.649994
  0
LINE
  8
0
  6
CENTER
 62
     2
 10
110.966072
 20
-8.000000
 11
114.102707
 21
-8.000000
  0
LINE
  8
0
 10
137.000000
 20
-23.000000
 11
107.000000
 21
-23.000000
  0
LINE
  8
0
 10
106.999977
 20
-23.000011
 11
105.999977
 21
-22.000015
  0
LINE
  8
0
 10
106.000000
 20
-22.000015
 11
106.000000
 21
-19.592545
  0
LINE
  8
0
 10
108.999969
 20
-16.017313
 11
105.999992
 21
-13.500027
  0
LINE
  8
0
 10
106.000000
 20
-13.500000
 11
106.000000
 21
3.000015
  0
LINE
  8
0
 10
106.000008
 20
-19.592531
 11
109.000000
 21
-16.017269
  0
LINE
  8
0
  6
CENTER
 62
     2
 10
130.415619
 20
33.000000
 11
133.597015
 21
33.000000
  0
LINE
  8
0
  6
CENTER
 62
     2
 10
130.284821
 20
-11.000000
 11
133.435638
 21
-11.000000
  0
LINE
  8
0
 10
127.196152
 20
-9.500000
 11
131.500000
 21
-9.500000
  0
LINE
  8
0
 10
128.000000
 20
-12.500000
 11
131.500000
 21
-12.500000
  0
LINE
  8
0
 10
127.196152
 20
31.500000
 11
131.500000
 21
31.500000
  0
LINE
  8
0
 10
128.000000
 20
34.500000
 11
131.500000
 21
34.500000
  0
LINE
  8
0
  6
CENTER
 62
     2
 10
112.109581
 20
33.000000
 11
106.834923
 21
33.000000
  0
LINE
  8
0
  6
CENTER
 62
     2
 10
112.500000
 20
-9.634415
 11
112.500000
 21
-6.455048
  0
LINE
  8
0
  6
CENTER
 62
     2
 10
132.000000
 20
-22.204285
 11
132.000000
 21
-15.590622
  0
LINE
  8
0
  6
CENTER
 62
     2
 10
135.356415
 20
-19.000000
 11
128.817047
 21
-19.000000
  0
LINE
  8
0
 10
135.000000
 20
-13.149994
 11
135.000000
 21
-8.850006
  0
LINE
  8
0
 10
109.000000
 20
5.799988
 11
109.000000
 21
9.688854
  0
LINE
  8
0
 10
109.000000
 20
29.350006
 11
109.000000
 21
36.649994
  0
LINE
  8
0
 10
109.000000
 20
12.000000
 11
109.000000
 21
16.200012
  0
LINE
  8
0
 10
135.000000
 20
30.850006
 11
135.000000
 21
35.149994
  0
LINE
  8
0
 10
135.000000
 20
12.000000
 11
135.000000
 21
16.200012
  0
LINE
  8
0
 10
135.000000
 20
5.799988
 11
135.000000
 21
10.000000
  0
LINE
  8
0
 10
-194.250000
 20
132.600006
 11
194.800003
 21
132.600006
  0
LINE
  8
0
 10
194.800003
 20
132.600006
 11
194.800003
 21
-133.500000
  0
LINE
  8
0
 10
-194.250000
 20
132.600006
 11
-194.250000
 21
-133.500000
  0
LINE
  8
0
 10
-194.250000
 20
-133.500000
 11
194.800003
 21
-133.500000
  0
LINE
  8
0
 10
109.800003
 20
-118.500000
 11
109.800003
 21
-133.500000
  0
LINE
  8
0
 10
109.800003
 20
-118.500000
 11
194.800003
 21
-118.500000
  0
LINE
  8
0
 10
109.800003
 20
132.600006
 11
109.800003
 21
117.600006
  0
LINE
  8
0
 10
109.800003
 20
117.600006
 11
194.800003
 21
117.600006
  0
LINE
  8
0
 10
-194.250000
 20
117.600006
 11
-84.250000
 21
117.600006
  0
LINE
  8
0
 10
-84.250000
 20
132.600006
 11
-84.250000
 21
117.600006
  0
LINE
  8
0
 10
-184.250000
 20
-123.500000
 11
-87.250000
 21
-123.500000
  0
LINE
  8
0
 10
-184.250000
 20
-123.500000
 11
-184.250000
 21
-92.500000
  0
LINE
  8
0
 10
-184.250000
 20
-115.500000
 11
-87.250000
 21
-115.500000
  0
LINE
  8
0
 10
-184.250000
 20
-107.500000
 11
-87.250000
 21
-107.500000
  0
LINE
  8
0
 10
-159.250000
 20
-123.500000
 11
-159.250000
 21
-92.500000
  0
LINE
  8
0
 10
-135.250000
 20
-123.500000
 11
-135.250000
 21
-92.500000
  0
LINE
  8
0
 10
-147.250000
 20
-123.500000
 11
-147.250000
 21
-92.500000
  0
LINE
  8
0
 10
-123.250000
 20
-123.500000
 11
-123.250000
 21
-92.500000
  0
LINE
  8
0
 10
-111.250000
 20
-123.500000
 11
-111.250000
 21
-92.500000
  0
LINE
  8
0
 10
-99.250000
 20
-123.500000
 11
-99.250000
 21
-92.500000
  0
LINE
  8
0
 10
-159.250046
 20
-107.500015
 11
-161.929535
 21
-97.500023
  0
LINE
  8
0
 10
-184.250000
 20
-97.500000
 11
-161.929489
 21
-97.500000
  0
LINE
  8
0
 10
-184.250000
 20
-92.500000
 11
-87.250000
 21
-92.500000
  0
LINE
  8
0
 10
-87.250000
 20
-123.500000
 11
-87.250000
 21
-92.500000
  0
ARC
  8
0
 10
-19.000000
 20
11.000000
 40
4.000001
 50
331.044952
 51
28.955065
  0
CIRCLE
  8
0
 10
-9.000000
 20
24.000000
 40
4.000000
  0
CIRCLE
  8
0
 10
-9.000000
 20
24.000000
 40
2.100000
  0
CIRCLE
  8
0
  6
DASHED
 62
     2
 10
-9.000000
 20
24.000000
 40
2.500000
  0
CIRCLE
  8
0
 10
6.000000
 20
24.000000
 40
4.000000
  0
CIRCLE
  8
0
 10
6.000000
 20
24.000000
 40
2.100000
  0
CIRCLE
  8
0
  6
DASHED
 62
     2
 10
6.000000
 20
24.000000
 40
2.500000
  0
CIRCLE
  8
0
 10
-9.000000
 20
-2.000000
 40
4.000000
  0
CIRCLE
  8
0
 10
-9.000000
 20
-2.000000
 40
2.100000
  0
CIRCLE
  8
0
  6
DASHED
 62
     2
 10
-9.000000
 20
-2.000000
 40
2.500000
  0
CIRCLE
  8
0
 10
6.000015
 20
-2.000000
 40
4.000000
  0
CIRCLE
  8
0
 10
6.000015
 20
-2.000000
 40
2.100000
  0
CIRCLE
  8
0
  6
DASHED
 62
     2
 10
6.000015
 20
-2.000000
 40
2.500000
  0
CIRCLE
  8
0
 62
     2
 10
-4.000000
 20
-8.000000
 40
2.500000
  0
CIRCLE
  8
0
 62
     2
 10
15.500008
 20
-8.000000
 40
2.500000
  0
CIRCLE
  8
0
 10
-4.000000
 20
-8.000000
 40
2.100000
  0
CIRCLE
  8
0
 10
15.500008
 20
-8.000000
 40
2.100000
  0
CIRCLE
  8
0
 10
-127.000000
 20
11.000000
 40
2.850000
  0
ARC
  8
0
 10
-141.200012
 20
6.000000
 40
0.300000
 50
90.000000
 51
180.000000
  0
ARC
  8
0
 10
-141.200012
 20
16.000000
 40
0.300003
 50
180.000000
 51
270.000000
  0
ARC
  8
0
 10
-141.200012
 20
12.200012
 40
0.300000
 50
90.000000
 51
180.000000
  0
ARC
  8
0
 10
-141.200012
 20
9.799988
 40
0.300003
 50
180.000000
 51
270.000000
  0
ARC
  8
0
 10
-111.300003
 20
35.449997
 40
0.299999
 50
270.000000
 51
0.000000
  0
ARC
  8
0
 10
-111.300003
 20
30.550003
 40
0.300003
 50
0.000000
 51
90.000000
  0
ARC
  8
0
 10
-112.799988
 20
6.000000
 40
0.300003
 50
0.000091
 51
90.000000
  0
ARC
  8
0
 10
-112.799988
 20
16.000000
 40
0.300000
 50
270.000000
 51
0.000000
  0
ARC
  8
0
 10
-112.799988
 20
12.200012
 40
0.300003
 50
0.000000
 51
90.000000
  0
ARC
  8
0
 10
-112.799988
 20
9.799988
 40
0.300000
 50
270.000000
 51
0.000000
  0
ARC
  8
0
 10
-142.699997
 20
35.449997
 40
0.300003
 50
180.000000
 51
270.000000
  0
ARC
  8
0
 10
-142.699997
 20
30.550003
 40
0.299999
 50
90.000000
 51
180.000000
  0
ARC
  8
0
 10
-142.699997
 20
-8.550003
 40
0.300003
 50
180.000000
 51
270.000000
  0
ARC
  8
0
 10
-142.699997
 20
-13.449997
 40
0.300000
 50
90.000000
 51
180.000000
  0
CIRCLE
  8
0
 10
-127.000000
 20
34.500000
 40
5.250000
  0
CIRCLE
  8
0
 10
-127.000000
 20
11.000000
 40
5.250000
  0
CIRCLE
  8
0
 10
-127.000000
 20
-12.500000
 40
5.250000
  0
CIRCLE
  8
0
 62
     2
 10
-119.000000
 20
39.000000
 40
2.500000
  0
CIRCLE
  8
0
 10
-119.000000
 20
39.000000
 40
2.100000
  0
CIRCLE
  8
0
 62
     2
 10
-135.000000
 20
39.000000
 40
2.500000
  0
CIRCLE
  8
0
 10
-135.000000
 20
39.000000
 40
2.100000
  0
CIRCLE
  8
0
 62
     2
 10
-119.000000
 20
-17.000000
 40
2.500000
  0
CIRCLE
  8
0
 10
-119.000000
 20
-17.000000
 40
2.100000
  0
CIRCLE
  8
0
 62
     2
 10
-135.000000
 20
-17.000000
 40
2.500000
  0
CIRCLE
  8
0
 10
-135.000000
 20
-17.000000
 40
2.100000
  0
CIRCLE
  8
0
 10
-127.000000
 20
-12.500000
 40
4.750000
  0
CIRCLE
  8
0
 10
-127.000000
 20
-12.500000
 40
2.850000
  0
CIRCLE
  8
0
 10
-127.000000
 20
34.500000
 40
4.750000
  0
CIRCLE
  8
0
 10
-127.000000
 20
34.500000
 40
2.850000
  0
CIRCLE
  8
0
 10
-127.000000
 20
11.000000
 40
4.750000
  0
ARC
  8
0
 10
136.200012
 20
6.000000
 40
0.300003
 50
0.000091
 51
90.000000
  0
ARC
  8
0
 10
133.900009
 20
14.100006
 40
2.100000
 50
90.000000
 51
270.000000
  0
ARC
  8
0
 10
136.200012
 20
16.000000
 40
0.300000
 50
270.000000
 51
0.000000
  0
ARC
  8
0
 10
136.200012
 20
12.200012
 40
0.300003
 50
0.000000
 51
90.000000
  0
ARC
  8
0
 10
136.200012
 20
9.799988
 40
0.300000
 50
270.000000
 51
0.000000
  0
ARC
  8
0
 10
133.900009
 20
7.899994
 40
2.100000
 50
90.000000
 51
270.000000
  0
ARC
  8
0
 10
106.300003
 20
35.449997
 40
0.300003
 50
180.000000
 51
270.000000
  0
ARC
  8
0
 10
106.300003
 20
30.550003
 40
0.299999
 50
90.000000
 51
180.000000
  0
CIRCLE
  8
0
 10
122.000000
 20
34.500000
 40
6.000000
  0
ARC
  8
0
 10
110.099991
 20
7.899994
 40
2.100000
 50
270.000000
 51
90.000000
  0
ARC
  8
0
 10
107.799988
 20
6.000000
 40
0.300000
 50
90.000000
 51
180.000000
  0
ARC
  8
0
 10
110.099991
 20
14.100006
 40
2.100000
 50
270.000000
 51
90.000000
  0
ARC
  8
0
 10
107.799988
 20
16.000000
 40
0.300003
 50
180.000000
 51
270.000000
  0
ARC
  8
0
 10
107.799988
 20
12.200012
 40
0.300000
 50
90.000000
 51
180.000000
  0
ARC
  8
0
 10
107.799988
 20
9.799988
 40
0.300003
 50
180.000000
 51
270.000000
  0
CIRCLE
  8
0
 10
122.000000
 20
-12.500000
 40
6.000000
  0
CIRCLE
  8
0
 62
     2
 10
112.000000
 20
41.000000
 40
2.500000
  0
CIRCLE
  8
0
 10
112.000000
 20
41.000000
 40
2.100000
  0
CIRCLE
  8
0
 62
     2
 10
112.000000
 20
-19.000000
 40
2.500000
  0
CIRCLE
  8
0
 10
112.000000
 20
-19.000000
 40
2.100000
  0
CIRCLE
  8
0
 62
     2
 10
132.000000
 20
41.000000
 40
2.500000
  0
CIRCLE
  8
0
 10
132.000000
 20
41.000000
 40
2.100000
  0
ARC
  8
0
 10
137.699997
 20
-8.550003
 40
0.300000
 50
270.000000
 51
0.000000
  0
ARC
  8
0
 10
137.699997
 20
-13.449997
 40
0.300003
 50
0.000000
 51
90.000000
  0
ARC
  8
0
 10
137.699997
 20
35.449997
 40
0.299999
 50
270.000000
 51
0.000000
  0
ARC
  8
0
 10
137.699997
 20
30.550003
 40
0.300003
 50
0.000000
 51
90.000000
  0
CIRCLE
  8
0
 10
112.500000
 20
-8.000000
 40
1.000000
  0
CIRCLE
  8
0
 10
132.000000
 20
-19.000000
 40
2.100000
  0
CIRCLE
  8
0
 62
     2
 10
132.000000
 20
-19.000000
 40
2.500000
  0
CIRCLE
  8
0
 10
122.000000
 20
-12.500000
 40
5.000000
  0
CIRCLE
  8
0
 10
122.000000
 20
34.500000
 40
5.000000
  0
CIRCLE
  8
0
 10
122.000000
 20
11.000000
 40
9.000000
  0
ARC
  8
0
 10
-3.417649
 20
-14.504692
 40
0.417649
 50
344.498688
 51
15.501308
  0
ARC
  8
0
 10
-3.572219
 20
-14.567026
 40
0.583557
 50
17.343166
 51
54.573532
  0
ARC
  8
0
 10
-4.000000
 20
-15.254539
 40
1.392646
 50
56.628613
 51
123.371399
  0
ARC
  8
0
 10
-4.427781
 20
-14.567026
 40
0.583557
 50
125.426491
 51
162.656845
  0
ARC
  8
0
 10
-4.582352
 20
-14.504692
 40
0.417649
 50
164.498688
 51
195.501312
  0
ARC
  8
0
 10
-4.427781
 20
-14.442358
 40
0.583557
 50
197.343155
 51
234.573517
  0
ARC
  8
0
 10
-4.000000
 20
-13.754845
 40
1.392647
 50
236.628601
 51
303.371399
  0
ARC
  8
0
 10
-3.572219
 20
-14.442358
 40
0.583557
 50
305.426483
 51
342.656830
  0
ARC
  8
0
 10
16.082359
 20
-14.504692
 40
0.417649
 50
344.498688
 51
15.501308
  0
ARC
  8
0
 10
15.927789
 20
-14.567026
 40
0.583557
 50
17.343161
 51
54.573513
  0
ARC
  8
0
 10
15.500008
 20
-15.254539
 40
1.392647
 50
56.628605
 51
123.371399
  0
ARC
  8
0
 10
15.072227
 20
-14.567026
 40
0.583557
 50
125.426491
 51
162.656845
  0
ARC
  8
0
 10
14.917656
 20
-14.504692
 40
0.417649
 50
164.498688
 51
195.501312
  0
ARC
  8
0
 10
15.072227
 20
-14.442358
 40
0.583557
 50
197.343155
 51
234.573517
  0
ARC
  8
0
 10
15.500008
 20
-13.754845
 40
1.392647
 50
236.628601
 51
303.371399
  0
ARC
  8
0
 10
15.927789
 20
-14.442358
 40
0.583557
 50
305.426483
 51
342.656830
  0
TEXT
  8
0
 10
133.907150
 20
122.050003
 40
4.500000
  1
Ver. 1.0
 50
0.000000
 41
1.052631
 51
0.000000
  7
STANDARD
  0
TEXT
  8
0
 10
113.700279
 20
-130.669998
 40
6.300000
  1
KOGANEI CORP.
 50
0.000000
 41
1.052632
 51
0.000000
  7
STANDARD
  0
TEXT
  8
0
 10
-191.392654
 20
122.050003
 40
4.500000
  1
JIG CYLINDER WITH GUIDE
 50
0.000000
 41
1.052632
 51
0.000000
  7
STANDARD
  0
TEXT
  8
0
 10
-186.892654
 20
104.550003
 40
4.500000
  1
MODEL:SGDA16*ST(10)
 50
0.000000
 41
1.052632
 51
0.000000
  7
STANDARD
  0
TEXT
  8
0
 10
-159.892853
 20
97.550003
 40
4.500000
  1
SGDAF16*ST(10)
 50
0.000000
 41
1.052632
 51
0.000000
  7
STANDARD
  0
TEXT
  8
0
 62
     3
 10
3.692858
 20
54.119999
 40
3.200000
  1
STRETCH LINE A
 50
0.000000
 41
1.052631
 51
0.000000
  7
STANDARD
  0
TEXT
  8
0
 10
-181.557144
 20
-96.879997
 40
3.200000
  1
STROKE
 50
0.000000
 41
1.052631
 51
0.000000
  7
STANDARD
  0
TEXT
  8
0
 10
-173.557144
 20
-113.379997
 40
3.200000
  1
A
 50
0.000000
 41
1.052631
 51
0.000000
  7
STANDARD
  0
TEXT
  8
0
 10
-184.496872
 20
-101.019997
 40
3.200000
  1
STRETCH
 50
0.000000
 41
1.052631
 51
0.000000
  7
STANDARD
  0
TEXT
  8
0
 10
-184.496872
 20
-105.820000
 40
3.200000
  1
  PLACE
 50
0.000000
 41
1.052631
 51
0.000000
  7
STANDARD
  0
TEXT
  8
0
 10
-156.657150
 20
-101.879997
 40
3.200000
  1
10
 50
0.000000
 41
1.052631
 51
0.000000
  7
STANDARD
  0
TEXT
  8
0
 10
-144.657150
 20
-101.879997
 40
3.200000
  1
20
 50
0.000000
 41
1.052631
 51
0.000000
  7
STANDARD
  0
TEXT
  8
0
 10
-132.657150
 20
-101.879997
 40
3.200000
  1
30
 50
0.000000
 41
1.052631
 51
0.000000
  7
STANDARD
  0
TEXT
  8
0
 10
-120.657158
 20
-101.879997
 40
3.200000
  1
50
 50
0.000000
 41
1.052631
 51
0.000000
  7
STANDARD
  0
TEXT
  8
0
 10
-108.657158
 20
-101.879997
 40
3.200000
  1
75
 50
0.000000
 41
1.052631
 51
0.000000
  7
STANDARD
  0
TEXT
  8
0
 10
-98.257156
 20
-101.879997
 40
3.200000
  1
100
 50
0.000000
 41
1.052631
 51
0.000000
  7
STANDARD
  0
TEXT
  8
0
 10
-99.857140
 20
-91.379997
 40
3.200000
  1
(mm)
 50
0.000000
 41
1.052631
 51
0.000000
  7
STANDARD
  0
TEXT
  8
0
 10
-155.157135
 20
-91.379997
 40
3.200000
  1
STRETCH LIST
 50
0.000000
 41
1.052631
 51
0.000000
  7
STANDARD
  0
TEXT
  8
0
 10
-173.557007
 20
-121.379997
 40
3.200000
  1
B
 50
0.000000
 41
1.052632
 51
0.000000
  7
STANDARD
  0
TEXT
  8
0
 10
-155.057007
 20
-113.379997
 40
3.200000
  1
0
 50
0.000000
 41
1.052632
 51
0.000000
  7
STANDARD
  0
TEXT
  8
0
 10
-143.057007
 20
-113.379997
 40
3.200000
  1
0
 50
0.000000
 41
1.052632
 51
0.000000
  7
STANDARD
  0
TEXT
  8
0
 10
-131.057007
 20
-113.379997
 40
3.200000
  1
0
 50
0.000000
 41
1.052632
 51
0.000000
  7
STANDARD
  0
TEXT
  8
0
 10
-119.056999
 20
-113.379997
 40
3.200000
  1
0
 50
0.000000
 41
1.052632
 51
0.000000
  7
STANDARD
  0
TEXT
  8
0
 10
-108.656998
 20
-113.379997
 40
3.200000
  1
25
 50
0.000000
 41
1.052632
 51
0.000000
  7
STANDARD
  0
TEXT
  8
0
 10
-96.656998
 20
-113.379997
 40
3.200000
  1
50
 50
0.000000
 41
1.052632
 51
0.000000
  7
STANDARD
  0
TEXT
  8
0
 10
-96.656998
 20
-121.379997
 40
3.200000
  1
40
 50
0.000000
 41
1.052632
 51
0.000000
  7
STANDARD
  0
TEXT
  8
0
 10
-108.656998
 20
-121.379997
 40
3.200000
  1
40
 50
0.000000
 41
1.052632
 51
0.000000
  7
STANDARD
  0
TEXT
  8
0
 10
-120.656998
 20
-121.379997
 40
3.200000
  1
40
 50
0.000000
 41
1.052632
 51
0.000000
  7
STANDARD
  0
TEXT
  8
0
 10
-132.656998
 20
-121.379997
 40
3.200000
  1
20
 50
0.000000
 41
1.052632
 51
0.000000
  7
STANDARD
  0
TEXT
  8
0
 10
-144.656998
 20
-121.379997
 40
3.200000
  1
10
 50
0.000000
 41
1.052632
 51
0.000000
  7
STANDARD
  0
TEXT
  8
0
 10
-155.057007
 20
-121.379997
 40
3.200000
  1
0
 50
0.000000
 41
1.052632
 51
0.000000
  7
STANDARD
  0
TEXT
  8
0
 62
     3
 10
-7.307000
 20
61.119999
 40
3.200000
  1
STRETCH LINE B
 50
0.000000
 41
1.052632
 51
0.000000
  7
STANDARD
  0
TEXT
  8
0
 62
     2
 10
49.429943
 20
-37.000000
 40
3.200000
  1
STROKE=75-100
 50
0.000000
 41
1.052632
 51
0.000000
  7
STANDARD
  0
LINE
  8
0
 62
     2
 10
46.000000
 20
-38.000000
 11
90.779945
 21
-38.000000
  0
LINE
  8
0
 62
     2
 10
23.000008
 20
-38.000000
 11
46.000000
 21
-38.000000
  0
LINE
  8
0
 62
     2
 10
23.000008
 20
-38.000000
 11
25.897785
 21
-37.223541
  0
LINE
  8
0
 62
     2
 10
23.000008
 20
-38.000000
 11
25.897785
 21
-38.776459
  0
LINE
  8
0
 62
     2
 10
46.000000
 20
-38.000000
 11
43.102222
 21
-38.776459
  0
LINE
  8
0
 62
     2
 10
46.000000
 20
-38.000000
 11
43.102222
 21
-37.223541
  0
LINE
  8
0
 62
     2
 10
23.000008
 20
-22.500000
 11
23.000008
 21
-39.500000
  0
LINE
  8
0
 62
     2
 10
46.000000
 20
-17.000000
 11
46.000000
 21
-39.500000
  0
ENDSEC
  0
EOF
