  0
SECTION
  2
HEADER
  0
ENDSEC
  0
SECTION
  2
TABLES
  0
TABLE
  2
LTYPE
 70
     4
  0
LTYPE
  2
CONTINUOUS
 70
    64
  3
Solid line
 72
    65
 73
     0
 40
0.000000
  0
LTYPE
  2
DASHED
 70
    64
  3
__ __ __ __ __ __ __ __ __ __ __ __ __ __ __
 72
    65
 73
     2
 40
3.500000
 49
2.000000
 49
-1.500000
  0
LTYPE
  2
CENTER
 70
    64
  3
____ _ ____ _ ____ _ ____ _ ____ _ ____ _ ____
 72
    65
 73
     4
 40
17.500000
 49
13.000000
 49
-1.500000
 49
1.500000
 49
-1.500000
  0
LTYPE
  2
PHANTOM
 70
    64
  3
_____ _ _ _____ _ _ _____ _ _ _____ _ _ ____  
 72
    65
 73
     6
 40
15.500000
 49
8.000000
 49
-1.500000
 49
1.500000
 49
-1.500000
 49
1.500000
 49
-1.500000
  0
LTYPE
  2
DASHED1
 70
    64
  3
__ __ __ __ __ __ __ __ __ __ __ __ __ __ __
 72
    65
 73
     2
 40
1.500000
 49
1.000000
 49
-0.500000
  0
LTYPE
  2
DASHED2
 70
    64
  3
__ __ __ __ __ __ __ __ __ __ __ __ __ __ __
 72
    65
 73
     2
 40
3.500000
 49
2.500000
 49
-1.000000
  0
LTYPE
  2
DASHED3
 70
    64
  3
__ __ __ __ __ __ __ __ __ __ __ __ __ __ __
 72
    65
 73
     2
 40
6.000000
 49
4.000000
 49
-2.000000
  0
LTYPE
  2
DASHED4
 70
    64
  3
__ __ __ __ __ __ __ __ __ __ __ __ __ __ __
 72
    65
 73
     2
 40
12.000000
 49
10.000000
 49
-2.000000
  0
LTYPE
  2
DASHED5
 70
    64
  3
__ __ __ __ __ __ __ __ __ __ __ __ __ __ __
 72
    65
 73
     2
 40
17.000000
 49
15.000000
 49
-2.000000
  0
LTYPE
  2
DASHED6
 70
    64
  3
__ __ __ __ __ __ __ __ __ __ __ __ __ __ __
 72
    65
 73
     2
 40
29.000000
 49
27.000000
 49
-2.000000
  0
LTYPE
  2
PHANTOM1
 70
    64
  3
_____ _ _ _____ _ _ _____ _ _ _____ _ _ ____  
 72
    65
 73
     6
 40
31.000000
 49
25.000000
 49
-1.500000
 49
1.000000
 49
-1.000000
 49
1.000000
 49
-1.500000
  0
LTYPE
  2
PHANTOM2
 70
    64
  3
_____ _ _ _____ _ _ _____ _ _ _____ _ _ ____  
 72
    65
 73
     6
 40
36.000000
 49
27.000000
 49
-1.500000
 49
2.500000
 49
-1.000000
 49
2.500000
 49
-1.500000
  0
LTYPE
  2
PHANTOM3
 70
    64
  3
_____ _ _ _____ _ _ _____ _ _ _____ _ _ ____  
 72
    65
 73
     6
 40
78.000000
 49
64.000000
 49
-2.000000
 49
4.000000
 49
-2.000000
 49
4.000000
 49
-2.000000
  0
LTYPE
  2
CENTER1
 70
    64
  3
____ _ ____ _ ____ _ ____ _ ____ _ ____ _ ____
 72
    65
 73
     4
 40
19.000000
 49
14.000000
 49
-1.000000
 49
3.000000
 49
-1.000000
  0
LTYPE
  2
CENTER2
 70
    64
  3
____ _ ____ _ ____ _ ____ _ ____ _ ____ _ ____
 72
    65
 73
     4
 40
28.500000
 49
25.000000
 49
-1.000000
 49
1.500000
 49
-1.000000
  0
LTYPE
  2
CENTER3
 70
    64
  3
____ _ ____ _ ____ _ ____ _ ____ _ ____ _ ____
 72
    65
 73
     4
 40
31.500000
 49
27.000000
 49
-1.000000
 49
2.500000
 49
-1.000000
  0
LTYPE
  2
CENTER4
 70
    64
  3
____ _ ____ _ ____ _ ____ _ ____ _ ____ _ ____
 72
    65
 73
     4
 40
50.000000
 49
45.000000
 49
-1.000000
 49
3.000000
 49
-1.000000
  0
LTYPE
  2
CENTER5
 70
    64
  3
____ _ ____ _ ____ _ ____ _ ____ _ ____ _ ____
 72
    65
 73
     4
 40
100.000000
 49
92.000000
 49
-2.000000
 49
4.000000
 49
-2.000000
  0
LTYPE
  2
SBK1
 70
    64
  3
______ _ _ _ ______ _ _ _ ______ _ _ _ _____  
 72
    65
 73
     8
 40
60.500000
 49
45.000000
 49
-2.000000
 49
2.500000
 49
-2.000000
 49
2.500000
 49
-2.000000
 49
2.500000
 49
-2.000000
  0
LTYPE
  2
SBK2
 70
    64
  3
______ _ _ _ ______ _ _ _ ______ _ _ _ _____  
 72
    65
 73
     8
 40
84.000000
 49
64.000000
 49
-2.000000
 49
4.000000
 49
-2.000000
 49
4.000000
 49
-2.000000
 49
4.000000
 49
-2.000000
  0
LTYPE
  2
STCH
 70
    64
  3
__ __ __ __ __ __ __ __ __ __ __ __ __ __ __
 72
    65
 73
     2
 40
3.000000
 49
1.000000
 49
-2.000000
  0
LTYPE
  2
MTCH
 70
    64
  3
_____ _ _ _____ _ _ _____ _ _ _____ _ _ ____  
 72
    65
 73
     6
 40
80.000000
 49
66.000000
 49
-2.000000
 49
4.000000
 49
-2.000000
 49
4.000000
 49
-2.000000
  0
ENDTAB
  0
TABLE
  2
LAYER
 70
     1
  0
LAYER
  2
0
 70
     0
 62
     7
  6
CONTINUOUS
  0
ENDTAB
  0
TABLE
  2
STYLE
 70
     1
  0
STYLE
  2
STANDARD
 70
     0
 40
0.000000
 41
1.000000
 50
0.000000
 71
     0
 42
0.200000
  3
txt
  4
BIGFONT
  0
ENDTAB
  0
TABLE
  2
VIEW
 70
     0
  0
ENDTAB
  0
ENDSEC
  0
SECTION
  2
BLOCKS
  0
ENDSEC
  0
SECTION
  2
ENTITIES
  0
LINE
  8
0
  6
CENTER
 62
     2
 10
28.230003
 20
10.000000
 11
-47.744495
 21
10.000000
  0
LINE
  8
0
 10
-30.000000
 20
18.000000
 11
-26.000002
 21
18.000000
  0
LINE
  8
0
 10
-30.000000
 20
2.000000
 11
-26.000002
 21
2.000000
  0
LINE
  8
0
  6
CENTER
 62
     2
 10
-48.005180
 20
-29.999992
 11
-22.314215
 21
-29.999992
  0
LINE
  8
0
 10
-44.000034
 20
-45.999996
 11
-30.999969
 21
-45.999996
  0
LINE
  8
0
 10
-30.000000
 20
-45.000000
 11
-30.000000
 21
65.000046
  0
LINE
  8
0
 10
-44.000000
 20
66.000000
 11
-31.000004
 21
66.000000
  0
LINE
  8
0
 10
-45.000000
 20
65.000000
 11
-45.000000
 21
-45.000000
  0
LINE
  8
0
  6
CENTER
 62
     2
 10
-48.005180
 20
50.000000
 11
-22.314215
 21
50.000000
  0
LINE
  8
0
 10
-30.000000
 20
6.127018
 11
-28.500000
 21
6.127018
  0
LINE
  8
0
 10
-28.500000
 20
6.127018
 11
-28.500000
 21
13.872974
  0
LINE
  8
0
 10
-28.499969
 20
6.127037
 11
-29.999998
 21
11.936621
  0
LINE
  8
0
 10
-28.499994
 20
13.872870
 11
-29.999973
 21
8.063484
  0
LINE
  8
0
 10
-43.999935
 20
65.999924
 11
-44.999943
 21
64.999916
  0
LINE
  8
0
 10
-30.999987
 20
66.000061
 11
-29.999966
 21
65.000038
  0
LINE
  8
0
 10
-45.000053
 20
-45.000053
 11
-44.000061
 21
-46.000061
  0
LINE
  8
0
 10
-30.000057
 20
-45.000011
 11
-31.000029
 21
-46.000000
  0
LINE
  8
0
 10
-26.000023
 20
40.349991
 11
24.000023
 21
40.349991
  0
LINE
  8
0
 10
-26.000019
 20
45.649979
 11
24.000023
 21
45.649979
  0
LINE
  8
0
 10
-25.012976
 20
66.999992
 11
23.013016
 21
66.999992
  0
LINE
  8
0
 10
-26.000023
 20
22.500023
 11
24.000023
 21
22.500023
  0
LINE
  8
0
 10
-26.000023
 20
20.700008
 11
24.000023
 21
20.700008
  0
LINE
  8
0
 10
-26.000023
 20
17.500000
 11
24.000023
 21
17.500000
  0
LINE
  8
0
 10
23.012985
 20
67.000053
 11
23.999989
 21
66.013054
  0
LINE
  8
0
 10
-25.012852
 20
66.999855
 11
-25.999836
 21
66.012878
  0
LINE
  8
0
  6
CENTER
 62
     2
 10
-12.216911
 20
31.999992
 11
-26.000002
 21
31.999992
  0
LINE
  8
0
 10
-30.000000
 20
13.872875
 11
-28.500000
 21
13.872875
  0
LINE
  8
0
 10
-26.000002
 20
64.999947
 11
24.000046
 21
64.999947
  0
LINE
  8
0
  6
DASHED
 62
     2
 10
24.000046
 20
-19.999994
 11
59.500046
 21
-19.999994
  0
LINE
  8
0
  6
DASHED
 62
     2
 10
24.000046
 20
-40.000000
 11
59.500046
 21
-40.000000
  0
LINE
  8
0
  6
DASHED
 62
     2
 10
60.000046
 20
-20.499987
 11
60.000046
 21
-39.500004
  0
LINE
  8
0
  6
DASHED
 62
     2
 10
59.500034
 20
-20.000002
 11
60.000031
 21
-20.499994
  0
LINE
  8
0
  6
DASHED
 62
     2
 10
60.000027
 20
-39.499992
 11
59.500031
 21
-39.999992
  0
LINE
  8
0
  6
DASHED
 62
     2
 10
59.500031
 20
-19.999994
 11
59.500031
 21
-40.000000
  0
LINE
  8
0
  6
DASHED
 62
     2
 10
24.000046
 20
60.000000
 11
59.500046
 21
60.000000
  0
LINE
  8
0
  6
DASHED
 62
     2
 10
24.000046
 20
39.999992
 11
59.500046
 21
39.999992
  0
LINE
  8
0
  6
DASHED
 62
     2
 10
60.000046
 20
59.500008
 11
60.000046
 21
40.499992
  0
LINE
  8
0
  6
DASHED
 62
     2
 10
59.500011
 20
59.999962
 11
60.000011
 21
59.499966
  0
LINE
  8
0
  6
DASHED
 62
     2
 10
60.000042
 20
40.499989
 11
59.500046
 21
39.999992
  0
LINE
  8
0
  6
DASHED
 62
     2
 10
59.500031
 20
60.000000
 11
59.500031
 21
40.000000
  0
LINE
  8
0
 10
-30.000000
 20
-40.000011
 11
-26.000002
 21
-40.000011
  0
LINE
  8
0
 10
-30.000000
 20
-20.000011
 11
-26.000002
 21
-20.000011
  0
LINE
  8
0
 10
-30.000000
 20
59.999992
 11
-26.000002
 21
59.999992
  0
LINE
  8
0
 10
-30.000000
 20
39.999992
 11
-26.000002
 21
39.999992
  0
LINE
  8
0
 10
-25.012976
 20
-47.000015
 11
23.013008
 21
-47.000015
  0
LINE
  8
0
 10
-26.000008
 20
-4.500013
 11
24.000008
 21
-4.500013
  0
LINE
  8
0
 10
-26.000008
 20
-2.500044
 11
24.000015
 21
-2.500044
  0
LINE
  8
0
 10
-26.000008
 20
-0.700006
 11
24.000008
 21
-0.700006
  0
LINE
  8
0
 10
-26.000008
 20
2.500000
 11
24.000008
 21
2.500000
  0
LINE
  8
0
 10
-26.000002
 20
66.012947
 11
-26.000002
 21
-45.986961
  0
LINE
  8
0
 10
23.013063
 20
-47.000057
 11
24.000069
 21
-46.013058
  0
LINE
  8
0
 10
-25.012953
 20
-46.999943
 11
-25.999941
 21
-46.012959
  0
LINE
  8
0
  6
CENTER
 62
     2
 10
-19.000010
 20
-4.385004
 11
-19.000010
 21
-18.907867
  0
LINE
  8
0
  6
CENTER
 62
     2
 10
-11.950394
 20
-11.999992
 11
-26.000002
 21
-11.999992
  0
LINE
  8
0
  6
CENTER
 62
     2
 10
0.999977
 20
-4.385004
 11
0.999977
 21
-18.907867
  0
LINE
  8
0
  6
DASHED
 62
     2
 10
-12.000000
 20
-45.999973
 11
-20.000023
 21
-45.999973
  0
LINE
  8
0
  6
DASHED
 62
     2
 10
-21.000029
 20
-46.999996
 11
-20.000025
 21
-45.999992
  0
LINE
  8
0
  6
DASHED
 62
     2
 10
-20.000029
 20
-45.999996
 11
-20.000029
 21
-43.103371
  0
LINE
  8
0
  6
DASHED
 62
     2
 10
-20.999922
 20
-47.000034
 11
-20.795706
 21
-43.103371
  0
LINE
  8
0
  6
DASHED
 62
     2
 10
-11.999996
 20
-45.999996
 11
-11.999996
 21
-43.103371
  0
LINE
  8
0
  6
DASHED
 62
     2
 10
-10.999881
 20
-46.999973
 11
-11.204094
 21
-43.103371
  0
LINE
  8
0
  6
DASHED
 62
     2
 10
-11.000083
 20
-47.000092
 11
-12.000095
 21
-46.000080
  0
LINE
  8
0
  6
CENTER
 62
     2
 10
-13.000015
 20
-32.148159
 11
-13.000015
 21
-18.309628
  0
LINE
  8
0
  6
CENTER
 62
     2
 10
-6.433285
 20
-25.000000
 11
-19.528103
 21
-25.000000
  0
LINE
  8
0
  6
CENTER
 62
     2
 10
19.418579
 20
-25.000000
 11
5.398582
 21
-25.000000
  0
LINE
  8
0
  6
CENTER
 62
     2
 10
12.000004
 20
-32.021503
 11
12.000004
 21
-18.655199
  0
LINE
  8
0
  6
CENTER
 62
     2
 10
8.830654
 20
-12.000013
 11
-5.901516
 21
-12.000013
  0
LINE
  8
0
  6
CENTER
 62
     2
 10
-0.999992
 20
-41.840420
 11
-0.999992
 21
-49.366585
  0
LINE
  8
0
  6
DASHED
 62
     2
 10
-5.999953
 20
-47.000008
 11
-5.795739
 21
-43.103371
  0
LINE
  8
0
  6
DASHED
 62
     2
 10
-5.000008
 20
-45.999996
 11
-5.000008
 21
-43.103371
  0
LINE
  8
0
  6
DASHED
 62
     2
 10
3.000008
 20
-45.999973
 11
-5.000008
 21
-45.999973
  0
LINE
  8
0
  6
DASHED
 62
     2
 10
-6.000016
 20
-46.999996
 11
-5.000008
 21
-45.999989
  0
LINE
  8
0
  6
DASHED
 62
     2
 10
3.999916
 20
-47.000092
 11
2.999920
 21
-46.000095
  0
LINE
  8
0
  6
DASHED
 62
     2
 10
3.000015
 20
-45.999996
 11
3.000015
 21
-43.103371
  0
LINE
  8
0
  6
DASHED
 62
     2
 10
4.000124
 20
-46.999996
 11
3.795909
 21
-43.103371
  0
LINE
  8
0
  6
CENTER
 62
     2
 10
-16.000023
 20
-48.239464
 11
-16.000023
 21
-41.707478
  0
LINE
  8
0
 10
-26.000008
 20
-45.000000
 11
24.000008
 21
-45.000000
  0
LINE
  8
0
 10
24.000008
 20
66.013008
 11
24.000008
 21
-46.013008
  0
LINE
  8
0
  6
CENTER
 62
     2
 10
1.000019
 20
39.357246
 11
1.000019
 21
24.989902
  0
LINE
  8
0
  6
CENTER
 62
     2
 10
-18.999989
 20
39.510712
 11
-18.999989
 21
25.120605
  0
LINE
  8
0
  6
CENTER
 62
     2
 10
-6.008400
 20
31.999992
 11
8.608948
 21
31.999992
  0
LINE
  8
0
  6
PHANTOM
 62
     3
 10
-9.000000
 20
86.999992
 11
-9.000000
 21
-17.180000
  0
LINE
  8
0
  6
PHANTOM
 62
     3
 10
10.000000
 20
76.999992
 11
10.000000
 21
-19.080002
  0
LINE
  8
0
  6
PHANTOM
 62
     3
 10
-9.000000
 20
-17.180000
 11
-4.999996
 21
-17.180000
  0
LINE
  8
0
  6
PHANTOM
 62
     3
 10
4.000004
 20
-19.080002
 11
4.000004
 21
-35.180000
  0
LINE
  8
0
  6
PHANTOM
 62
     3
 10
-4.999996
 20
-17.180000
 11
-4.999996
 21
-32.180000
  0
LINE
  8
0
  6
PHANTOM
 62
     3
 10
4.000004
 20
-19.080002
 11
10.000000
 21
-19.080002
  0
LINE
  8
0
  6
PHANTOM
 62
     3
 10
-6.999996
 20
-35.180000
 11
4.000004
 21
-35.180000
  0
LINE
  8
0
  6
PHANTOM
 62
     3
 10
-6.999996
 20
-35.180000
 11
-6.999996
 21
-54.000015
  0
LINE
  8
0
  6
PHANTOM
 62
     3
 10
-9.500000
 20
-32.180000
 11
-4.999996
 21
-32.180000
  0
LINE
  8
0
  6
PHANTOM
 62
     3
 10
-9.500000
 20
-32.180000
 11
-9.500000
 21
-54.000015
  0
LINE
  8
0
 10
-111.000000
 20
64.999916
 11
-111.000000
 21
45.649979
  0
LINE
  8
0
  6
CENTER
 62
     2
 10
-109.180481
 20
10.000000
 11
-161.042480
 21
10.000000
  0
LINE
  8
0
 10
-112.999954
 20
22.500010
 11
-110.999962
 21
24.500000
  0
LINE
  8
0
 10
-112.999969
 20
22.499935
 11
-112.999969
 21
20.699902
  0
LINE
  8
0
 10
-112.999969
 20
17.499912
 11
-112.999969
 21
2.499893
  0
LINE
  8
0
 10
-112.999969
 20
-0.700094
 11
-112.999969
 21
-2.500086
  0
LINE
  8
0
 10
-113.000031
 20
-2.500093
 11
-111.087357
 21
-4.412764
  0
LINE
  8
0
 10
-111.000015
 20
45.649979
 11
-113.000000
 21
45.649979
  0
LINE
  8
0
 10
-111.000015
 20
40.349991
 11
-113.000000
 21
40.349991
  0
LINE
  8
0
 10
-111.000000
 20
40.349991
 11
-111.000000
 21
24.499928
  0
LINE
  8
0
 10
-156.999939
 20
22.500055
 11
-158.999924
 21
24.500015
  0
LINE
  8
0
 10
-157.000000
 20
22.499935
 11
-157.000000
 21
20.699902
  0
LINE
  8
0
 10
-157.000000
 20
17.499912
 11
-157.000000
 21
2.499893
  0
LINE
  8
0
 10
-157.000000
 20
-0.700094
 11
-157.000000
 21
-2.500109
  0
LINE
  8
0
 10
-157.000061
 20
-2.500021
 11
-158.912750
 21
-4.412704
  0
LINE
  8
0
 10
-158.999985
 20
64.999893
 11
-158.999985
 21
45.649979
  0
LINE
  8
0
 10
-158.999985
 20
40.349991
 11
-158.999985
 21
24.499928
  0
LINE
  8
0
 10
-158.999985
 20
-45.000088
 11
-158.999985
 21
-25.649979
  0
LINE
  8
0
 10
-158.999985
 20
-20.349993
 11
-158.999985
 21
-4.500078
  0
LINE
  8
0
 10
-113.000015
 20
66.999992
 11
-157.000046
 21
66.999992
  0
LINE
  8
0
 10
-112.999985
 20
-46.999992
 11
-157.000015
 21
-46.999992
  0
LINE
  8
0
 10
-159.000000
 20
-45.000019
 11
-157.000000
 21
-47.000023
  0
LINE
  8
0
 10
-158.999954
 20
64.999901
 11
-156.999969
 21
66.999893
  0
LINE
  8
0
 10
-111.000000
 20
-45.000027
 11
-113.000008
 21
-47.000038
  0
LINE
  8
0
 10
-111.000099
 20
64.999908
 11
-113.000099
 21
66.999908
  0
LINE
  8
0
 10
-111.000000
 20
-45.000088
 11
-111.000000
 21
-4.500078
  0
LINE
  8
0
 10
-159.000015
 20
45.649979
 11
-157.000000
 21
45.649979
  0
LINE
  8
0
 10
-159.000015
 20
40.349991
 11
-157.000000
 21
40.349991
  0
LINE
  8
0
 10
-159.000015
 20
-25.649979
 11
-157.000000
 21
-25.649979
  0
LINE
  8
0
 10
-159.000015
 20
-20.349993
 11
-157.000000
 21
-20.349993
  0
LINE
  8
0
 10
-156.000000
 20
66.000000
 11
-114.000015
 21
66.000000
  0
LINE
  8
0
 10
-156.000000
 20
-46.000000
 11
-114.000015
 21
-46.000000
  0
LINE
  8
0
 10
-155.999969
 20
65.999947
 11
-156.999954
 21
64.999954
  0
LINE
  8
0
 10
-113.999908
 20
66.000092
 11
-112.999901
 21
65.000099
  0
LINE
  8
0
 10
-156.999954
 20
-44.999950
 11
-155.999954
 21
-45.999954
  0
LINE
  8
0
 10
-113.000031
 20
-44.999966
 11
-114.000031
 21
-45.999969
  0
LINE
  8
0
  6
CENTER
 62
     2
 10
-121.000000
 20
-43.579903
 11
-121.000000
 21
-32.112000
  0
LINE
  8
0
  6
CENTER
 62
     2
 10
-143.574448
 20
58.000000
 11
-154.375610
 21
58.000000
  0
LINE
  8
0
  6
CENTER
 62
     2
 10
-149.000015
 20
-43.579903
 11
-149.000015
 21
-32.112000
  0
LINE
  8
0
  6
CENTER
 62
     2
 10
-143.574448
 20
-38.000000
 11
-154.375610
 21
-38.000000
  0
LINE
  8
0
 10
-135.000015
 20
-27.113186
 11
-137.500031
 21
-28.556562
  0
LINE
  8
0
 10
-137.500000
 20
-28.556622
 11
-137.500000
 21
-31.443378
  0
LINE
  8
0
 10
-135.000031
 20
-32.886818
 11
-137.500031
 21
-31.443445
  0
LINE
  8
0
 10
-132.500031
 20
-31.443312
 11
-135.000015
 21
-32.886681
  0
LINE
  8
0
 10
-132.500000
 20
-28.556625
 11
-132.500000
 21
-31.443378
  0
LINE
  8
0
 10
-135.000061
 20
-27.113298
 11
-132.500061
 21
-28.556677
  0
LINE
  8
0
 10
-137.500000
 20
51.443382
 11
-137.500000
 21
48.556625
  0
LINE
  8
0
 10
-135.000000
 20
47.113224
 11
-137.500000
 21
48.556595
  0
LINE
  8
0
 10
-132.500046
 20
48.556686
 11
-135.000046
 21
47.113316
  0
LINE
  8
0
 10
-132.500000
 20
51.443375
 11
-132.500000
 21
48.556625
  0
LINE
  8
0
 10
-135.000046
 20
52.886757
 11
-132.500046
 21
51.443382
  0
LINE
  8
0
 10
-135.000046
 20
52.886837
 11
-137.500046
 21
51.443459
  0
LINE
  8
0
 10
-137.500000
 20
11.443378
 11
-137.500000
 21
8.556622
  0
LINE
  8
0
 10
-135.000031
 20
7.113218
 11
-137.500031
 21
8.556590
  0
LINE
  8
0
 10
-132.500031
 20
8.556693
 11
-135.000015
 21
7.113332
  0
LINE
  8
0
 10
-132.500000
 20
11.443375
 11
-132.500000
 21
8.556622
  0
LINE
  8
0
 10
-135.000046
 20
12.886720
 11
-132.500046
 21
11.443345
  0
LINE
  8
0
 10
-135.000000
 20
12.886840
 11
-137.500015
 21
11.443451
  0
LINE
  8
0
 10
-157.000000
 20
65.000000
 11
-157.000000
 21
-45.000000
  0
LINE
  8
0
 10
-113.000000
 20
65.000000
 11
-113.000000
 21
-45.000000
  0
LINE
  8
0
  6
CENTER
 62
     2
 10
-135.000000
 20
71.250000
 11
-135.000000
 21
-51.449711
  0
LINE
  8
0
  6
CENTER
 62
     2
 10
-149.000015
 20
63.259903
 11
-149.000015
 21
52.598412
  0
LINE
  8
0
  6
CENTER
 62
     2
 10
-121.000000
 20
63.428238
 11
-121.000000
 21
52.486191
  0
LINE
  8
0
  6
CENTER
 62
     2
 10
-126.387970
 20
58.000000
 11
-115.614258
 21
58.000000
  0
LINE
  8
0
  6
CENTER
 62
     2
 10
-143.726913
 20
50.000000
 11
-125.995178
 21
50.000000
  0
LINE
  8
0
  6
CENTER
 62
     2
 10
-143.957382
 20
-30.000000
 11
-125.953888
 21
-30.000000
  0
LINE
  8
0
  6
CENTER
 62
     2
 10
-126.381088
 20
-38.000000
 11
-115.273849
 21
-38.000000
  0
LINE
  8
0
 10
111.000000
 20
65.000000
 11
111.000000
 21
45.650002
  0
LINE
  8
0
  6
CENTER
 62
     2
 10
106.770004
 20
10.000000
 11
163.229980
 21
10.000000
  0
LINE
  8
0
 10
113.000015
 20
17.500000
 11
113.500000
 21
17.500000
  0
LINE
  8
0
 10
113.499992
 20
17.499966
 11
113.999992
 21
16.999971
  0
LINE
  8
0
 10
114.000015
 20
16.999992
 11
115.600006
 21
16.999992
  0
LINE
  8
0
 10
114.000015
 20
21.199997
 11
115.600006
 21
21.199997
  0
LINE
  8
0
 10
113.499855
 20
20.700140
 11
113.999863
 21
21.200153
  0
LINE
  8
0
 10
113.000015
 20
20.699986
 11
113.500000
 21
20.699986
  0
LINE
  8
0
 10
112.999985
 20
22.500021
 11
110.999985
 21
24.500004
  0
LINE
  8
0
 10
113.000015
 20
2.500000
 11
113.500000
 21
2.500000
  0
LINE
  8
0
 10
113.499931
 20
2.500057
 11
113.999939
 21
3.000063
  0
LINE
  8
0
 10
114.000015
 20
3.000008
 11
115.600006
 21
3.000008
  0
LINE
  8
0
 10
114.000015
 20
-1.199993
 11
115.600006
 21
-1.199993
  0
LINE
  8
0
 10
113.499954
 20
-0.700051
 11
113.999969
 21
-1.200061
  0
LINE
  8
0
 10
113.000015
 20
-0.700006
 11
113.500000
 21
-0.700006
  0
LINE
  8
0
 10
113.000015
 20
22.500038
 11
113.000015
 21
-2.500000
  0
LINE
  8
0
 10
112.999985
 20
-2.500027
 11
111.087296
 21
-4.412705
  0
LINE
  8
0
 10
118.500015
 20
47.150009
 11
118.500015
 21
38.850006
  0
LINE
  8
0
 10
114.000015
 20
47.150009
 11
114.000015
 21
45.650002
  0
LINE
  8
0
 10
111.000000
 20
45.650002
 11
114.000015
 21
45.650002
  0
LINE
  8
0
 10
111.000000
 20
40.349998
 11
114.000015
 21
40.349998
  0
LINE
  8
0
 10
111.000000
 20
40.349998
 11
111.000000
 21
24.499992
  0
LINE
  8
0
 10
114.000015
 20
40.349998
 11
114.000015
 21
38.850006
  0
LINE
  8
0
 10
157.000000
 20
17.500000
 11
156.500000
 21
17.500000
  0
LINE
  8
0
 10
156.500092
 20
17.499908
 11
156.000092
 21
16.999918
  0
LINE
  8
0
 10
155.999985
 20
16.999992
 11
154.399994
 21
16.999992
  0
LINE
  8
0
 10
156.000000
 20
21.199997
 11
154.399994
 21
21.199997
  0
LINE
  8
0
 10
156.500122
 20
20.700106
 11
156.000107
 21
21.200121
  0
LINE
  8
0
 10
157.000000
 20
20.699986
 11
156.500000
 21
20.699986
  0
LINE
  8
0
 10
157.000031
 20
22.500032
 11
159.000031
 21
24.500017
  0
LINE
  8
0
 10
157.000000
 20
2.500000
 11
156.500000
 21
2.500000
  0
LINE
  8
0
 10
156.500031
 20
2.500000
 11
156.000015
 21
3.000007
  0
LINE
  8
0
 10
155.999985
 20
3.000008
 11
154.399994
 21
3.000008
  0
LINE
  8
0
 10
155.999985
 20
-1.199993
 11
154.399994
 21
-1.199993
  0
LINE
  8
0
 10
156.500076
 20
-0.700084
 11
156.000076
 21
-1.200074
  0
LINE
  8
0
 10
157.000000
 20
-0.700006
 11
156.500000
 21
-0.700006
  0
LINE
  8
0
 10
157.000000
 20
22.500076
 11
157.000000
 21
-2.500021
  0
LINE
  8
0
 10
157.000107
 20
-2.499994
 11
158.912796
 21
-4.412680
  0
LINE
  8
0
 10
158.999985
 20
65.000000
 11
158.999985
 21
45.650002
  0
LINE
  8
0
 10
158.999985
 20
40.349998
 11
158.999985
 21
24.499992
  0
LINE
  8
0
 10
158.999985
 20
-45.000000
 11
158.999985
 21
-25.650002
  0
LINE
  8
0
 10
158.999985
 20
-20.349993
 11
158.999985
 21
-4.500013
  0
LINE
  8
0
 10
113.000015
 20
66.999992
 11
157.000000
 21
66.999992
  0
LINE
  8
0
 10
112.999985
 20
-47.000015
 11
156.999985
 21
-47.000015
  0
LINE
  8
0
 10
158.999939
 20
-44.999920
 11
156.999939
 21
-46.999908
  0
LINE
  8
0
 10
159.000061
 20
65.000069
 11
157.000061
 21
67.000076
  0
LINE
  8
0
 10
111.000046
 20
-44.999969
 11
113.000031
 21
-46.999958
  0
LINE
  8
0
 10
111.000038
 20
64.999969
 11
113.000046
 21
66.999977
  0
LINE
  8
0
 10
111.000000
 20
-45.000000
 11
111.000000
 21
-4.499990
  0
LINE
  8
0
  6
CENTER
 62
     2
 10
121.600800
 20
-30.000000
 11
148.419373
 21
-30.000000
  0
LINE
  8
0
  6
CENTER
 62
     2
 10
135.000000
 20
71.230011
 11
135.000000
 21
-51.230011
  0
LINE
  8
0
  6
CENTER
 62
     2
 10
146.636581
 20
-40.000000
 11
158.115021
 21
-40.000000
  0
LINE
  8
0
  6
CENTER
 62
     2
 10
152.000000
 20
-34.813728
 11
152.000000
 21
-45.360836
  0
LINE
  8
0
  6
CENTER
 62
     2
 10
146.635391
 20
60.000000
 11
158.115005
 21
60.000000
  0
LINE
  8
0
  6
CENTER
 62
     2
 10
112.402328
 20
60.000000
 11
123.452240
 21
60.000000
  0
LINE
  8
0
  6
CENTER
 62
     2
 10
118.000015
 20
66.115005
 11
118.000015
 21
54.502251
  0
LINE
  8
0
  6
CENTER
 62
     2
 10
114.957397
 20
-25.000000
 11
120.853500
 21
-25.000000
  0
LINE
  8
0
  6
CENTER
 62
     2
 10
121.312744
 20
50.000000
 11
148.912201
 21
50.000000
  0
LINE
  8
0
  6
CENTER
 62
     2
 10
118.000015
 20
-49.114990
 11
118.000015
 21
-34.415726
  0
LINE
  8
0
 10
151.500000
 20
47.150009
 11
151.500000
 21
38.850006
  0
LINE
  8
0
 10
156.000000
 20
40.158325
 11
156.000000
 21
38.850006
  0
LINE
  8
0
 10
158.999985
 20
40.349998
 11
155.999985
 21
40.349998
  0
LINE
  8
0
 10
158.999985
 20
45.650002
 11
155.999985
 21
45.650002
  0
LINE
  8
0
 10
156.000000
 20
47.150009
 11
156.000000
 21
45.650002
  0
LINE
  8
0
 10
158.999985
 20
-25.650002
 11
155.999985
 21
-25.650002
  0
LINE
  8
0
 10
156.000000
 20
-27.150009
 11
156.000000
 21
-25.650002
  0
LINE
  8
0
 10
151.500000
 20
-27.150009
 11
151.500000
 21
-18.850008
  0
LINE
  8
0
 10
156.000000
 20
-20.349993
 11
156.000000
 21
-18.850008
  0
LINE
  8
0
 10
158.999985
 20
-20.349993
 11
155.999985
 21
-20.349993
  0
LINE
  8
0
  6
DASHED
 62
     2
 10
112.999931
 20
-47.000000
 11
113.204147
 21
-43.103371
  0
LINE
  8
0
  6
DASHED
 62
     2
 10
114.000015
 20
-45.999996
 11
114.000015
 21
-43.103371
  0
LINE
  8
0
  6
DASHED
 62
     2
 10
122.000000
 20
-45.999973
 11
114.000015
 21
-45.999973
  0
LINE
  8
0
  6
DASHED
 62
     2
 10
112.999969
 20
-46.999943
 11
113.999962
 21
-45.999950
  0
LINE
  8
0
  6
DASHED
 62
     2
 10
122.999878
 20
-47.000130
 11
121.999901
 21
-46.000153
  0
LINE
  8
0
  6
DASHED
 62
     2
 10
122.000000
 20
-45.999996
 11
122.000000
 21
-43.103371
  0
LINE
  8
0
  6
DASHED
 62
     2
 10
122.999977
 20
-46.999996
 11
122.795769
 21
-43.103374
  0
LINE
  8
0
  6
CENTER
 62
     2
 10
152.000000
 20
66.187073
 11
152.000000
 21
54.610580
  0
LINE
  8
0
 10
133.500000
 20
-41.401760
 11
133.500000
 21
-47.000015
  0
LINE
  8
0
 10
136.500000
 20
-41.401760
 11
136.500000
 21
-47.000015
  0
LINE
  8
0
 10
136.500000
 20
61.401764
 11
136.500000
 21
67.000015
  0
LINE
  8
0
 10
133.500000
 20
61.401764
 11
133.500000
 21
67.000015
  0
LINE
  8
0
  6
CENTER
 62
     2
 10
114.000015
 20
43.000008
 11
120.893143
 21
43.000008
  0
LINE
  8
0
  6
CENTER
 62
     2
 10
155.999985
 20
43.000008
 11
148.942337
 21
43.000008
  0
LINE
  8
0
  6
CENTER
 62
     2
 10
155.999985
 20
-23.000008
 11
148.748901
 21
-23.000008
  0
LINE
  8
0
  6
CENTER
 62
     2
 10
118.000015
 20
-27.689449
 11
118.000015
 21
-22.262943
  0
LINE
  8
0
 10
157.000000
 20
45.650002
 11
157.000000
 21
40.349998
  0
LINE
  8
0
 10
113.000000
 20
45.650002
 11
113.000000
 21
40.641724
  0
LINE
  8
0
 10
157.000000
 20
-20.349993
 11
157.000000
 21
-25.650002
  0
LINE
  8
0
  6
CENTER
 62
     2
 10
123.353348
 20
-40.000000
 11
112.607224
 21
-40.000000
  0
LINE
  8
0
 10
114.000015
 20
47.150009
 11
118.500015
 21
47.150009
  0
LINE
  8
0
 10
114.000015
 20
38.850006
 11
118.500015
 21
38.850006
  0
LINE
  8
0
 10
155.999985
 20
47.150009
 11
151.500000
 21
47.150009
  0
LINE
  8
0
 10
155.999985
 20
38.850006
 11
151.500000
 21
38.850006
  0
LINE
  8
0
 10
155.999985
 20
-27.150009
 11
151.500000
 21
-27.150009
  0
LINE
  8
0
 10
155.999985
 20
-18.850008
 11
151.500000
 21
-18.850008
  0
LINE
  8
0
 10
-194.250000
 20
132.600006
 11
194.800003
 21
132.600006
  0
LINE
  8
0
 10
194.800003
 20
132.600006
 11
194.800003
 21
-133.500000
  0
LINE
  8
0
 10
-194.250000
 20
132.600006
 11
-194.250000
 21
-133.500000
  0
LINE
  8
0
 10
-194.250000
 20
-133.500000
 11
194.800003
 21
-133.500000
  0
LINE
  8
0
 10
109.800003
 20
-118.500000
 11
109.800003
 21
-133.500000
  0
LINE
  8
0
 10
109.800003
 20
-118.500000
 11
194.800003
 21
-118.500000
  0
LINE
  8
0
 10
109.800003
 20
132.600006
 11
109.800003
 21
117.600006
  0
LINE
  8
0
 10
109.800003
 20
117.600006
 11
194.800003
 21
117.600006
  0
LINE
  8
0
 10
-194.250000
 20
117.600006
 11
-84.250000
 21
117.600006
  0
LINE
  8
0
 10
-84.250000
 20
132.600006
 11
-84.250000
 21
117.600006
  0
LINE
  8
0
 10
-184.250000
 20
-123.500000
 11
-39.250000
 21
-123.500000
  0
LINE
  8
0
 10
-184.250000
 20
-123.500000
 11
-184.250000
 21
-92.500000
  0
LINE
  8
0
 10
-184.250000
 20
-115.500000
 11
-39.250000
 21
-115.500000
  0
LINE
  8
0
 10
-184.250000
 20
-107.500000
 11
-39.250000
 21
-107.500000
  0
LINE
  8
0
 10
-159.250000
 20
-123.500000
 11
-159.250000
 21
-92.500000
  0
LINE
  8
0
 10
-135.250000
 20
-123.500000
 11
-135.250000
 21
-92.500000
  0
LINE
  8
0
 10
-147.250000
 20
-123.500000
 11
-147.250000
 21
-92.500000
  0
LINE
  8
0
 10
-123.250000
 20
-123.500000
 11
-123.250000
 21
-92.500000
  0
LINE
  8
0
 10
-111.250000
 20
-123.500000
 11
-111.250000
 21
-92.500000
  0
LINE
  8
0
 10
-99.250000
 20
-123.500000
 11
-99.250000
 21
-92.500000
  0
LINE
  8
0
 10
-159.250046
 20
-107.500015
 11
-161.929535
 21
-97.500023
  0
LINE
  8
0
 10
-184.250000
 20
-97.500000
 11
-161.929489
 21
-97.500000
  0
LINE
  8
0
 10
-184.250000
 20
-92.500000
 11
-39.250000
 21
-92.500000
  0
LINE
  8
0
 10
-39.250000
 20
-123.500000
 11
-39.250000
 21
-92.500000
  0
LINE
  8
0
 10
-87.250000
 20
-123.500000
 11
-87.250000
 21
-92.500000
  0
LINE
  8
0
 10
-75.250000
 20
-123.500000
 11
-75.250000
 21
-92.500000
  0
LINE
  8
0
 10
-63.250000
 20
-123.500000
 11
-63.250000
 21
-92.500000
  0
LINE
  8
0
 10
-51.250000
 20
-123.500000
 11
-51.250000
 21
-92.500000
  0
ARC
  8
0
 10
-35.500000
 20
10.000000
 40
7.999995
 50
331.045044
 51
28.954950
  0
CIRCLE
  8
0
 10
-18.999989
 20
31.999992
 40
5.500000
  0
CIRCLE
  8
0
 10
1.000019
 20
31.999992
 40
5.500000
  0
CIRCLE
  8
0
 10
-19.000010
 20
-11.999992
 40
5.500000
  0
CIRCLE
  8
0
 10
0.999977
 20
-12.000013
 40
5.500000
  0
CIRCLE
  8
0
  6
DASHED
 62
     2
 10
-19.000010
 20
-11.999992
 40
4.000000
  0
CIRCLE
  8
0
 10
-19.000010
 20
-11.999992
 40
3.400000
  0
CIRCLE
  8
0
  6
DASHED
 62
     2
 10
-19.000010
 20
31.999992
 40
4.000000
  0
CIRCLE
  8
0
 10
-19.000010
 20
31.999992
 40
3.400000
  0
CIRCLE
  8
0
  6
DASHED
 62
     2
 10
1.000008
 20
-11.999992
 40
4.000000
  0
CIRCLE
  8
0
 10
1.000008
 20
-11.999992
 40
3.400000
  0
CIRCLE
  8
0
  6
DASHED
 62
     2
 10
1.000008
 20
31.999992
 40
4.000000
  0
CIRCLE
  8
0
 10
1.000008
 20
31.999992
 40
3.400000
  0
CIRCLE
  8
0
 62
     2
 10
-13.000015
 20
-25.000000
 40
4.865000
  0
CIRCLE
  8
0
 10
-13.000015
 20
-25.000000
 40
4.285000
  0
CIRCLE
  8
0
 62
     2
 10
12.000004
 20
-25.000000
 40
4.865000
  0
CIRCLE
  8
0
 10
12.000004
 20
-25.000000
 40
4.285000
  0
CIRCLE
  8
0
 10
-135.000000
 20
10.000000
 40
4.600000
  0
CIRCLE
  8
0
 10
-135.000000
 20
10.000000
 40
7.000000
  0
CIRCLE
  8
0
 10
-135.000000
 20
10.000000
 40
7.500000
  0
CIRCLE
  8
0
 10
-135.000000
 20
-30.000000
 40
7.500000
  0
CIRCLE
  8
0
 10
-135.000000
 20
50.000000
 40
7.500000
  0
CIRCLE
  8
0
 62
     2
 10
-121.000000
 20
58.000000
 40
4.000000
  0
CIRCLE
  8
0
 10
-121.000000
 20
58.000000
 40
3.375000
  0
CIRCLE
  8
0
 62
     2
 10
-121.000000
 20
-38.000000
 40
4.000000
  0
CIRCLE
  8
0
 10
-121.000000
 20
-38.000000
 40
3.375000
  0
CIRCLE
  8
0
 62
     2
 10
-149.000015
 20
58.000000
 40
4.000000
  0
CIRCLE
  8
0
 10
-149.000015
 20
58.000000
 40
3.375000
  0
CIRCLE
  8
0
 62
     2
 10
-149.000015
 20
-38.000000
 40
4.000000
  0
CIRCLE
  8
0
 10
-149.000015
 20
-38.000000
 40
3.375000
  0
CIRCLE
  8
0
 10
-135.000000
 20
-30.000000
 40
7.000000
  0
CIRCLE
  8
0
 10
-135.000000
 20
-30.000000
 40
4.600000
  0
CIRCLE
  8
0
 10
-135.000000
 20
50.000000
 40
7.000000
  0
CIRCLE
  8
0
 10
-135.000000
 20
50.000000
 40
4.600000
  0
CIRCLE
  8
0
 10
135.000000
 20
10.000000
 40
10.500000
  0
ARC
  8
0
 10
115.600006
 20
19.099995
 40
2.100000
 50
270.000000
 51
90.000000
  0
ARC
  8
0
 10
115.600006
 20
0.900007
 40
2.100000
 50
270.000000
 51
90.000000
  0
ARC
  8
0
 10
154.399994
 20
19.099995
 40
2.100000
 50
90.000000
 51
270.000000
  0
ARC
  8
0
 10
154.399994
 20
0.900007
 40
2.100000
 50
90.000000
 51
270.000000
  0
CIRCLE
  8
0
 10
135.000000
 20
-30.000000
 40
11.500001
  0
CIRCLE
  8
0
 62
     2
 10
152.000000
 20
-40.000000
 40
4.000000
  0
CIRCLE
  8
0
 62
     2
 10
152.000000
 20
60.000000
 40
4.000000
  0
CIRCLE
  8
0
 62
     2
 10
118.000015
 20
60.000000
 40
4.000000
  0
CIRCLE
  8
0
 10
135.000000
 20
50.000000
 40
11.500001
  0
CIRCLE
  8
0
 10
135.000000
 20
10.000000
 40
17.000000
  0
CIRCLE
  8
0
 10
118.000015
 20
-25.000000
 40
1.500000
  0
CIRCLE
  8
0
 10
135.000000
 20
-30.000000
 40
10.000000
  0
CIRCLE
  8
0
 10
135.000000
 20
50.000000
 40
10.000000
  0
CIRCLE
  8
0
 62
     2
 10
118.000000
 20
-40.000000
 40
4.000000
  0
CIRCLE
  8
0
 10
118.000015
 20
60.000000
 40
3.375000
  0
CIRCLE
  8
0
 10
151.999985
 20
60.000000
 40
3.375000
  0
CIRCLE
  8
0
 10
118.000015
 20
-40.000000
 40
3.375000
  0
CIRCLE
  8
0
 10
151.999985
 20
-40.000000
 40
3.375000
  0
TEXT
  8
0
 10
133.907150
 20
122.050003
 40
4.500000
  1
Ver. 1.0
 50
0.000000
 41
1.052631
 51
0.000000
  7
STANDARD
  0
TEXT
  8
0
 10
113.700279
 20
-130.669998
 40
6.300000
  1
KOGANEI CORP.
 50
0.000000
 41
1.052632
 51
0.000000
  7
STANDARD
  0
TEXT
  8
0
 10
-191.392654
 20
122.050003
 40
4.500000
  1
JIG CYLINDER WITH GUIDE
 50
0.000000
 41
1.052632
 51
0.000000
  7
STANDARD
  0
TEXT
  8
0
 10
-186.892654
 20
104.550003
 40
4.500000
  1
MODEL:SGDA32*ST(10)
 50
0.000000
 41
1.052632
 51
0.000000
  7
STANDARD
  0
TEXT
  8
0
 10
-181.557144
 20
-96.879997
 40
3.200000
  1
STROKE
 50
0.000000
 41
1.052631
 51
0.000000
  7
STANDARD
  0
TEXT
  8
0
 10
-173.557144
 20
-113.379997
 40
3.200000
  1
A
 50
0.000000
 41
1.052631
 51
0.000000
  7
STANDARD
  0
TEXT
  8
0
 10
-184.496872
 20
-101.019997
 40
3.200000
  1
STRETCH
 50
0.000000
 41
1.052631
 51
0.000000
  7
STANDARD
  0
TEXT
  8
0
 10
-184.496872
 20
-105.820000
 40
3.200000
  1
  PLACE
 50
0.000000
 41
1.052631
 51
0.000000
  7
STANDARD
  0
TEXT
  8
0
 10
-156.657150
 20
-101.879997
 40
3.200000
  1
10
 50
0.000000
 41
1.052631
 51
0.000000
  7
STANDARD
  0
TEXT
  8
0
 10
-144.657150
 20
-101.879997
 40
3.200000
  1
20
 50
0.000000
 41
1.052631
 51
0.000000
  7
STANDARD
  0
TEXT
  8
0
 10
-132.657150
 20
-101.879997
 40
3.200000
  1
30
 50
0.000000
 41
1.052631
 51
0.000000
  7
STANDARD
  0
TEXT
  8
0
 10
-120.657158
 20
-101.879997
 40
3.200000
  1
50
 50
0.000000
 41
1.052631
 51
0.000000
  7
STANDARD
  0
TEXT
  8
0
 10
-108.657158
 20
-101.879997
 40
3.200000
  1
75
 50
0.000000
 41
1.052631
 51
0.000000
  7
STANDARD
  0
TEXT
  8
0
 10
-50.257156
 20
-101.879997
 40
3.200000
  1
200
 50
0.000000
 41
1.052631
 51
0.000000
  7
STANDARD
  0
TEXT
  8
0
 10
-51.857143
 20
-91.379997
 40
3.200000
  1
(mm)
 50
0.000000
 41
1.052631
 51
0.000000
  7
STANDARD
  0
TEXT
  8
0
 10
-131.157135
 20
-91.379997
 40
3.200000
  1
STRETCH LIST
 50
0.000000
 41
1.052631
 51
0.000000
  7
STANDARD
  0
TEXT
  8
0
 10
-173.557007
 20
-121.379997
 40
3.200000
  1
B
 50
0.000000
 41
1.052632
 51
0.000000
  7
STANDARD
  0
TEXT
  8
0
 10
-159.892654
 20
97.550003
 40
4.500000
  1
SGDAF32*ST(10)
 50
0.000000
 41
1.052632
 51
0.000000
  7
STANDARD
  0
TEXT
  8
0
 62
     3
 10
0.992857
 20
79.720009
 40
3.200000
  1
STRETCH LINE A
 50
0.000000
 41
1.052631
 51
0.000000
  7
STANDARD
  0
TEXT
  8
0
 10
-98.257019
 20
-101.879997
 40
3.200000
  1
100
 50
0.000000
 41
1.052632
 51
0.000000
  7
STANDARD
  0
TEXT
  8
0
 10
-86.257019
 20
-101.879997
 40
3.200000
  1
125
 50
0.000000
 41
1.052632
 51
0.000000
  7
STANDARD
  0
TEXT
  8
0
 10
-74.257019
 20
-101.879997
 40
3.200000
  1
150
 50
0.000000
 41
1.052632
 51
0.000000
  7
STANDARD
  0
TEXT
  8
0
 10
-62.257015
 20
-101.879997
 40
3.200000
  1
175
 50
0.000000
 41
1.052632
 51
0.000000
  7
STANDARD
  0
TEXT
  8
0
 10
-155.057007
 20
-113.379997
 40
3.200000
  1
0
 50
0.000000
 41
1.052632
 51
0.000000
  7
STANDARD
  0
TEXT
  8
0
 10
-143.057007
 20
-113.379997
 40
3.200000
  1
0
 50
0.000000
 41
1.052632
 51
0.000000
  7
STANDARD
  0
TEXT
  8
0
 10
-131.057007
 20
-113.379997
 40
3.200000
  1
0
 50
0.000000
 41
1.052632
 51
0.000000
  7
STANDARD
  0
TEXT
  8
0
 10
-119.056999
 20
-113.379997
 40
3.200000
  1
0
 50
0.000000
 41
1.052632
 51
0.000000
  7
STANDARD
  0
TEXT
  8
0
 10
-108.656998
 20
-113.379997
 40
3.200000
  1
25
 50
0.000000
 41
1.052632
 51
0.000000
  7
STANDARD
  0
TEXT
  8
0
 10
-96.656998
 20
-113.379997
 40
3.200000
  1
50
 50
0.000000
 41
1.052632
 51
0.000000
  7
STANDARD
  0
TEXT
  8
0
 10
-84.656998
 20
-113.379997
 40
3.200000
  1
25
 50
0.000000
 41
1.052632
 51
0.000000
  7
STANDARD
  0
TEXT
  8
0
 10
-72.656998
 20
-113.379997
 40
3.200000
  1
50
 50
0.000000
 41
1.052632
 51
0.000000
  7
STANDARD
  0
TEXT
  8
0
 10
-60.657001
 20
-113.379997
 40
3.200000
  1
75
 50
0.000000
 41
1.052632
 51
0.000000
  7
STANDARD
  0
TEXT
  8
0
 10
-50.257000
 20
-113.379997
 40
3.200000
  1
100
 50
0.000000
 41
1.052632
 51
0.000000
  7
STANDARD
  0
TEXT
  8
0
 10
-155.057007
 20
-121.379997
 40
3.200000
  1
0
 50
0.000000
 41
1.052632
 51
0.000000
  7
STANDARD
  0
TEXT
  8
0
 10
-144.656998
 20
-121.379997
 40
3.200000
  1
10
 50
0.000000
 41
1.052632
 51
0.000000
  7
STANDARD
  0
TEXT
  8
0
 10
-132.656998
 20
-121.379997
 40
3.200000
  1
20
 50
0.000000
 41
1.052632
 51
0.000000
  7
STANDARD
  0
TEXT
  8
0
 10
-120.656998
 20
-121.379997
 40
3.200000
  1
40
 50
0.000000
 41
1.052632
 51
0.000000
  7
STANDARD
  0
TEXT
  8
0
 10
-108.656998
 20
-121.379997
 40
3.200000
  1
40
 50
0.000000
 41
1.052632
 51
0.000000
  7
STANDARD
  0
TEXT
  8
0
 10
-96.656998
 20
-121.379997
 40
3.200000
  1
40
 50
0.000000
 41
1.052632
 51
0.000000
  7
STANDARD
  0
TEXT
  8
0
 10
-84.656998
 20
-121.379997
 40
3.200000
  1
90
 50
0.000000
 41
1.052632
 51
0.000000
  7
STANDARD
  0
TEXT
  8
0
 10
-72.656998
 20
-121.379997
 40
3.200000
  1
90
 50
0.000000
 41
1.052632
 51
0.000000
  7
STANDARD
  0
TEXT
  8
0
 10
-60.657001
 20
-121.379997
 40
3.200000
  1
90
 50
0.000000
 41
1.052632
 51
0.000000
  7
STANDARD
  0
TEXT
  8
0
 10
-48.657001
 20
-121.379997
 40
3.200000
  1
90
 50
0.000000
 41
1.052632
 51
0.000000
  7
STANDARD
  0
TEXT
  8
0
 62
     3
 10
-20.806999
 20
89.920006
 40
3.200000
  1
STRETCH LINE B
 50
0.000000
 41
1.052632
 51
0.000000
  7
STANDARD
  0
TEXT
  8
0
 62
     2
 10
65.087204
 20
-66.000015
 40
3.200000
  1
STROKE=75-200
 50
0.000000
 41
1.052632
 51
0.000000
  7
STANDARD
  0
LINE
  8
0
 62
     2
 10
60.000046
 20
-67.000015
 11
106.437210
 21
-67.000015
  0
LINE
  8
0
 62
     2
 10
24.000008
 20
-67.000015
 11
60.000046
 21
-67.000015
  0
LINE
  8
0
 62
     2
 10
24.000008
 20
-67.000015
 11
26.897785
 21
-66.223557
  0
LINE
  8
0
 62
     2
 10
24.000008
 20
-67.000015
 11
26.897785
 21
-67.776474
  0
LINE
  8
0
 62
     2
 10
60.000046
 20
-67.000015
 11
57.102268
 21
-67.776474
  0
LINE
  8
0
 62
     2
 10
60.000046
 20
-67.000015
 11
57.102268
 21
-66.223557
  0
LINE
  8
0
 62
     2
 10
24.000008
 20
-46.013008
 11
24.000008
 21
-68.500015
  0
LINE
  8
0
 62
     2
 10
60.000046
 20
-39.500004
 11
60.000046
 21
-68.500015
  0
ENDSEC
  0
EOF
