  0
SECTION
  2
HEADER
  0
ENDSEC
  0
SECTION
  2
TABLES
  0
TABLE
  2
LTYPE
 70
     4
  0
LTYPE
  2
CONTINUOUS
 70
    64
  3
Solid line
 72
    65
 73
     0
 40
0.000000
  0
LTYPE
  2
DASHED
 70
    64
  3
__ __ __ __ __ __ __ __ __ __ __ __ __ __ __
 72
    65
 73
     2
 40
3.500000
 49
2.000000
 49
-1.500000
  0
LTYPE
  2
CENTER
 70
    64
  3
____ _ ____ _ ____ _ ____ _ ____ _ ____ _ ____
 72
    65
 73
     4
 40
17.500000
 49
13.000000
 49
-1.500000
 49
1.500000
 49
-1.500000
  0
LTYPE
  2
PHANTOM
 70
    64
  3
_____ _ _ _____ _ _ _____ _ _ _____ _ _ ____  
 72
    65
 73
     6
 40
15.500000
 49
8.000000
 49
-1.500000
 49
1.500000
 49
-1.500000
 49
1.500000
 49
-1.500000
  0
LTYPE
  2
DASHED1
 70
    64
  3
__ __ __ __ __ __ __ __ __ __ __ __ __ __ __
 72
    65
 73
     2
 40
1.500000
 49
1.000000
 49
-0.500000
  0
LTYPE
  2
DASHED2
 70
    64
  3
__ __ __ __ __ __ __ __ __ __ __ __ __ __ __
 72
    65
 73
     2
 40
3.500000
 49
2.500000
 49
-1.000000
  0
LTYPE
  2
DASHED3
 70
    64
  3
__ __ __ __ __ __ __ __ __ __ __ __ __ __ __
 72
    65
 73
     2
 40
6.000000
 49
4.000000
 49
-2.000000
  0
LTYPE
  2
DASHED4
 70
    64
  3
__ __ __ __ __ __ __ __ __ __ __ __ __ __ __
 72
    65
 73
     2
 40
12.000000
 49
10.000000
 49
-2.000000
  0
LTYPE
  2
DASHED5
 70
    64
  3
__ __ __ __ __ __ __ __ __ __ __ __ __ __ __
 72
    65
 73
     2
 40
17.000000
 49
15.000000
 49
-2.000000
  0
LTYPE
  2
DASHED6
 70
    64
  3
__ __ __ __ __ __ __ __ __ __ __ __ __ __ __
 72
    65
 73
     2
 40
29.000000
 49
27.000000
 49
-2.000000
  0
LTYPE
  2
PHANTOM1
 70
    64
  3
_____ _ _ _____ _ _ _____ _ _ _____ _ _ ____  
 72
    65
 73
     6
 40
31.000000
 49
25.000000
 49
-1.500000
 49
1.000000
 49
-1.000000
 49
1.000000
 49
-1.500000
  0
LTYPE
  2
PHANTOM2
 70
    64
  3
_____ _ _ _____ _ _ _____ _ _ _____ _ _ ____  
 72
    65
 73
     6
 40
36.000000
 49
27.000000
 49
-1.500000
 49
2.500000
 49
-1.000000
 49
2.500000
 49
-1.500000
  0
LTYPE
  2
PHANTOM3
 70
    64
  3
_____ _ _ _____ _ _ _____ _ _ _____ _ _ ____  
 72
    65
 73
     6
 40
78.000000
 49
64.000000
 49
-2.000000
 49
4.000000
 49
-2.000000
 49
4.000000
 49
-2.000000
  0
LTYPE
  2
CENTER1
 70
    64
  3
____ _ ____ _ ____ _ ____ _ ____ _ ____ _ ____
 72
    65
 73
     4
 40
19.000000
 49
14.000000
 49
-1.000000
 49
3.000000
 49
-1.000000
  0
LTYPE
  2
CENTER2
 70
    64
  3
____ _ ____ _ ____ _ ____ _ ____ _ ____ _ ____
 72
    65
 73
     4
 40
28.500000
 49
25.000000
 49
-1.000000
 49
1.500000
 49
-1.000000
  0
LTYPE
  2
CENTER3
 70
    64
  3
____ _ ____ _ ____ _ ____ _ ____ _ ____ _ ____
 72
    65
 73
     4
 40
31.500000
 49
27.000000
 49
-1.000000
 49
2.500000
 49
-1.000000
  0
LTYPE
  2
CENTER4
 70
    64
  3
____ _ ____ _ ____ _ ____ _ ____ _ ____ _ ____
 72
    65
 73
     4
 40
50.000000
 49
45.000000
 49
-1.000000
 49
3.000000
 49
-1.000000
  0
LTYPE
  2
CENTER5
 70
    64
  3
____ _ ____ _ ____ _ ____ _ ____ _ ____ _ ____
 72
    65
 73
     4
 40
100.000000
 49
92.000000
 49
-2.000000
 49
4.000000
 49
-2.000000
  0
LTYPE
  2
SBK1
 70
    64
  3
______ _ _ _ ______ _ _ _ ______ _ _ _ _____  
 72
    65
 73
     8
 40
60.500000
 49
45.000000
 49
-2.000000
 49
2.500000
 49
-2.000000
 49
2.500000
 49
-2.000000
 49
2.500000
 49
-2.000000
  0
LTYPE
  2
SBK2
 70
    64
  3
______ _ _ _ ______ _ _ _ ______ _ _ _ _____  
 72
    65
 73
     8
 40
84.000000
 49
64.000000
 49
-2.000000
 49
4.000000
 49
-2.000000
 49
4.000000
 49
-2.000000
 49
4.000000
 49
-2.000000
  0
LTYPE
  2
STCH
 70
    64
  3
__ __ __ __ __ __ __ __ __ __ __ __ __ __ __
 72
    65
 73
     2
 40
3.000000
 49
1.000000
 49
-2.000000
  0
LTYPE
  2
MTCH
 70
    64
  3
_____ _ _ _____ _ _ _____ _ _ _____ _ _ ____  
 72
    65
 73
     6
 40
80.000000
 49
66.000000
 49
-2.000000
 49
4.000000
 49
-2.000000
 49
4.000000
 49
-2.000000
  0
ENDTAB
  0
TABLE
  2
LAYER
 70
     1
  0
LAYER
  2
0
 70
     0
 62
     7
  6
CONTINUOUS
  0
ENDTAB
  0
TABLE
  2
STYLE
 70
     1
  0
STYLE
  2
STANDARD
 70
     0
 40
0.000000
 41
1.000000
 50
0.000000
 71
     0
 42
0.200000
  3
txt
  4
BIGFONT
  0
ENDTAB
  0
TABLE
  2
VIEW
 70
     0
  0
ENDTAB
  0
ENDSEC
  0
SECTION
  2
BLOCKS
  0
ENDSEC
  0
SECTION
  2
ENTITIES
  0
LINE
  8
0
 10
-25.000000
 20
2.000000
 11
-21.000002
 21
2.000000
  0
LINE
  8
0
  6
CENTER
 62
     2
 10
-42.718578
 20
-35.000000
 11
-18.692797
 21
-35.000000
  0
LINE
  8
0
  6
CENTER
 62
     2
 10
-42.457428
 20
55.000000
 11
-18.648640
 21
55.000000
  0
LINE
  8
0
 10
-25.000000
 20
-25.000000
 11
-21.000002
 21
-25.000000
  0
LINE
  8
0
 10
-39.000000
 20
71.000000
 11
-26.000004
 21
71.000000
  0
LINE
  8
0
 10
-39.000000
 20
-51.000000
 11
-26.000004
 21
-51.000000
  0
LINE
  8
0
 10
-25.000000
 20
-50.000000
 11
-25.000000
 21
70.000000
  0
LINE
  8
0
 10
-40.000000
 20
70.000000
 11
-40.000000
 21
-50.000000
  0
LINE
  8
0
 10
-25.000000
 20
-45.000000
 11
-21.000002
 21
-45.000000
  0
LINE
  8
0
 10
-25.000000
 20
6.127014
 11
-23.500000
 21
6.127014
  0
LINE
  8
0
 10
-23.500000
 20
13.872997
 11
-23.500000
 21
6.127014
  0
LINE
  8
0
 10
-23.500002
 20
6.127017
 11
-25.000010
 21
11.936524
  0
LINE
  8
0
 10
-23.500023
 20
13.873058
 11
-25.000040
 21
8.063517
  0
LINE
  8
0
 10
-39.999977
 20
-49.999992
 11
-38.999977
 21
-50.999989
  0
LINE
  8
0
 10
-26.000004
 20
-51.000004
 11
-25.000000
 21
-50.000000
  0
LINE
  8
0
 10
-38.999973
 20
70.999977
 11
-39.999969
 21
69.999985
  0
LINE
  8
0
 10
-26.000006
 20
70.999992
 11
-25.000011
 21
69.999992
  0
LINE
  8
0
 10
-20.499989
 20
71.999992
 11
32.500023
 21
71.999992
  0
LINE
  8
0
 10
33.000031
 20
70.000000
 11
-20.999996
 21
70.000000
  0
LINE
  8
0
 10
33.000031
 20
53.650017
 11
-20.999996
 21
53.650017
  0
LINE
  8
0
 10
33.000031
 20
48.350021
 11
-20.999996
 21
48.350021
  0
LINE
  8
0
 10
33.000031
 20
26.999992
 11
-20.999996
 21
26.999992
  0
LINE
  8
0
 10
33.000031
 20
26.000004
 11
-20.999996
 21
26.000004
  0
LINE
  8
0
 10
33.000031
 20
20.699997
 11
-20.999996
 21
20.699997
  0
LINE
  8
0
 10
33.000031
 20
17.500000
 11
-20.999996
 21
17.500000
  0
LINE
  8
0
 10
-20.499842
 20
71.999847
 11
-20.999844
 21
71.499825
  0
LINE
  8
0
 10
32.500103
 20
72.000046
 11
33.000111
 21
71.500046
  0
LINE
  8
0
 10
-25.000000
 20
18.000000
 11
-21.000002
 21
18.000000
  0
LINE
  8
0
 10
-25.000000
 20
13.873051
 11
-23.500000
 21
13.873051
  0
LINE
  8
0
  6
DASHED
 62
     2
 10
65.000015
 20
-25.500000
 11
65.000015
 21
-44.500000
  0
LINE
  8
0
  6
DASHED
 62
     2
 10
33.000008
 20
-25.000000
 11
64.500015
 21
-25.000000
  0
LINE
  8
0
  6
DASHED
 62
     2
 10
33.000008
 20
-45.000000
 11
64.500015
 21
-45.000000
  0
LINE
  8
0
  6
DASHED
 62
     2
 10
64.499992
 20
-25.000006
 11
64.999985
 21
-25.500002
  0
LINE
  8
0
  6
DASHED
 62
     2
 10
65.000008
 20
-44.499992
 11
64.500008
 21
-44.999989
  0
LINE
  8
0
  6
DASHED
 62
     2
 10
64.500008
 20
-25.000000
 11
64.500008
 21
-45.000000
  0
LINE
  8
0
  6
DASHED
 62
     2
 10
65.000015
 20
64.500008
 11
65.000015
 21
45.500000
  0
LINE
  8
0
  6
DASHED
 62
     2
 10
33.000008
 20
65.000000
 11
64.500015
 21
65.000000
  0
LINE
  8
0
  6
DASHED
 62
     2
 10
33.000008
 20
45.000000
 11
64.500015
 21
45.000000
  0
LINE
  8
0
  6
DASHED
 62
     2
 10
64.500008
 20
64.999992
 11
65.000000
 21
64.500000
  0
LINE
  8
0
  6
DASHED
 62
     2
 10
65.000015
 20
45.500004
 11
64.500023
 21
45.000008
  0
LINE
  8
0
  6
DASHED
 62
     2
 10
64.500008
 20
65.000000
 11
64.500008
 21
45.000000
  0
LINE
  8
0
 10
-25.000000
 20
65.000000
 11
-21.000002
 21
65.000000
  0
LINE
  8
0
 10
-25.000000
 20
45.000000
 11
-21.000002
 21
45.000000
  0
LINE
  8
0
  6
CENTER
 62
     2
 10
-13.999987
 20
43.500004
 11
-13.999987
 21
28.500004
  0
LINE
  8
0
  6
CENTER
 62
     2
 10
-21.499983
 20
36.000004
 11
-6.499985
 21
36.000004
  0
LINE
  8
0
  6
CENTER
 62
     2
 10
6.000015
 20
43.500004
 11
6.000015
 21
28.500004
  0
LINE
  8
0
  6
CENTER
 62
     2
 10
-1.499985
 20
36.000004
 11
13.500019
 21
36.000004
  0
LINE
  8
0
  6
CENTER
 62
     2
 10
35.900597
 20
10.000000
 11
-42.452362
 21
10.000000
  0
LINE
  8
0
 10
-20.999996
 20
71.499985
 11
-20.999996
 21
-51.499985
  0
LINE
  8
0
 10
-20.499966
 20
-51.999992
 11
32.500000
 21
-51.999992
  0
LINE
  8
0
 10
33.000008
 20
2.500000
 11
-20.999996
 21
2.500000
  0
LINE
  8
0
 10
33.000008
 20
-0.699986
 11
-20.999996
 21
-0.699986
  0
LINE
  8
0
 10
33.000008
 20
-5.999973
 11
-20.999996
 21
-5.999973
  0
LINE
  8
0
 10
33.000000
 20
-6.999947
 11
-20.999996
 21
-6.999947
  0
LINE
  8
0
 10
33.000008
 20
-50.000000
 11
-20.999996
 21
-50.000000
  0
LINE
  8
0
  6
CENTER
 62
     2
 10
5.999996
 20
-8.500017
 11
5.999996
 21
-23.500015
  0
LINE
  8
0
  6
CENTER
 62
     2
 10
-0.869076
 20
-16.000017
 11
13.499996
 21
-16.000017
  0
LINE
  8
0
  6
CENTER
 62
     2
 10
-14.000006
 20
-8.500017
 11
-14.000006
 21
-23.500015
  0
LINE
  8
0
  6
CENTER
 62
     2
 10
-21.500006
 20
-16.000017
 11
-6.500004
 21
-16.000017
  0
LINE
  8
0
  6
CENTER
 62
     2
 10
-7.000015
 20
-23.423363
 11
-7.000015
 21
-37.416733
  0
LINE
  8
0
  6
CENTER
 62
     2
 10
20.000000
 20
-23.823723
 11
20.000000
 21
-38.201164
  0
LINE
  8
0
  6
DASHED
 62
     2
 10
2.794717
 20
-47.845272
 11
2.431221
 21
-52.000015
  0
LINE
  8
0
  6
DASHED
 62
     2
 10
3.899994
 20
-47.845261
 11
3.899994
 21
-51.999992
  0
LINE
  8
0
  6
DASHED
 62
     2
 10
12.100002
 20
-47.845261
 11
12.100002
 21
-51.999992
  0
LINE
  8
0
  6
DASHED
 62
     2
 10
13.205377
 20
-47.845261
 11
13.568857
 21
-51.999947
  0
LINE
  8
0
  6
CENTER
 62
     2
 10
13.729519
 20
-30.000015
 11
27.690338
 21
-30.000015
  0
LINE
  8
0
 10
33.000153
 20
-51.500099
 11
32.500149
 21
-52.000103
  0
LINE
  8
0
 10
-20.999931
 20
-51.499912
 11
-20.499895
 21
-51.999916
  0
LINE
  8
0
  6
DASHED
 62
     2
 10
-12.205298
 20
-47.845268
 11
-12.568786
 21
-51.999912
  0
LINE
  8
0
  6
DASHED
 62
     2
 10
-11.100006
 20
-47.845261
 11
-11.100006
 21
-51.999992
  0
LINE
  8
0
  6
CENTER
 62
     2
 10
-13.000010
 20
-30.000015
 11
-0.999996
 21
-30.000015
  0
LINE
  8
0
  6
DASHED
 62
     2
 10
-2.899998
 20
-47.845261
 11
-2.899998
 21
-51.999992
  0
LINE
  8
0
  6
DASHED
 62
     2
 10
-1.794682
 20
-47.845261
 11
-1.431194
 21
-52.000038
  0
LINE
  8
0
  6
CENTER
 62
     2
 10
7.999996
 20
-46.444008
 11
7.999996
 21
-53.828999
  0
LINE
  8
0
 10
32.999985
 20
71.500031
 11
32.999985
 21
-51.499985
  0
LINE
  8
0
  6
PHANTOM
 62
     3
 10
-4.500000
 20
96.624992
 11
-4.500000
 21
-22.577499
  0
LINE
  8
0
  6
PHANTOM
 62
     3
 10
0.000004
 20
-22.577499
 11
0.000004
 21
-62.000015
  0
LINE
  8
0
  6
PHANTOM
 62
     3
 10
-4.500000
 20
-22.577499
 11
0.000004
 21
-22.577499
  0
LINE
  8
0
  6
PHANTOM
 62
     3
 10
1.750004
 20
-24.715000
 11
1.750004
 21
-62.000015
  0
LINE
  8
0
  6
PHANTOM
 62
     3
 10
1.750004
 20
-24.715000
 11
16.875000
 21
-24.715000
  0
LINE
  8
0
  6
PHANTOM
 62
     3
 10
16.875000
 20
85.374992
 11
16.875000
 21
-24.715000
  0
LINE
  8
0
  6
CENTER
 62
     2
 10
-7.000015
 20
-46.330578
 11
-7.000015
 21
-53.609489
  0
LINE
  8
0
  6
CENTER
 62
     2
 10
-109.655991
 20
10.000000
 11
-170.025284
 21
10.000000
  0
LINE
  8
0
 10
-113.999985
 20
17.500000
 11
-114.500000
 21
17.500000
  0
LINE
  8
0
 10
-114.499908
 20
17.500023
 11
-114.999931
 21
17.000008
  0
LINE
  8
0
 10
-114.499886
 20
20.700161
 11
-114.999878
 21
21.200157
  0
LINE
  8
0
 10
-113.999985
 20
20.699997
 11
-114.500000
 21
20.699997
  0
LINE
  8
0
 10
-113.999939
 20
17.500011
 11
-113.999939
 21
2.500000
  0
LINE
  8
0
 10
-115.000000
 20
-51.999992
 11
-164.999924
 21
-51.999992
  0
LINE
  8
0
 10
-115.000000
 20
71.999992
 11
-164.999924
 21
71.999992
  0
LINE
  8
0
 10
-167.000000
 20
70.000023
 11
-167.000000
 21
54.150002
  0
LINE
  8
0
 10
-112.999969
 20
70.000023
 11
-112.999969
 21
53.650017
  0
LINE
  8
0
 10
-113.999985
 20
2.500000
 11
-114.500000
 21
2.500000
  0
LINE
  8
0
 10
-114.499809
 20
2.500118
 11
-114.999794
 21
3.000105
  0
LINE
  8
0
 10
-114.499855
 20
-0.700174
 11
-114.999878
 21
-1.200196
  0
LINE
  8
0
 10
-113.999985
 20
-0.699997
 11
-114.500000
 21
-0.699997
  0
LINE
  8
0
 10
-113.999939
 20
-5.999963
 11
-113.999939
 21
-0.699986
  0
LINE
  8
0
 10
-113.000023
 20
-7.000062
 11
-114.000038
 21
-6.000048
  0
LINE
  8
0
 10
-165.999939
 20
17.500000
 11
-165.499924
 21
17.500000
  0
LINE
  8
0
 10
-165.500061
 20
17.499943
 11
-165.000076
 21
16.999950
  0
LINE
  8
0
 10
-165.500153
 20
20.700092
 11
-165.000137
 21
21.200111
  0
LINE
  8
0
 10
-165.999939
 20
20.699997
 11
-165.499924
 21
20.699997
  0
LINE
  8
0
 10
-165.999939
 20
25.999996
 11
-165.999939
 21
20.700008
  0
LINE
  8
0
 10
-165.999939
 20
17.500011
 11
-165.999939
 21
2.500000
  0
LINE
  8
0
 10
-166.999878
 20
26.999962
 11
-165.999908
 21
25.999977
  0
LINE
  8
0
 10
-165.999939
 20
2.500000
 11
-165.499924
 21
2.500000
  0
LINE
  8
0
 10
-165.500122
 20
2.500120
 11
-165.000076
 21
3.000163
  0
LINE
  8
0
 10
-165.500092
 20
-0.700152
 11
-165.000107
 21
-1.200139
  0
LINE
  8
0
 10
-165.999939
 20
-0.699997
 11
-165.499924
 21
-0.699997
  0
LINE
  8
0
 10
-165.999939
 20
-5.999985
 11
-165.999939
 21
-0.699986
  0
LINE
  8
0
 10
-167.000000
 20
-7.000055
 11
-165.999954
 21
-6.000012
  0
LINE
  8
0
 10
-112.999969
 20
-6.999992
 11
-112.999969
 21
-50.000000
  0
LINE
  8
0
 10
-167.000000
 20
-6.999992
 11
-167.000000
 21
-27.849991
  0
LINE
  8
0
 10
-113.000000
 20
-50.000004
 11
-115.000015
 21
-52.000027
  0
LINE
  8
0
 10
-164.999878
 20
-51.999928
 11
-166.999863
 21
-49.999928
  0
LINE
  8
0
 10
-112.999840
 20
69.999924
 11
-114.999863
 21
71.999947
  0
LINE
  8
0
 10
-164.999847
 20
71.999924
 11
-166.999847
 21
69.999939
  0
LINE
  8
0
 10
-112.999924
 20
48.350021
 11
-115.000000
 21
48.350021
  0
LINE
  8
0
 10
-112.999924
 20
53.650009
 11
-115.000000
 21
53.650009
  0
LINE
  8
0
 10
-165.000000
 20
-27.850014
 11
-167.000000
 21
-27.850014
  0
LINE
  8
0
 10
-165.000000
 20
-34.149998
 11
-167.000000
 21
-34.149998
  0
LINE
  8
0
 10
-167.000000
 20
-34.150009
 11
-167.000000
 21
-50.000000
  0
LINE
  8
0
 10
-165.000000
 20
47.850014
 11
-167.000000
 21
47.850014
  0
LINE
  8
0
 10
-165.000000
 20
54.150002
 11
-167.000000
 21
54.150002
  0
LINE
  8
0
 10
-167.000000
 20
47.850014
 11
-167.000000
 21
26.999992
  0
LINE
  8
0
 10
-113.999939
 20
26.000019
 11
-113.999939
 21
20.700008
  0
LINE
  8
0
 10
-112.999931
 20
27.000002
 11
-113.999977
 21
25.999958
  0
LINE
  8
0
 10
-112.999969
 20
48.350021
 11
-112.999969
 21
26.999992
  0
LINE
  8
0
 10
-164.000015
 20
71.000000
 11
-115.999771
 21
71.000000
  0
LINE
  8
0
 10
-164.000015
 20
-51.000000
 11
-116.000076
 21
-51.000000
  0
LINE
  8
0
 10
-163.999847
 20
70.999863
 11
-164.999847
 21
69.999870
  0
LINE
  8
0
 10
-115.999931
 20
71.000092
 11
-114.999939
 21
70.000099
  0
LINE
  8
0
 10
-164.999893
 20
-49.999920
 11
-163.999908
 21
-50.999912
  0
LINE
  8
0
 10
-115.000023
 20
-49.999992
 11
-116.000015
 21
-50.999989
  0
LINE
  8
0
  6
CENTER
 62
     2
 10
-123.000000
 20
-48.579903
 11
-123.000000
 21
-37.112000
  0
LINE
  8
0
  6
CENTER
 62
     2
 10
-117.574448
 20
63.000000
 11
-128.375595
 21
63.000000
  0
LINE
  8
0
  6
CENTER
 62
     2
 10
-157.000000
 20
-48.579903
 11
-157.000000
 21
-37.112000
  0
LINE
  8
0
  6
CENTER
 62
     2
 10
-117.574448
 20
-43.000000
 11
-128.375595
 21
-43.000000
  0
LINE
  8
0
 10
-115.000000
 20
70.000000
 11
-115.000000
 21
-50.000000
  0
LINE
  8
0
 10
-165.000000
 20
70.000000
 11
-165.000000
 21
-50.000000
  0
LINE
  8
0
  6
CENTER
 62
     2
 10
-140.000000
 20
77.358528
 11
-140.000000
 21
-57.295418
  0
LINE
  8
0
 10
-140.000046
 20
-32.113167
 11
-142.500031
 21
-33.556545
  0
LINE
  8
0
 10
-142.500000
 20
-33.556629
 11
-142.500000
 21
-36.443375
  0
LINE
  8
0
 10
-140.000015
 20
-37.886806
 11
-142.500031
 21
-36.443413
  0
LINE
  8
0
 10
-137.500031
 20
-36.443306
 11
-140.000046
 21
-37.886692
  0
LINE
  8
0
 10
-137.500000
 20
-33.556629
 11
-137.500000
 21
-36.443375
  0
LINE
  8
0
 10
-140.000015
 20
-32.113316
 11
-137.500031
 21
-33.556694
  0
LINE
  8
0
 10
-140.000076
 20
57.886883
 11
-142.500076
 21
56.443501
  0
LINE
  8
0
 10
-142.500000
 20
56.443375
 11
-142.500000
 21
53.556633
  0
LINE
  8
0
 10
-139.999985
 20
52.113213
 11
-142.499985
 21
53.556595
  0
LINE
  8
0
 10
-137.500061
 20
53.556698
 11
-140.000061
 21
52.113319
  0
LINE
  8
0
 10
-137.500000
 20
56.443375
 11
-137.500000
 21
53.556633
  0
LINE
  8
0
 10
-139.999969
 20
57.886723
 11
-137.499969
 21
56.443344
  0
LINE
  8
0
 10
-140.000046
 20
12.886842
 11
-142.500046
 21
11.443454
  0
LINE
  8
0
 10
-142.500000
 20
11.443373
 11
-142.500000
 21
8.556627
  0
LINE
  8
0
 10
-140.000015
 20
7.113211
 11
-142.500015
 21
8.556602
  0
LINE
  8
0
 10
-137.500031
 20
8.556695
 11
-140.000031
 21
7.113317
  0
LINE
  8
0
 10
-137.500000
 20
11.443373
 11
-137.500000
 21
8.556627
  0
LINE
  8
0
 10
-140.000031
 20
12.886716
 11
-137.500015
 21
11.443335
  0
LINE
  8
0
  6
CENTER
 62
     2
 10
-151.574448
 20
-43.000000
 11
-162.375595
 21
-43.000000
  0
LINE
  8
0
  6
CENTER
 62
     2
 10
-151.574448
 20
63.000000
 11
-162.375595
 21
63.000000
  0
LINE
  8
0
  6
CENTER
 62
     2
 10
-149.587357
 20
55.000000
 11
-130.593414
 21
55.000000
  0
LINE
  8
0
  6
CENTER
 62
     2
 10
-149.587357
 20
-35.000000
 11
-130.593414
 21
-35.000000
  0
LINE
  8
0
  6
CENTER
 62
     2
 10
-157.000000
 20
68.168777
 11
-157.000000
 21
57.614799
  0
LINE
  8
0
  6
CENTER
 62
     2
 10
-123.000000
 20
68.168777
 11
-123.000000
 21
57.434395
  0
LINE
  8
0
 10
109.000015
 20
17.500000
 11
109.500015
 21
17.500000
  0
LINE
  8
0
 10
109.499992
 20
17.499979
 11
109.999977
 21
16.999992
  0
LINE
  8
0
 10
110.000015
 20
17.000004
 11
111.600006
 21
17.000004
  0
LINE
  8
0
 10
110.000015
 20
21.200008
 11
111.600006
 21
21.200008
  0
LINE
  8
0
 10
109.499855
 20
20.700161
 11
109.999863
 21
21.200165
  0
LINE
  8
0
 10
109.000015
 20
20.699997
 11
109.500015
 21
20.699997
  0
LINE
  8
0
 10
109.000008
 20
17.500011
 11
109.000008
 21
2.500000
  0
LINE
  8
0
 10
110.000000
 20
-51.999992
 11
160.000000
 21
-51.999992
  0
LINE
  8
0
 10
110.000000
 20
71.999992
 11
160.000000
 21
71.999992
  0
LINE
  8
0
  6
CENTER
 62
     2
 10
120.113678
 20
55.000000
 11
149.676239
 21
55.000000
  0
LINE
  8
0
  6
CENTER
 62
     2
 10
120.153839
 20
-35.000000
 11
149.443527
 21
-35.000000
  0
LINE
  8
0
 10
109.000015
 20
2.500000
 11
109.500015
 21
2.500000
  0
LINE
  8
0
 10
109.499931
 20
2.500055
 11
109.999931
 21
3.000056
  0
LINE
  8
0
 10
110.000015
 20
3.000002
 11
111.600006
 21
3.000002
  0
LINE
  8
0
 10
110.000015
 20
-1.200005
 11
111.600006
 21
-1.200005
  0
LINE
  8
0
 10
109.499878
 20
-0.700079
 11
109.999870
 21
-1.200067
  0
LINE
  8
0
 10
109.000015
 20
-0.699997
 11
109.500015
 21
-0.699997
  0
LINE
  8
0
 10
109.000008
 20
-5.999963
 11
109.000008
 21
-0.699986
  0
LINE
  8
0
 10
107.999992
 20
-7.000040
 11
109.000015
 21
-6.000018
  0
LINE
  8
0
 10
160.999985
 20
17.500000
 11
160.499985
 21
17.500000
  0
LINE
  8
0
 10
160.500076
 20
17.499939
 11
160.000061
 21
16.999929
  0
LINE
  8
0
 10
160.000000
 20
17.000004
 11
158.399994
 21
17.000004
  0
LINE
  8
0
 10
160.000000
 20
21.200008
 11
158.399994
 21
21.200008
  0
LINE
  8
0
 10
160.500183
 20
20.700155
 11
160.000183
 21
21.200165
  0
LINE
  8
0
 10
160.999985
 20
20.699997
 11
160.499985
 21
20.699997
  0
LINE
  8
0
 10
161.000000
 20
25.999996
 11
161.000000
 21
20.700008
  0
LINE
  8
0
 10
161.000000
 20
17.500011
 11
161.000000
 21
2.500000
  0
LINE
  8
0
 10
162.000015
 20
26.999960
 11
161.000000
 21
25.999950
  0
LINE
  8
0
 10
160.999985
 20
2.500000
 11
160.499985
 21
2.500000
  0
LINE
  8
0
 10
160.500137
 20
2.500124
 11
160.000153
 21
3.000117
  0
LINE
  8
0
 10
160.000000
 20
3.000002
 11
158.399994
 21
3.000002
  0
LINE
  8
0
 10
160.000000
 20
-1.200005
 11
158.399994
 21
-1.200005
  0
LINE
  8
0
 10
160.500153
 20
-0.700138
 11
160.000153
 21
-1.200128
  0
LINE
  8
0
 10
160.999985
 20
-0.699997
 11
160.499985
 21
-0.699997
  0
LINE
  8
0
 10
161.000000
 20
-5.999985
 11
161.000000
 21
-0.699986
  0
LINE
  8
0
 10
162.000031
 20
-7.000057
 11
161.000031
 21
-6.000044
  0
LINE
  8
0
 10
108.000000
 20
-6.999992
 11
108.000000
 21
-50.000000
  0
LINE
  8
0
 10
162.000000
 20
-6.999992
 11
162.000000
 21
-27.849991
  0
LINE
  8
0
 10
107.999985
 20
-50.000027
 11
109.999992
 21
-52.000038
  0
LINE
  8
0
 10
160.000000
 20
-51.999981
 11
161.999985
 21
-49.999981
  0
LINE
  8
0
 10
108.000031
 20
69.999977
 11
110.000023
 21
71.999969
  0
LINE
  8
0
 10
159.999893
 20
71.999947
 11
161.999893
 21
69.999947
  0
LINE
  8
0
 10
159.000000
 20
-27.850014
 11
162.000000
 21
-27.850014
  0
LINE
  8
0
 10
159.000000
 20
-34.149998
 11
162.000000
 21
-34.149998
  0
LINE
  8
0
 10
153.500000
 20
-25.850002
 11
159.000000
 21
-25.850002
  0
LINE
  8
0
 10
153.500000
 20
-36.149990
 11
159.000000
 21
-36.149990
  0
LINE
  8
0
 10
153.500000
 20
-25.850002
 11
153.500000
 21
-36.149990
  0
LINE
  8
0
 10
159.000000
 20
-25.850002
 11
159.000000
 21
-27.849991
  0
LINE
  8
0
 10
162.000000
 20
-34.150009
 11
162.000000
 21
-50.000000
  0
LINE
  8
0
 10
159.000000
 20
-34.149986
 11
159.000000
 21
-36.149990
  0
LINE
  8
0
 10
109.000008
 20
26.000019
 11
109.000008
 21
20.700008
  0
LINE
  8
0
 10
108.000008
 20
26.999996
 11
109.000031
 21
25.999975
  0
LINE
  8
0
  6
CENTER
 62
     2
 10
115.000000
 20
68.000000
 11
115.000000
 21
58.000000
  0
LINE
  8
0
  6
CENTER
 62
     2
 10
110.000000
 20
63.000000
 11
119.999985
 21
63.000000
  0
LINE
  8
0
 10
133.500000
 20
72.000015
 11
133.500000
 21
66.401764
  0
LINE
  8
0
 10
136.500000
 20
72.000015
 11
136.500000
 21
66.401764
  0
LINE
  8
0
 10
136.500000
 20
-52.000004
 11
136.500000
 21
-46.401760
  0
LINE
  8
0
 10
133.500000
 20
-52.000004
 11
133.500000
 21
-46.401760
  0
LINE
  8
0
 10
110.000000
 20
53.650017
 11
110.000000
 21
48.350021
  0
LINE
  8
0
 10
160.000000
 20
54.150002
 11
160.000000
 21
47.850014
  0
LINE
  8
0
 10
110.000000
 20
21.200008
 11
110.000000
 21
17.000004
  0
LINE
  8
0
 10
110.000000
 20
2.999998
 11
110.000000
 21
-1.200005
  0
LINE
  8
0
 10
160.000000
 20
2.999998
 11
160.000000
 21
-1.200005
  0
LINE
  8
0
 10
160.000000
 20
-27.850014
 11
160.000000
 21
-34.149998
  0
LINE
  8
0
 10
160.000000
 20
21.200008
 11
160.000000
 21
17.000004
  0
LINE
  8
0
 10
111.000008
 20
55.150009
 11
111.000008
 21
53.650017
  0
LINE
  8
0
 10
108.000000
 20
53.650017
 11
111.000000
 21
53.650017
  0
LINE
  8
0
 10
108.000000
 20
70.000023
 11
108.000000
 21
53.650017
  0
LINE
  8
0
 10
115.500000
 20
55.150009
 11
115.500000
 21
46.850006
  0
LINE
  8
0
 10
111.000008
 20
48.350021
 11
111.000008
 21
46.850006
  0
LINE
  8
0
 10
108.000000
 20
48.350021
 11
111.000000
 21
48.350021
  0
LINE
  8
0
 10
108.000000
 20
48.350021
 11
108.000000
 21
26.999992
  0
LINE
  8
0
 10
162.000000
 20
70.000023
 11
162.000000
 21
54.150002
  0
LINE
  8
0
 10
159.000000
 20
54.150002
 11
162.000000
 21
54.150002
  0
LINE
  8
0
 10
159.000000
 20
54.150002
 11
159.000000
 21
56.149971
  0
LINE
  8
0
 10
153.500000
 20
56.149994
 11
159.000000
 21
56.149994
  0
LINE
  8
0
 10
153.500000
 20
45.850021
 11
153.500000
 21
56.149971
  0
LINE
  8
0
 10
153.500000
 20
45.850006
 11
159.000000
 21
45.850006
  0
LINE
  8
0
 10
159.000000
 20
45.850021
 11
159.000000
 21
47.850014
  0
LINE
  8
0
 10
159.000000
 20
47.850014
 11
162.000000
 21
47.850014
  0
LINE
  8
0
 10
162.000000
 20
47.850014
 11
162.000000
 21
26.999992
  0
LINE
  8
0
  6
DASHED
 62
     2
 10
122.205132
 20
-47.845261
 11
122.568619
 21
-52.000034
  0
LINE
  8
0
  6
DASHED
 62
     2
 10
121.100006
 20
-47.845261
 11
121.100006
 21
-52.000004
  0
LINE
  8
0
  6
DASHED
 62
     2
 10
112.899994
 20
-47.845261
 11
112.899994
 21
-52.000004
  0
LINE
  8
0
  6
DASHED
 62
     2
 10
111.794830
 20
-47.845264
 11
111.431343
 21
-51.999966
  0
LINE
  8
0
  6
CENTER
 62
     2
 10
106.713425
 20
10.000000
 11
163.634415
 21
10.000000
  0
LINE
  8
0
  6
CENTER
 62
     2
 10
135.000000
 20
74.803787
 11
135.000000
 21
-55.175598
  0
LINE
  8
0
  6
CENTER
 62
     2
 10
155.000000
 20
68.000000
 11
155.000000
 21
58.000000
  0
LINE
  8
0
  6
CENTER
 62
     2
 10
160.000000
 20
63.000000
 11
150.000015
 21
63.000000
  0
LINE
  8
0
  6
CENTER
 62
     2
 10
115.000000
 20
-48.000000
 11
115.000000
 21
-38.000000
  0
LINE
  8
0
  6
CENTER
 62
     2
 10
110.000000
 20
-43.000000
 11
119.999985
 21
-43.000000
  0
LINE
  8
0
  6
CENTER
 62
     2
 10
155.000000
 20
-48.000000
 11
155.000000
 21
-38.000000
  0
LINE
  8
0
  6
CENTER
 62
     2
 10
160.000000
 20
-43.000000
 11
150.000015
 21
-43.000000
  0
LINE
  8
0
  6
CENTER
 62
     2
 10
117.000000
 20
-26.925919
 11
117.000000
 21
-32.969883
  0
LINE
  8
0
  6
CENTER
 62
     2
 10
114.009995
 20
-30.000000
 11
119.994141
 21
-30.000000
  0
LINE
  8
0
  6
CENTER
 62
     2
 10
111.000000
 20
51.000008
 11
118.007965
 21
51.000008
  0
LINE
  8
0
  6
CENTER
 62
     2
 10
150.482330
 20
51.000000
 11
159.000000
 21
51.000000
  0
LINE
  8
0
  6
CENTER
 62
     2
 10
150.259903
 20
-30.999996
 11
159.000000
 21
-30.999996
  0
LINE
  8
0
  6
CENTER
 62
     2
 10
117.000000
 20
-46.538620
 11
117.000000
 21
-54.503143
  0
LINE
  8
0
 10
111.000000
 20
55.150009
 11
115.500000
 21
55.150009
  0
LINE
  8
0
 10
111.000000
 20
46.850006
 11
115.500000
 21
46.850006
  0
LINE
  8
0
 10
-194.250000
 20
132.600006
 11
194.800003
 21
132.600006
  0
LINE
  8
0
 10
194.800003
 20
132.600006
 11
194.800003
 21
-133.500000
  0
LINE
  8
0
 10
-194.250000
 20
132.600006
 11
-194.250000
 21
-133.500000
  0
LINE
  8
0
 10
-194.250000
 20
-133.500000
 11
194.800003
 21
-133.500000
  0
LINE
  8
0
 10
109.800003
 20
-118.500000
 11
109.800003
 21
-133.500000
  0
LINE
  8
0
 10
109.800003
 20
-118.500000
 11
194.800003
 21
-118.500000
  0
LINE
  8
0
 10
109.800003
 20
132.600006
 11
109.800003
 21
117.600006
  0
LINE
  8
0
 10
109.800003
 20
117.600006
 11
194.800003
 21
117.600006
  0
LINE
  8
0
 10
-194.250000
 20
117.600006
 11
-84.250000
 21
117.600006
  0
LINE
  8
0
 10
-84.250000
 20
132.600006
 11
-84.250000
 21
117.600006
  0
LINE
  8
0
 10
-184.249985
 20
-123.499992
 11
-39.249992
 21
-123.499992
  0
LINE
  8
0
 10
-184.250000
 20
-123.500000
 11
-184.250000
 21
-92.500000
  0
LINE
  8
0
 10
-184.249985
 20
-115.499992
 11
-39.249992
 21
-115.499992
  0
LINE
  8
0
 10
-184.249985
 20
-107.500000
 11
-39.249992
 21
-107.500000
  0
LINE
  8
0
 10
-159.250000
 20
-123.500000
 11
-159.250000
 21
-92.500000
  0
LINE
  8
0
 10
-135.250000
 20
-123.500000
 11
-135.250000
 21
-92.500000
  0
LINE
  8
0
 10
-147.250000
 20
-123.500000
 11
-147.250000
 21
-92.500000
  0
LINE
  8
0
 10
-123.250000
 20
-123.500000
 11
-123.250000
 21
-92.500000
  0
LINE
  8
0
 10
-111.250000
 20
-123.500000
 11
-111.250000
 21
-92.500000
  0
LINE
  8
0
 10
-99.250000
 20
-123.500000
 11
-99.250000
 21
-92.500000
  0
LINE
  8
0
 10
-159.250046
 20
-107.500015
 11
-161.929535
 21
-97.500023
  0
LINE
  8
0
 10
-184.250000
 20
-97.500000
 11
-161.929489
 21
-97.500000
  0
LINE
  8
0
 10
-184.249985
 20
-92.499992
 11
-39.249992
 21
-92.499992
  0
LINE
  8
0
 10
-39.250000
 20
-123.500000
 11
-39.250000
 21
-92.500000
  0
LINE
  8
0
 10
-87.250000
 20
-123.500000
 11
-87.250000
 21
-92.500000
  0
LINE
  8
0
 10
-75.250000
 20
-123.500000
 11
-75.250000
 21
-92.500000
  0
LINE
  8
0
 10
-63.250000
 20
-123.500000
 11
-63.250000
 21
-92.500000
  0
LINE
  8
0
 10
-51.250000
 20
-123.500000
 11
-51.250000
 21
-92.500000
  0
ARC
  8
0
 10
-30.500000
 20
10.000000
 40
8.000003
 50
331.044952
 51
28.955101
  0
CIRCLE
  8
0
 10
-13.999987
 20
36.000004
 40
5.500000
  0
CIRCLE
  8
0
 10
6.000019
 20
36.000004
 40
5.500000
  0
CIRCLE
  8
0
  6
DASHED
 62
     2
 10
6.000019
 20
36.000004
 40
4.000000
  0
CIRCLE
  8
0
  6
DASHED
 62
     2
 10
-13.999987
 20
36.000004
 40
4.000000
  0
CIRCLE
  8
0
 10
5.999996
 20
-16.000017
 40
5.500000
  0
CIRCLE
  8
0
 10
-14.000006
 20
-16.000017
 40
5.500000
  0
CIRCLE
  8
0
  6
DASHED
 62
     2
 10
-14.000006
 20
-16.000017
 40
4.000000
  0
CIRCLE
  8
0
  6
DASHED
 62
     2
 10
5.999996
 20
-16.000017
 40
4.000000
  0
CIRCLE
  8
0
 62
     2
 10
-7.000015
 20
-30.000015
 40
4.865000
  0
CIRCLE
  8
0
 62
     2
 10
20.000000
 20
-30.000015
 40
4.865000
  0
CIRCLE
  8
0
 10
-7.000015
 20
-30.000015
 40
4.285000
  0
CIRCLE
  8
0
 10
20.000000
 20
-30.000015
 40
4.285000
  0
CIRCLE
  8
0
 10
-13.999987
 20
36.000004
 40
3.400000
  0
CIRCLE
  8
0
 10
-13.999987
 20
-16.000004
 40
3.400000
  0
CIRCLE
  8
0
 10
6.000015
 20
36.000004
 40
3.400000
  0
CIRCLE
  8
0
 10
6.000015
 20
-16.000004
 40
3.400000
  0
CIRCLE
  8
0
 10
-140.000000
 20
10.000000
 40
4.600000
  0
CIRCLE
  8
0
 10
-140.000000
 20
10.000000
 40
7.000000
  0
CIRCLE
  8
0
 10
-140.000000
 20
10.000000
 40
7.500000
  0
CIRCLE
  8
0
 10
-140.000000
 20
-35.000000
 40
7.500000
  0
CIRCLE
  8
0
 10
-140.000000
 20
55.000000
 40
7.500000
  0
CIRCLE
  8
0
 62
     2
 10
-123.000000
 20
63.000000
 40
4.000000
  0
CIRCLE
  8
0
 10
-123.000000
 20
63.000000
 40
3.375000
  0
CIRCLE
  8
0
 62
     2
 10
-123.000000
 20
-43.000000
 40
4.000000
  0
CIRCLE
  8
0
 10
-123.000000
 20
-43.000000
 40
3.375000
  0
CIRCLE
  8
0
 62
     2
 10
-157.000000
 20
63.000000
 40
4.000000
  0
CIRCLE
  8
0
 10
-157.000000
 20
63.000000
 40
3.375000
  0
CIRCLE
  8
0
 62
     2
 10
-157.000000
 20
-43.000000
 40
4.000000
  0
CIRCLE
  8
0
 10
-157.000000
 20
-43.000000
 40
3.375000
  0
CIRCLE
  8
0
 10
-140.000000
 20
-35.000000
 40
7.000000
  0
CIRCLE
  8
0
 10
-140.000000
 20
-35.000000
 40
4.600000
  0
CIRCLE
  8
0
 10
-140.000000
 20
55.000000
 40
7.000000
  0
CIRCLE
  8
0
 10
-140.000000
 20
55.000000
 40
4.600000
  0
ARC
  8
0
 10
111.600006
 20
19.100018
 40
2.100000
 50
270.000000
 51
90.000000
  0
ARC
  8
0
 10
111.600006
 20
0.899986
 40
2.100000
 50
270.000000
 51
90.000000
  0
ARC
  8
0
 10
158.399994
 20
19.100018
 40
2.100000
 50
90.000000
 51
270.000000
  0
ARC
  8
0
 10
158.399994
 20
0.899986
 40
2.100000
 50
90.000000
 51
270.000000
  0
CIRCLE
  8
0
 10
135.000000
 20
10.000000
 40
21.000000
  0
CIRCLE
  8
0
 62
     2
 10
115.000000
 20
63.000000
 40
4.000000
  0
CIRCLE
  8
0
 10
135.000000
 20
55.000000
 40
11.500002
  0
CIRCLE
  8
0
 10
135.000000
 20
-35.000000
 40
11.500002
  0
CIRCLE
  8
0
 10
115.000000
 20
63.000000
 40
3.375000
  0
CIRCLE
  8
0
 10
135.000000
 20
10.000000
 40
14.500000
  0
CIRCLE
  8
0
 10
135.000000
 20
55.000000
 40
10.000000
  0
CIRCLE
  8
0
 10
135.000000
 20
-35.000000
 40
10.000000
  0
CIRCLE
  8
0
 62
     2
 10
155.000000
 20
63.000000
 40
4.000000
  0
CIRCLE
  8
0
 10
155.000000
 20
63.000000
 40
3.375000
  0
CIRCLE
  8
0
 62
     2
 10
115.000000
 20
-43.000000
 40
4.000000
  0
CIRCLE
  8
0
 10
115.000000
 20
-43.000000
 40
3.375000
  0
CIRCLE
  8
0
 62
     2
 10
155.000000
 20
-43.000000
 40
4.000000
  0
CIRCLE
  8
0
 10
155.000000
 20
-43.000000
 40
3.375000
  0
CIRCLE
  8
0
 10
117.000000
 20
-30.000000
 40
1.500000
  0
TEXT
  8
0
 10
133.907150
 20
122.050003
 40
4.500000
  1
Ver. 1.0
 50
0.000000
 41
1.052631
 51
0.000000
  7
STANDARD
  0
TEXT
  8
0
 10
113.700279
 20
-130.669998
 40
6.300000
  1
KOGANEI CORP.
 50
0.000000
 41
1.052632
 51
0.000000
  7
STANDARD
  0
TEXT
  8
0
 10
-191.392654
 20
122.050003
 40
4.500000
  1
JIG CYLINDER WITH GUIDE
 50
0.000000
 41
1.052632
 51
0.000000
  7
STANDARD
  0
TEXT
  8
0
 10
-186.892654
 20
104.550003
 40
4.500000
  1
MODEL:SGDA40*ST(10)
 50
0.000000
 41
1.052632
 51
0.000000
  7
STANDARD
  0
TEXT
  8
0
 10
-181.557144
 20
-96.879997
 40
3.200000
  1
STROKE
 50
0.000000
 41
1.052631
 51
0.000000
  7
STANDARD
  0
TEXT
  8
0
 10
-173.557144
 20
-113.379997
 40
3.200000
  1
A
 50
0.000000
 41
1.052631
 51
0.000000
  7
STANDARD
  0
TEXT
  8
0
 10
-184.496872
 20
-101.019997
 40
3.200000
  1
STRETCH
 50
0.000000
 41
1.052631
 51
0.000000
  7
STANDARD
  0
TEXT
  8
0
 10
-184.496872
 20
-105.820000
 40
3.200000
  1
  PLACE
 50
0.000000
 41
1.052631
 51
0.000000
  7
STANDARD
  0
TEXT
  8
0
 10
-156.657150
 20
-101.879997
 40
3.200000
  1
10
 50
0.000000
 41
1.052631
 51
0.000000
  7
STANDARD
  0
TEXT
  8
0
 10
-144.657150
 20
-101.879997
 40
3.200000
  1
20
 50
0.000000
 41
1.052631
 51
0.000000
  7
STANDARD
  0
TEXT
  8
0
 10
-132.657150
 20
-101.879997
 40
3.200000
  1
30
 50
0.000000
 41
1.052631
 51
0.000000
  7
STANDARD
  0
TEXT
  8
0
 10
-120.657158
 20
-101.879997
 40
3.200000
  1
50
 50
0.000000
 41
1.052631
 51
0.000000
  7
STANDARD
  0
TEXT
  8
0
 10
-108.657158
 20
-101.879997
 40
3.200000
  1
75
 50
0.000000
 41
1.052631
 51
0.000000
  7
STANDARD
  0
TEXT
  8
0
 10
-98.257156
 20
-101.879997
 40
3.200000
  1
100
 50
0.000000
 41
1.052631
 51
0.000000
  7
STANDARD
  0
TEXT
  8
0
 10
-51.857136
 20
-91.379997
 40
3.200000
  1
(mm)
 50
0.000000
 41
1.052631
 51
0.000000
  7
STANDARD
  0
TEXT
  8
0
 10
-131.157120
 20
-91.379997
 40
3.200000
  1
STRETCH LIST
 50
0.000000
 41
1.052631
 51
0.000000
  7
STANDARD
  0
TEXT
  8
0
 10
-173.557007
 20
-121.379997
 40
3.200000
  1
B
 50
0.000000
 41
1.052632
 51
0.000000
  7
STANDARD
  0
TEXT
  8
0
 10
-159.892654
 20
97.550003
 40
4.500000
  1
SGDAF40*ST(10)
 50
0.000000
 41
1.052632
 51
0.000000
  7
STANDARD
  0
TEXT
  8
0
 62
     3
 10
5.992857
 20
89.720009
 40
3.200000
  1
STRETCH LINE A
 50
0.000000
 41
1.052631
 51
0.000000
  7
STANDARD
  0
TEXT
  8
0
 10
-86.257019
 20
-101.879997
 40
3.200000
  1
125
 50
0.000000
 41
1.052632
 51
0.000000
  7
STANDARD
  0
TEXT
  8
0
 10
-74.257019
 20
-101.879997
 40
3.200000
  1
150
 50
0.000000
 41
1.052632
 51
0.000000
  7
STANDARD
  0
TEXT
  8
0
 10
-62.257015
 20
-101.879997
 40
3.200000
  1
175
 50
0.000000
 41
1.052632
 51
0.000000
  7
STANDARD
  0
TEXT
  8
0
 10
-50.257015
 20
-101.879997
 40
3.200000
  1
200
 50
0.000000
 41
1.052632
 51
0.000000
  7
STANDARD
  0
TEXT
  8
0
 10
-155.057022
 20
-113.379997
 40
3.200000
  1
0
 50
0.000000
 41
1.052632
 51
0.000000
  7
STANDARD
  0
TEXT
  8
0
 10
-143.057022
 20
-113.379997
 40
3.200000
  1
0
 50
0.000000
 41
1.052632
 51
0.000000
  7
STANDARD
  0
TEXT
  8
0
 10
-131.057022
 20
-113.379997
 40
3.200000
  1
0
 50
0.000000
 41
1.052632
 51
0.000000
  7
STANDARD
  0
TEXT
  8
0
 10
-119.057014
 20
-113.379997
 40
3.200000
  1
0
 50
0.000000
 41
1.052632
 51
0.000000
  7
STANDARD
  0
TEXT
  8
0
 10
-108.657013
 20
-113.379997
 40
3.200000
  1
25
 50
0.000000
 41
1.052632
 51
0.000000
  7
STANDARD
  0
TEXT
  8
0
 10
-96.657013
 20
-113.379997
 40
3.200000
  1
50
 50
0.000000
 41
1.052632
 51
0.000000
  7
STANDARD
  0
TEXT
  8
0
 10
-84.657013
 20
-113.379997
 40
3.200000
  1
25
 50
0.000000
 41
1.052632
 51
0.000000
  7
STANDARD
  0
TEXT
  8
0
 10
-72.657013
 20
-113.379997
 40
3.200000
  1
50
 50
0.000000
 41
1.052632
 51
0.000000
  7
STANDARD
  0
TEXT
  8
0
 10
-60.657017
 20
-113.379997
 40
3.200000
  1
75
 50
0.000000
 41
1.052632
 51
0.000000
  7
STANDARD
  0
TEXT
  8
0
 10
-50.257015
 20
-113.379997
 40
3.200000
  1
100
 50
0.000000
 41
1.052632
 51
0.000000
  7
STANDARD
  0
TEXT
  8
0
 10
-48.657017
 20
-121.379997
 40
3.200000
  1
90
 50
0.000000
 41
1.052632
 51
0.000000
  7
STANDARD
  0
TEXT
  8
0
 10
-60.657017
 20
-121.379997
 40
3.200000
  1
90
 50
0.000000
 41
1.052632
 51
0.000000
  7
STANDARD
  0
TEXT
  8
0
 10
-72.657013
 20
-121.379997
 40
3.200000
  1
90
 50
0.000000
 41
1.052632
 51
0.000000
  7
STANDARD
  0
TEXT
  8
0
 10
-84.657013
 20
-121.379997
 40
3.200000
  1
90
 50
0.000000
 41
1.052632
 51
0.000000
  7
STANDARD
  0
TEXT
  8
0
 10
-96.657013
 20
-121.379997
 40
3.200000
  1
40
 50
0.000000
 41
1.052632
 51
0.000000
  7
STANDARD
  0
TEXT
  8
0
 10
-108.657013
 20
-121.379997
 40
3.200000
  1
40
 50
0.000000
 41
1.052632
 51
0.000000
  7
STANDARD
  0
TEXT
  8
0
 10
-120.657013
 20
-121.379997
 40
3.200000
  1
40
 50
0.000000
 41
1.052632
 51
0.000000
  7
STANDARD
  0
TEXT
  8
0
 10
-155.057022
 20
-121.379997
 40
3.200000
  1
0
 50
0.000000
 41
1.052632
 51
0.000000
  7
STANDARD
  0
TEXT
  8
0
 10
-144.657013
 20
-121.379997
 40
3.200000
  1
10
 50
0.000000
 41
1.052632
 51
0.000000
  7
STANDARD
  0
TEXT
  8
0
 10
-132.657013
 20
-121.379997
 40
3.200000
  1
20
 50
0.000000
 41
1.052632
 51
0.000000
  7
STANDARD
  0
TEXT
  8
0
 62
     3
 10
-15.807001
 20
100.920006
 40
3.200000
  1
STRETCH LINE B
 50
0.000000
 41
1.052632
 51
0.000000
  7
STANDARD
  0
TEXT
  8
0
 62
     2
 10
69.646561
 20
-70.999992
 40
3.200000
  1
STROKE=75-200
 50
0.000000
 41
1.052632
 51
0.000000
  7
STANDARD
  0
LINE
  8
0
 62
     2
 10
65.000015
 20
-71.999992
 11
110.996567
 21
-71.999992
  0
LINE
  8
0
 62
     2
 10
32.999985
 20
-71.999992
 11
65.000015
 21
-71.999992
  0
LINE
  8
0
 62
     2
 10
32.999985
 20
-71.999992
 11
35.897762
 21
-71.223534
  0
LINE
  8
0
 62
     2
 10
32.999985
 20
-71.999992
 11
35.897762
 21
-72.776451
  0
LINE
  8
0
 62
     2
 10
65.000015
 20
-71.999992
 11
62.102238
 21
-72.776451
  0
LINE
  8
0
 62
     2
 10
65.000015
 20
-71.999992
 11
62.102238
 21
-71.223534
  0
LINE
  8
0
 62
     2
 10
32.999985
 20
-51.499985
 11
32.999985
 21
-73.499992
  0
LINE
  8
0
 62
     2
 10
65.000015
 20
-44.500000
 11
65.000015
 21
-73.499992
  0
ENDSEC
  0
EOF
