  0
SECTION
  2
HEADER
  0
ENDSEC
  0
SECTION
  2
TABLES
  0
TABLE
  2
LTYPE
 70
     4
  0
LTYPE
  2
CONTINUOUS
 70
    64
  3
Solid line
 72
    65
 73
     0
 40
0.000000
  0
LTYPE
  2
DASHED
 70
    64
  3
__ __ __ __ __ __ __ __ __ __ __ __ __ __ __
 72
    65
 73
     2
 40
3.500000
 49
2.000000
 49
-1.500000
  0
LTYPE
  2
CENTER
 70
    64
  3
____ _ ____ _ ____ _ ____ _ ____ _ ____ _ ____
 72
    65
 73
     4
 40
17.500000
 49
13.000000
 49
-1.500000
 49
1.500000
 49
-1.500000
  0
LTYPE
  2
PHANTOM
 70
    64
  3
_____ _ _ _____ _ _ _____ _ _ _____ _ _ ____  
 72
    65
 73
     6
 40
15.500000
 49
8.000000
 49
-1.500000
 49
1.500000
 49
-1.500000
 49
1.500000
 49
-1.500000
  0
LTYPE
  2
DASHED1
 70
    64
  3
__ __ __ __ __ __ __ __ __ __ __ __ __ __ __
 72
    65
 73
     2
 40
1.500000
 49
1.000000
 49
-0.500000
  0
LTYPE
  2
DASHED2
 70
    64
  3
__ __ __ __ __ __ __ __ __ __ __ __ __ __ __
 72
    65
 73
     2
 40
3.500000
 49
2.500000
 49
-1.000000
  0
LTYPE
  2
DASHED3
 70
    64
  3
__ __ __ __ __ __ __ __ __ __ __ __ __ __ __
 72
    65
 73
     2
 40
6.000000
 49
4.000000
 49
-2.000000
  0
LTYPE
  2
DASHED4
 70
    64
  3
__ __ __ __ __ __ __ __ __ __ __ __ __ __ __
 72
    65
 73
     2
 40
12.000000
 49
10.000000
 49
-2.000000
  0
LTYPE
  2
DASHED5
 70
    64
  3
__ __ __ __ __ __ __ __ __ __ __ __ __ __ __
 72
    65
 73
     2
 40
17.000000
 49
15.000000
 49
-2.000000
  0
LTYPE
  2
DASHED6
 70
    64
  3
__ __ __ __ __ __ __ __ __ __ __ __ __ __ __
 72
    65
 73
     2
 40
29.000000
 49
27.000000
 49
-2.000000
  0
LTYPE
  2
PHANTOM1
 70
    64
  3
_____ _ _ _____ _ _ _____ _ _ _____ _ _ ____  
 72
    65
 73
     6
 40
31.000000
 49
25.000000
 49
-1.500000
 49
1.000000
 49
-1.000000
 49
1.000000
 49
-1.500000
  0
LTYPE
  2
PHANTOM2
 70
    64
  3
_____ _ _ _____ _ _ _____ _ _ _____ _ _ ____  
 72
    65
 73
     6
 40
36.000000
 49
27.000000
 49
-1.500000
 49
2.500000
 49
-1.000000
 49
2.500000
 49
-1.500000
  0
LTYPE
  2
PHANTOM3
 70
    64
  3
_____ _ _ _____ _ _ _____ _ _ _____ _ _ ____  
 72
    65
 73
     6
 40
78.000000
 49
64.000000
 49
-2.000000
 49
4.000000
 49
-2.000000
 49
4.000000
 49
-2.000000
  0
LTYPE
  2
CENTER1
 70
    64
  3
____ _ ____ _ ____ _ ____ _ ____ _ ____ _ ____
 72
    65
 73
     4
 40
19.000000
 49
14.000000
 49
-1.000000
 49
3.000000
 49
-1.000000
  0
LTYPE
  2
CENTER2
 70
    64
  3
____ _ ____ _ ____ _ ____ _ ____ _ ____ _ ____
 72
    65
 73
     4
 40
28.500000
 49
25.000000
 49
-1.000000
 49
1.500000
 49
-1.000000
  0
LTYPE
  2
CENTER3
 70
    64
  3
____ _ ____ _ ____ _ ____ _ ____ _ ____ _ ____
 72
    65
 73
     4
 40
31.500000
 49
27.000000
 49
-1.000000
 49
2.500000
 49
-1.000000
  0
LTYPE
  2
CENTER4
 70
    64
  3
____ _ ____ _ ____ _ ____ _ ____ _ ____ _ ____
 72
    65
 73
     4
 40
50.000000
 49
45.000000
 49
-1.000000
 49
3.000000
 49
-1.000000
  0
LTYPE
  2
CENTER5
 70
    64
  3
____ _ ____ _ ____ _ ____ _ ____ _ ____ _ ____
 72
    65
 73
     4
 40
100.000000
 49
92.000000
 49
-2.000000
 49
4.000000
 49
-2.000000
  0
LTYPE
  2
SBK1
 70
    64
  3
______ _ _ _ ______ _ _ _ ______ _ _ _ _____  
 72
    65
 73
     8
 40
60.500000
 49
45.000000
 49
-2.000000
 49
2.500000
 49
-2.000000
 49
2.500000
 49
-2.000000
 49
2.500000
 49
-2.000000
  0
LTYPE
  2
SBK2
 70
    64
  3
______ _ _ _ ______ _ _ _ ______ _ _ _ _____  
 72
    65
 73
     8
 40
84.000000
 49
64.000000
 49
-2.000000
 49
4.000000
 49
-2.000000
 49
4.000000
 49
-2.000000
 49
4.000000
 49
-2.000000
  0
LTYPE
  2
STCH
 70
    64
  3
__ __ __ __ __ __ __ __ __ __ __ __ __ __ __
 72
    65
 73
     2
 40
3.000000
 49
1.000000
 49
-2.000000
  0
LTYPE
  2
MTCH
 70
    64
  3
_____ _ _ _____ _ _ _____ _ _ _____ _ _ ____  
 72
    65
 73
     6
 40
80.000000
 49
66.000000
 49
-2.000000
 49
4.000000
 49
-2.000000
 49
4.000000
 49
-2.000000
  0
ENDTAB
  0
TABLE
  2
LAYER
 70
     1
  0
LAYER
  2
0
 70
     0
 62
     7
  6
CONTINUOUS
  0
ENDTAB
  0
TABLE
  2
STYLE
 70
     1
  0
STYLE
  2
STANDARD
 70
     0
 40
0.000000
 41
1.000000
 50
0.000000
 71
     0
 42
0.200000
  3
txt
  4
BIGFONT
  0
ENDTAB
  0
TABLE
  2
VIEW
 70
     0
  0
ENDTAB
  0
ENDSEC
  0
SECTION
  2
BLOCKS
  0
ENDSEC
  0
SECTION
  2
ENTITIES
  0
LINE
  8
0
 10
-21.999996
 20
5.000000
 11
-17.000004
 21
5.000000
  0
LINE
  8
0
  6
CENTER
 62
     2
 10
-43.513737
 20
69.999992
 11
-13.295452
 21
69.999992
  0
LINE
  8
0
 10
-21.999996
 20
88.000031
 11
-21.999996
 21
-58.000031
  0
LINE
  8
0
 10
-21.999996
 20
-52.500015
 11
-17.000004
 21
-52.500015
  0
LINE
  8
0
 10
-21.999996
 20
-27.500011
 11
-17.000004
 21
-27.500011
  0
LINE
  8
0
 10
-39.000034
 20
89.000008
 11
-23.000019
 21
89.000008
  0
LINE
  8
0
 10
-39.000034
 20
-59.000000
 11
-23.000019
 21
-59.000000
  0
LINE
  8
0
 10
-40.000000
 20
87.999977
 11
-40.000000
 21
-58.000031
  0
LINE
  8
0
 10
-21.999996
 20
25.000000
 11
-17.000004
 21
25.000000
  0
LINE
  8
0
 10
-21.999996
 20
10.641098
 11
-20.000050
 21
10.641098
  0
LINE
  8
0
 10
-20.000004
 20
10.641087
 11
-20.000004
 21
19.358921
  0
LINE
  8
0
 10
-21.999994
 20
16.452944
 11
-20.000002
 21
10.641100
  0
LINE
  8
0
 10
-20.000006
 20
19.359060
 11
-22.000067
 21
13.547020
  0
LINE
  8
0
  6
CENTER
 62
     2
 10
-42.952763
 20
-40.000000
 11
-14.623867
 21
-40.000000
  0
LINE
  8
0
 10
-39.000107
 20
89.000107
 11
-40.000107
 21
88.000107
  0
LINE
  8
0
 10
-22.999987
 20
89.000046
 11
-22.000017
 21
88.000069
  0
LINE
  8
0
 10
-39.999935
 20
-57.999924
 11
-38.999939
 21
-58.999916
  0
LINE
  8
0
 10
-22.000061
 20
-57.999966
 11
-23.000061
 21
-58.999966
  0
LINE
  8
0
 10
-16.499996
 20
89.999985
 11
39.499992
 21
89.999985
  0
LINE
  8
0
 10
-17.000004
 20
25.399998
 11
40.000000
 21
25.399998
  0
LINE
  8
0
 10
-17.000004
 20
28.599987
 11
40.000000
 21
28.599987
  0
LINE
  8
0
 10
-17.000004
 20
87.000015
 11
40.000000
 21
87.000015
  0
LINE
  8
0
  6
CENTER
 62
     2
 10
2.047241
 20
48.000000
 11
19.697201
 21
48.000000
  0
LINE
  8
0
  6
CENTER
 62
     2
 10
11.000008
 20
56.613144
 11
11.000008
 21
39.280861
  0
LINE
  8
0
 10
-17.000004
 20
36.999992
 11
40.000000
 21
36.999992
  0
LINE
  8
0
 10
-17.000004
 20
35.999977
 11
40.000000
 21
35.999977
  0
LINE
  8
0
 10
-17.000004
 20
67.650017
 11
40.000000
 21
67.650017
  0
LINE
  8
0
 10
-17.000004
 20
62.349983
 11
40.000000
 21
62.349983
  0
LINE
  8
0
 10
39.499943
 20
89.999924
 11
39.999939
 21
89.499947
  0
LINE
  8
0
 10
-16.500072
 20
90.000076
 11
-17.000074
 21
89.500099
  0
LINE
  8
0
 10
-21.999996
 20
19.358921
 11
-20.000004
 21
19.358921
  0
LINE
  8
0
  6
DASHED
 62
     2
 10
78.999977
 20
-27.999985
 11
78.999977
 21
-52.000000
  0
LINE
  8
0
  6
DASHED
 62
     2
 10
39.999977
 20
-27.500000
 11
78.499985
 21
-27.500000
  0
LINE
  8
0
  6
DASHED
 62
     2
 10
39.999977
 20
-52.500000
 11
78.499985
 21
-52.500000
  0
LINE
  8
0
  6
DASHED
 62
     2
 10
78.500000
 20
-27.500006
 11
78.999992
 21
-27.999992
  0
LINE
  8
0
  6
DASHED
 62
     2
 10
78.999954
 20
-51.999981
 11
78.499954
 21
-52.499985
  0
LINE
  8
0
  6
DASHED
 62
     2
 10
78.499985
 20
-27.500000
 11
78.499985
 21
-52.500000
  0
LINE
  8
0
  6
DASHED
 62
     2
 10
78.999977
 20
82.000008
 11
78.999977
 21
57.999992
  0
LINE
  8
0
  6
DASHED
 62
     2
 10
39.999977
 20
82.499992
 11
78.499985
 21
82.499992
  0
LINE
  8
0
  6
DASHED
 62
     2
 10
39.999977
 20
57.499992
 11
78.499985
 21
57.499992
  0
LINE
  8
0
  6
DASHED
 62
     2
 10
78.500023
 20
82.500023
 11
79.000015
 21
82.000038
  0
LINE
  8
0
  6
DASHED
 62
     2
 10
78.999962
 20
57.999973
 11
78.499977
 21
57.499981
  0
LINE
  8
0
  6
DASHED
 62
     2
 10
78.499985
 20
82.499992
 11
78.499985
 21
57.499992
  0
LINE
  8
0
  6
CENTER
 62
     2
 10
-43.462940
 20
15.000000
 11
42.621033
 21
15.000000
  0
LINE
  8
0
 10
-21.999996
 20
82.499992
 11
-17.000004
 21
82.499992
  0
LINE
  8
0
 10
-21.999996
 20
57.499992
 11
-17.000004
 21
57.499992
  0
LINE
  8
0
  6
CENTER
 62
     2
 10
-8.999994
 20
56.613144
 11
-8.999994
 21
39.280861
  0
LINE
  8
0
  6
CENTER
 62
     2
 10
-17.952763
 20
48.000000
 11
-0.302803
 21
48.000000
  0
LINE
  8
0
 10
-17.000004
 20
89.500061
 11
-17.000004
 21
-59.499969
  0
LINE
  8
0
 10
-16.499985
 20
-60.000000
 11
39.500000
 21
-60.000000
  0
LINE
  8
0
 10
-16.999992
 20
-56.999992
 11
39.999992
 21
-56.999992
  0
LINE
  8
0
  6
CENTER
 62
     2
 10
1.909004
 20
-18.000008
 11
19.617245
 21
-18.000008
  0
LINE
  8
0
 10
39.999992
 20
89.500015
 11
39.999992
 21
-59.499969
  0
LINE
  8
0
  6
CENTER
 62
     2
 10
-17.952751
 20
-18.000008
 11
-0.302780
 21
-18.000008
  0
LINE
  8
0
  6
CENTER
 62
     2
 10
-8.999973
 20
-9.386814
 11
-8.999973
 21
-26.719143
  0
LINE
  8
0
  6
CENTER
 62
     2
 10
11.000008
 20
-9.386814
 11
11.000008
 21
-27.046181
  0
LINE
  8
0
  6
CENTER
 62
     2
 10
33.978539
 20
-37.499992
 11
17.114124
 21
-37.499992
  0
LINE
  8
0
 10
-16.999992
 20
-6.999992
 11
39.999992
 21
-6.999992
  0
LINE
  8
0
 10
-16.999992
 20
-5.999994
 11
39.999992
 21
-5.999994
  0
LINE
  8
0
 10
-16.999992
 20
1.399994
 11
39.999992
 21
1.399994
  0
LINE
  8
0
 10
-16.999992
 20
4.600002
 11
39.999992
 21
4.600002
  0
LINE
  8
0
  6
DASHED
 62
     2
 10
-1.299748
 20
-58.999790
 11
-0.299769
 21
-59.999771
  0
LINE
  8
0
  6
DASHED
 62
     2
 10
-13.699723
 20
-60.000019
 11
-12.699721
 21
-59.000019
  0
LINE
  8
0
  6
DASHED
 62
     2
 10
-1.299973
 20
-59.000000
 11
-12.700001
 21
-59.000000
  0
LINE
  8
0
  6
DASHED
 62
     2
 10
-12.699989
 20
-55.126099
 11
-12.699989
 21
-58.999962
  0
LINE
  8
0
  6
DASHED
 62
     2
 10
-13.422601
 20
-55.126106
 11
-13.546194
 21
-59.845905
  0
LINE
  8
0
  6
DASHED
 62
     2
 10
-1.299973
 20
-55.126099
 11
-1.299973
 21
-58.999962
  0
LINE
  8
0
  6
DASHED
 62
     2
 10
-0.577746
 20
-55.126099
 11
-0.450119
 21
-60.000008
  0
LINE
  8
0
  6
CENTER
 62
     2
 10
8.999992
 20
-53.970673
 11
8.999992
 21
-61.385651
  0
LINE
  8
0
  6
DASHED
 62
     2
 10
14.700233
 20
-58.999691
 11
15.700214
 21
-59.999672
  0
LINE
  8
0
  6
DASHED
 62
     2
 10
2.300151
 20
-60.000072
 11
3.300149
 21
-59.000076
  0
LINE
  8
0
  6
DASHED
 62
     2
 10
14.700012
 20
-59.000000
 11
3.299988
 21
-59.000000
  0
LINE
  8
0
  6
DASHED
 62
     2
 10
3.299988
 20
-55.126099
 11
3.299988
 21
-58.999962
  0
LINE
  8
0
  6
DASHED
 62
     2
 10
2.577492
 20
-55.126102
 11
2.453898
 21
-59.845955
  0
LINE
  8
0
  6
DASHED
 62
     2
 10
14.700024
 20
-55.126099
 11
14.700024
 21
-58.999962
  0
LINE
  8
0
  6
DASHED
 62
     2
 10
15.422361
 20
-55.126102
 11
15.549990
 21
-60.000027
  0
LINE
  8
0
  6
CENTER
 62
     2
 10
25.000015
 20
-29.321606
 11
25.000015
 21
-47.010498
  0
LINE
  8
0
 10
40.000061
 20
-59.500042
 11
39.500072
 21
-60.000034
  0
LINE
  8
0
 10
-16.999878
 20
-59.499840
 11
-16.499874
 21
-59.999840
  0
LINE
  8
0
  6
CENTER
 62
     2
 10
-6.999981
 20
-53.681816
 11
-6.999981
 21
-61.535706
  0
LINE
  8
0
  6
CENTER
 62
     2
 10
6.194489
 20
-37.499992
 11
-9.216179
 21
-37.499992
  0
LINE
  8
0
  6
CENTER
 62
     2
 10
-1.499969
 20
-29.225319
 11
-1.499969
 21
-46.864952
  0
LINE
  8
0
  6
PHANTOM
 62
     3
 10
1.749996
 20
-51.393753
 11
1.749996
 21
-70.000000
  0
LINE
  8
0
  6
PHANTOM
 62
     3
 10
15.437496
 20
-28.393749
 11
15.437496
 21
-51.393753
  0
LINE
  8
0
  6
PHANTOM
 62
     3
 10
1.749996
 20
-51.393753
 11
15.437496
 21
-51.393753
  0
LINE
  8
0
  6
PHANTOM
 62
     3
 10
0.624992
 20
119.999985
 11
0.624992
 21
-28.393749
  0
LINE
  8
0
  6
PHANTOM
 62
     3
 10
28.343742
 20
107.999985
 11
28.343742
 21
-28.393749
  0
LINE
  8
0
  6
PHANTOM
 62
     3
 10
15.437496
 20
-28.393749
 11
28.343742
 21
-28.393749
  0
LINE
  8
0
  6
PHANTOM
 62
     3
 10
0.624992
 20
-28.393749
 11
7.249996
 21
-28.393749
  0
LINE
  8
0
  6
PHANTOM
 62
     3
 10
7.249996
 20
-28.393749
 11
7.249996
 21
-48.393749
  0
LINE
  8
0
  6
PHANTOM
 62
     3
 10
0.249996
 20
-48.393749
 11
0.249996
 21
-70.000000
  0
LINE
  8
0
  6
PHANTOM
 62
     3
 10
0.249996
 20
-48.393749
 11
7.249996
 21
-48.393749
  0
LINE
  8
0
 10
160.000000
 20
-60.000000
 11
220.000000
 21
-60.000000
  0
LINE
  8
0
  6
CENTER
 62
     2
 10
172.093140
 20
70.000000
 11
206.575851
 21
70.000000
  0
LINE
  8
0
  6
CENTER
 62
     2
 10
172.636703
 20
-40.000000
 11
206.575851
 21
-40.000000
  0
LINE
  8
0
 10
160.000092
 20
89.999954
 11
157.000076
 21
86.999947
  0
LINE
  8
0
 10
219.999786
 20
89.999825
 11
222.999786
 21
86.999817
  0
LINE
  8
0
 10
223.000122
 20
-57.000145
 11
220.000137
 21
-60.000145
  0
LINE
  8
0
 10
157.000000
 20
-6.999947
 11
157.000000
 21
-56.999992
  0
LINE
  8
0
 10
222.999985
 20
-6.999990
 11
222.999985
 21
-30.850002
  0
LINE
  8
0
 10
222.999985
 20
-39.149998
 11
222.999985
 21
-57.000076
  0
LINE
  8
0
 10
159.000000
 20
25.799999
 11
159.500000
 21
25.799999
  0
LINE
  8
0
 10
159.500031
 20
25.800024
 11
160.000015
 21
25.300032
  0
LINE
  8
0
 10
160.000000
 20
25.299988
 11
161.600006
 21
25.299988
  0
LINE
  8
0
 10
160.000000
 20
29.499992
 11
161.600006
 21
29.499992
  0
LINE
  8
0
 10
159.499939
 20
29.000050
 11
159.999924
 21
29.500042
  0
LINE
  8
0
 10
159.000000
 20
28.999985
 11
159.500000
 21
28.999985
  0
LINE
  8
0
 10
158.999924
 20
34.999889
 11
156.999924
 21
36.999874
  0
LINE
  8
0
 10
158.999985
 20
35.000000
 11
158.999985
 21
-5.000072
  0
LINE
  8
0
 10
159.000000
 20
4.200005
 11
159.500000
 21
4.200005
  0
LINE
  8
0
 10
159.499939
 20
4.199981
 11
159.999924
 21
4.699974
  0
LINE
  8
0
 10
160.000000
 20
4.700012
 11
161.600006
 21
4.700012
  0
LINE
  8
0
 10
160.000000
 20
0.500010
 11
161.600021
 21
0.500010
  0
LINE
  8
0
 10
159.499969
 20
0.999981
 11
159.999969
 21
0.499991
  0
LINE
  8
0
 10
159.000000
 20
1.000017
 11
159.500000
 21
1.000017
  0
LINE
  8
0
 10
221.000015
 20
25.799999
 11
220.500015
 21
25.799999
  0
LINE
  8
0
 10
220.500122
 20
25.799927
 11
220.000092
 21
25.299896
  0
LINE
  8
0
 10
220.000000
 20
25.299988
 11
218.400009
 21
25.299988
  0
LINE
  8
0
 10
220.000000
 20
29.499992
 11
218.400009
 21
29.499992
  0
LINE
  8
0
 10
220.500259
 20
29.000210
 11
220.000244
 21
29.500219
  0
LINE
  8
0
 10
221.000015
 20
28.999985
 11
220.500015
 21
28.999985
  0
LINE
  8
0
 10
221.000015
 20
4.200005
 11
220.500015
 21
4.200005
  0
LINE
  8
0
 10
220.500229
 20
4.200137
 11
220.000229
 21
4.700122
  0
LINE
  8
0
 10
220.000000
 20
4.700012
 11
218.400009
 21
4.700012
  0
LINE
  8
0
 10
220.000000
 20
0.500010
 11
218.400009
 21
0.500010
  0
LINE
  8
0
 10
220.500153
 20
0.999831
 11
220.000153
 21
0.499830
  0
LINE
  8
0
 10
221.000015
 20
1.000017
 11
220.500015
 21
1.000017
  0
LINE
  8
0
 10
159.000015
 20
-5.000025
 11
157.087311
 21
-6.912709
  0
LINE
  8
0
 10
220.999924
 20
35.000034
 11
222.912613
 21
36.912712
  0
LINE
  8
0
 10
220.999985
 20
35.000000
 11
220.999985
 21
-5.000034
  0
LINE
  8
0
 10
220.999985
 20
-30.850002
 11
220.999985
 21
-39.149998
  0
LINE
  8
0
 10
220.999878
 20
-5.000034
 11
222.912613
 21
-6.912751
  0
LINE
  8
0
 10
211.500015
 20
-28.350002
 11
218.500015
 21
-28.350002
  0
LINE
  8
0
 10
218.499985
 20
-28.350002
 11
218.499985
 21
-30.850002
  0
LINE
  8
0
 10
218.500015
 20
-30.850002
 11
223.000015
 21
-30.850002
  0
LINE
  8
0
 10
218.500015
 20
-39.149998
 11
223.000015
 21
-39.149998
  0
LINE
  8
0
 10
218.499985
 20
-39.149998
 11
218.499985
 21
-41.649998
  0
LINE
  8
0
 10
211.499985
 20
-28.350002
 11
211.499985
 21
-41.649998
  0
LINE
  8
0
 10
211.500015
 20
-41.649998
 11
218.500015
 21
-41.649998
  0
LINE
  8
0
  6
CENTER
 62
     2
 10
160.897919
 20
-50.000008
 11
175.052628
 21
-50.000008
  0
LINE
  8
0
  6
CENTER
 62
     2
 10
211.999969
 20
-43.000015
 11
211.999969
 21
-57.000000
  0
LINE
  8
0
 10
160.000000
 20
89.999985
 11
220.000000
 21
89.999985
  0
LINE
  8
0
 10
157.000061
 20
-57.000023
 11
160.000092
 21
-60.000034
  0
LINE
  8
0
 10
168.000015
 20
-46.730827
 11
168.000015
 21
-61.042786
  0
LINE
  8
0
 10
191.499985
 20
89.999985
 11
191.499985
 21
83.919395
  0
LINE
  8
0
 10
188.499969
 20
89.999985
 11
188.499969
 21
83.919395
  0
LINE
  8
0
 10
159.000000
 20
67.650017
 11
159.000000
 21
62.349983
  0
LINE
  8
0
 10
221.000000
 20
69.150002
 11
221.000000
 21
60.850006
  0
LINE
  8
0
 10
157.000000
 20
87.000015
 11
157.000000
 21
67.650017
  0
LINE
  8
0
 10
157.000000
 20
67.650017
 11
160.000000
 21
67.650017
  0
LINE
  8
0
 10
159.999985
 20
69.150002
 11
159.999985
 21
67.649971
  0
LINE
  8
0
 10
164.500000
 20
69.150002
 11
164.500000
 21
60.849998
  0
LINE
  8
0
 10
159.999985
 20
62.349983
 11
159.999985
 21
60.849998
  0
LINE
  8
0
 10
157.000000
 20
62.349983
 11
160.000000
 21
62.349983
  0
LINE
  8
0
 10
157.000000
 20
62.349983
 11
157.000000
 21
36.999992
  0
LINE
  8
0
 10
222.999985
 20
69.150002
 11
222.999985
 21
87.000099
  0
LINE
  8
0
 10
218.500015
 20
69.150002
 11
223.000015
 21
69.150002
  0
LINE
  8
0
 10
218.499985
 20
69.150002
 11
218.499985
 21
71.650002
  0
LINE
  8
0
 10
211.500015
 20
71.650002
 11
218.500015
 21
71.650002
  0
LINE
  8
0
 10
211.499985
 20
58.350006
 11
211.499985
 21
71.650002
  0
LINE
  8
0
 10
211.500015
 20
58.350006
 11
218.500015
 21
58.350006
  0
LINE
  8
0
 10
218.500015
 20
60.850006
 11
223.000015
 21
60.850006
  0
LINE
  8
0
 10
218.499985
 20
58.350006
 11
218.499985
 21
60.850006
  0
LINE
  8
0
 10
222.999985
 20
36.999992
 11
222.999985
 21
60.850006
  0
LINE
  8
0
  6
CENTER
 62
     2
 10
160.857239
 20
80.000015
 11
175.296188
 21
80.000015
  0
LINE
  8
0
  6
CENTER
 62
     2
 10
211.999969
 20
87.550980
 11
211.999969
 21
72.630173
  0
LINE
  8
0
  6
CENTER
 62
     2
 10
204.536316
 20
80.000015
 11
219.457123
 21
80.000015
  0
LINE
  8
0
  6
CENTER
 62
     2
 10
168.000031
 20
87.161736
 11
168.000031
 21
72.889671
  0
LINE
  8
0
  6
CENTER
 62
     2
 10
204.680786
 20
-50.000008
 11
219.187164
 21
-50.000008
  0
LINE
  8
0
  6
DASHED
 62
     2
 10
161.577728
 20
-55.126099
 11
161.454132
 21
-59.845943
  0
LINE
  8
0
  6
DASHED
 62
     2
 10
161.299911
 20
-59.999889
 11
162.299896
 21
-58.999893
  0
LINE
  8
0
  6
DASHED
 62
     2
 10
162.300018
 20
-55.126099
 11
162.300018
 21
-58.999985
  0
LINE
  8
0
  6
DASHED
 62
     2
 10
173.700012
 20
-58.999985
 11
162.300018
 21
-58.999985
  0
LINE
  8
0
  6
DASHED
 62
     2
 10
173.699936
 20
-59.000027
 11
174.699921
 21
-60.000015
  0
LINE
  8
0
  6
DASHED
 62
     2
 10
174.422470
 20
-55.126099
 11
174.550095
 21
-60.000019
  0
LINE
  8
0
  6
DASHED
 62
     2
 10
173.699997
 20
-55.126099
 11
173.699997
 21
-58.999985
  0
LINE
  8
0
  6
CENTER
 62
     2
 10
168.000031
 20
-43.566154
 11
168.000031
 21
-57.000000
  0
LINE
  8
0
  6
CENTER
 62
     2
 10
190.000000
 20
95.122467
 11
190.000000
 21
-63.631805
  0
LINE
  8
0
  6
CENTER
 62
     2
 10
154.792831
 20
15.000000
 11
225.839310
 21
15.000000
  0
LINE
  8
0
  6
CENTER
 62
     2
 10
173.997787
 20
-37.500000
 11
167.010513
 21
-37.500000
  0
LINE
  8
0
  6
CENTER
 62
     2
 10
170.500015
 20
-34.029388
 11
170.500015
 21
-41.016647
  0
LINE
  8
0
  6
CENTER
 62
     2
 10
208.438049
 20
-35.000000
 11
218.500015
 21
-35.000000
  0
LINE
  8
0
  6
CENTER
 62
     2
 10
208.829971
 20
65.000000
 11
218.500015
 21
65.000000
  0
LINE
  8
0
  6
CENTER
 62
     2
 10
160.000000
 20
65.000000
 11
167.172165
 21
65.000000
  0
LINE
  8
0
 10
188.500000
 20
-53.919411
 11
188.500000
 21
-60.000000
  0
LINE
  8
0
 10
191.500015
 20
-53.919411
 11
191.500015
 21
-60.000000
  0
LINE
  8
0
 10
160.000000
 20
60.849998
 11
164.500000
 21
60.849998
  0
LINE
  8
0
 10
160.000000
 20
69.150002
 11
164.500000
 21
69.150002
  0
LINE
  8
0
  6
CENTER
 62
     2
 10
-190.000000
 20
-64.273247
 11
-190.000000
 21
94.999985
  0
LINE
  8
0
 10
-160.000000
 20
89.999985
 11
-220.000000
 21
89.999985
  0
LINE
  8
0
 10
-160.000000
 20
-60.000000
 11
-220.000000
 21
-60.000000
  0
LINE
  8
0
 10
-157.000000
 20
87.000015
 11
-157.000000
 21
67.650017
  0
LINE
  8
0
 10
-160.000107
 20
89.999969
 11
-157.000076
 21
86.999947
  0
LINE
  8
0
 10
-219.999725
 20
89.999870
 11
-222.999741
 21
86.999863
  0
LINE
  8
0
 10
-223.000275
 20
-57.000134
 11
-220.000259
 21
-60.000145
  0
LINE
  8
0
 10
-157.000000
 20
-6.999947
 11
-157.000000
 21
-56.999992
  0
LINE
  8
0
  6
CENTER
 62
     2
 10
-226.542496
 20
15.000000
 11
-153.749695
 21
15.000000
  0
LINE
  8
0
 10
-223.000015
 20
-6.999990
 11
-223.000015
 21
-30.850002
  0
LINE
  8
0
 10
-157.000137
 20
-56.999950
 11
-160.000107
 21
-59.999924
  0
LINE
  8
0
 10
-223.000015
 20
-39.149998
 11
-223.000015
 21
-57.000076
  0
LINE
  8
0
 10
-223.000015
 20
69.150002
 11
-223.000015
 21
87.000099
  0
LINE
  8
0
 10
-223.000015
 20
36.999992
 11
-223.000015
 21
60.850006
  0
LINE
  8
0
 10
-158.999939
 20
34.999939
 11
-156.999939
 21
36.999924
  0
LINE
  8
0
 10
-159.000031
 20
35.000000
 11
-159.000031
 21
28.999985
  0
LINE
  8
0
 10
-159.000031
 20
25.799999
 11
-159.000031
 21
4.200005
  0
LINE
  8
0
 10
-159.000031
 20
1.000017
 11
-159.000031
 21
-5.000000
  0
LINE
  8
0
 10
-159.000092
 20
-4.999962
 11
-157.087402
 21
-6.912657
  0
LINE
  8
0
 10
-220.999954
 20
34.999939
 11
-222.912643
 21
36.912613
  0
LINE
  8
0
 10
-220.999985
 20
35.000000
 11
-220.999985
 21
28.999985
  0
LINE
  8
0
 10
-220.999985
 20
25.799999
 11
-220.999985
 21
4.200005
  0
LINE
  8
0
 10
-220.999985
 20
1.000017
 11
-220.999985
 21
-4.999956
  0
LINE
  8
0
 10
-221.000031
 20
-4.999948
 11
-222.912766
 21
-6.912665
  0
LINE
  8
0
 10
-221.000000
 20
60.850006
 11
-223.000015
 21
60.850006
  0
LINE
  8
0
 10
-221.000000
 20
69.150002
 11
-223.000015
 21
69.150002
  0
LINE
  8
0
 10
-157.000000
 20
67.650017
 11
-159.000015
 21
67.650017
  0
LINE
  8
0
 10
-157.000000
 20
62.349983
 11
-159.000015
 21
62.349983
  0
LINE
  8
0
 10
-157.000000
 20
62.349983
 11
-157.000000
 21
36.999992
  0
LINE
  8
0
 10
-221.000000
 20
-30.850002
 11
-223.000015
 21
-30.850002
  0
LINE
  8
0
 10
-221.000000
 20
-39.149998
 11
-223.000015
 21
-39.149998
  0
LINE
  8
0
 10
-220.000000
 20
-59.000000
 11
-160.000000
 21
-59.000000
  0
LINE
  8
0
 10
-220.000000
 20
89.000008
 11
-160.000000
 21
89.000008
  0
LINE
  8
0
 10
-219.999969
 20
88.999931
 11
-220.999969
 21
87.999931
  0
LINE
  8
0
 10
-220.999924
 20
-57.999969
 11
-219.999908
 21
-58.999969
  0
LINE
  8
0
 10
-159.000046
 20
-57.999947
 11
-160.000046
 21
-58.999950
  0
LINE
  8
0
 10
-159.999893
 20
89.000038
 11
-158.999893
 21
88.000031
  0
LINE
  8
0
  6
CENTER
 62
     2
 10
-211.000000
 20
-53.232483
 11
-211.000000
 21
-36.634609
  0
LINE
  8
0
  6
CENTER
 62
     2
 10
-202.751083
 20
-45.000000
 11
-218.242172
 21
-45.000000
  0
LINE
  8
0
 10
-190.000000
 20
-36.535927
 11
-193.000000
 21
-38.267979
  0
LINE
  8
0
 10
-193.000015
 20
-38.267952
 11
-193.000015
 21
-41.732048
  0
LINE
  8
0
 10
-190.000015
 20
-43.464054
 11
-193.000031
 21
-41.731995
  0
LINE
  8
0
 10
-186.999969
 20
-41.732048
 11
-189.999985
 21
-43.464119
  0
LINE
  8
0
 10
-187.000000
 20
-38.267952
 11
-187.000000
 21
-41.732048
  0
LINE
  8
0
 10
-190.000000
 20
-36.535873
 11
-186.999969
 21
-38.267944
  0
LINE
  8
0
 10
-189.999969
 20
73.464081
 11
-192.999985
 21
71.732025
  0
LINE
  8
0
 10
-193.000015
 20
71.732048
 11
-193.000015
 21
68.267952
  0
LINE
  8
0
 10
-190.000031
 20
66.535927
 11
-193.000031
 21
68.267975
  0
LINE
  8
0
 10
-186.999969
 20
68.267944
 11
-189.999969
 21
66.535889
  0
LINE
  8
0
 10
-187.000000
 20
71.732048
 11
-187.000000
 21
68.267952
  0
LINE
  8
0
 10
-190.000000
 20
73.464127
 11
-187.000000
 21
71.732071
  0
LINE
  8
0
 10
-189.999985
 20
18.464117
 11
-193.000015
 21
16.732050
  0
LINE
  8
0
 10
-193.000015
 20
16.732048
 11
-193.000015
 21
13.267956
  0
LINE
  8
0
 10
-190.000015
 20
11.535928
 11
-193.000015
 21
13.267980
  0
LINE
  8
0
 10
-186.999969
 20
13.267930
 11
-189.999985
 21
11.535869
  0
LINE
  8
0
 10
-187.000000
 20
16.732048
 11
-187.000000
 21
13.267956
  0
LINE
  8
0
 10
-190.000015
 20
18.464146
 11
-187.000015
 21
16.732084
  0
LINE
  8
0
 10
-221.000000
 20
88.000000
 11
-221.000000
 21
-58.000000
  0
LINE
  8
0
 10
-159.000015
 20
87.999992
 11
-159.000015
 21
-58.000000
  0
LINE
  8
0
  6
CENTER
 62
     2
 10
-211.000000
 20
83.232491
 11
-211.000000
 21
66.634613
  0
LINE
  8
0
  6
CENTER
 62
     2
 10
-202.751083
 20
75.000000
 11
-218.242172
 21
75.000000
  0
LINE
  8
0
  6
CENTER
 62
     2
 10
-169.000015
 20
-53.232483
 11
-169.000015
 21
-36.634609
  0
LINE
  8
0
  6
CENTER
 62
     2
 10
-177.248932
 20
-45.000000
 11
-161.757843
 21
-45.000000
  0
LINE
  8
0
  6
CENTER
 62
     2
 10
-169.000015
 20
83.232491
 11
-169.000015
 21
66.634613
  0
LINE
  8
0
  6
CENTER
 62
     2
 10
-177.248932
 20
75.000000
 11
-161.757843
 21
75.000000
  0
LINE
  8
0
  6
CENTER
 62
     2
 10
-202.058701
 20
70.000000
 11
-178.002960
 21
70.000000
  0
LINE
  8
0
  6
CENTER
 62
     2
 10
-202.058701
 20
-40.000000
 11
-178.002960
 21
-40.000000
  0
LINE
  8
0
 10
-281.250000
 20
195.500000
 11
282.099976
 21
195.500000
  0
LINE
  8
0
 10
-281.250000
 20
195.500000
 11
-281.250000
 21
-195.000000
  0
LINE
  8
0
 10
282.099976
 20
195.500000
 11
282.099976
 21
-195.000000
  0
LINE
  8
0
 10
-281.250000
 20
-195.000000
 11
282.099976
 21
-195.000000
  0
LINE
  8
0
 10
162.099976
 20
-175.000000
 11
162.099976
 21
-195.000000
  0
LINE
  8
0
 10
162.099976
 20
-175.000000
 11
282.099976
 21
-175.000000
  0
LINE
  8
0
 10
162.099976
 20
175.500000
 11
282.099976
 21
175.500000
  0
LINE
  8
0
 10
-281.250000
 20
175.500000
 11
-121.250000
 21
175.500000
  0
LINE
  8
0
 10
162.099976
 20
195.500000
 11
162.099976
 21
175.500000
  0
LINE
  8
0
 10
-121.250000
 20
195.500000
 11
-121.250000
 21
175.500000
  0
LINE
  8
0
 10
-271.250000
 20
-185.000000
 11
-31.250000
 21
-185.000000
  0
LINE
  8
0
 10
-271.250000
 20
-144.000000
 11
-271.250000
 21
-185.000000
  0
LINE
  8
0
 10
-231.250000
 20
-144.000000
 11
-231.250000
 21
-185.000000
  0
LINE
  8
0
 10
-271.250000
 20
-151.000000
 11
-235.001297
 21
-151.000000
  0
LINE
  8
0
 10
-271.250000
 20
-165.000000
 11
-31.250000
 21
-165.000000
  0
LINE
  8
0
 10
-271.250000
 20
-144.000000
 11
-31.250000
 21
-144.000000
  0
LINE
  8
0
 10
-231.250015
 20
-165.000015
 11
-235.001312
 21
-151.000000
  0
LINE
  8
0
 10
-211.250000
 20
-144.000000
 11
-211.250000
 21
-185.000000
  0
LINE
  8
0
 10
-191.250000
 20
-144.000000
 11
-191.250000
 21
-185.000000
  0
LINE
  8
0
 10
-171.250000
 20
-144.000000
 11
-171.250000
 21
-185.000000
  0
LINE
  8
0
 10
-151.250000
 20
-144.000000
 11
-151.250000
 21
-185.000000
  0
LINE
  8
0
 10
-131.250000
 20
-144.000000
 11
-131.250000
 21
-185.000000
  0
LINE
  8
0
 10
-111.250000
 20
-144.000000
 11
-111.250000
 21
-185.000000
  0
LINE
  8
0
 10
-271.250000
 20
-175.000000
 11
-31.250000
 21
-175.000000
  0
LINE
  8
0
 10
-91.250000
 20
-144.000000
 11
-91.250000
 21
-185.000000
  0
LINE
  8
0
 10
-71.250000
 20
-144.000000
 11
-71.250000
 21
-185.000000
  0
LINE
  8
0
 10
-51.250000
 20
-144.000000
 11
-51.250000
 21
-185.000000
  0
LINE
  8
0
 10
-31.250000
 20
-144.000000
 11
-31.250000
 21
-185.000000
  0
CIRCLE
  8
0
 10
-1.499969
 20
-37.499992
 40
5.750000
  0
ARC
  8
0
 10
-28.999989
 20
15.000000
 40
9.999995
 50
334.158081
 51
25.842075
  0
CIRCLE
  8
0
 10
-8.999994
 20
48.000008
 40
7.000000
  0
CIRCLE
  8
0
  6
DASHED
 62
     2
 10
-8.999994
 20
48.000008
 40
5.000000
  0
CIRCLE
  8
0
 10
-8.999994
 20
48.000008
 40
4.300000
  0
CIRCLE
  8
0
 10
10.999996
 20
48.000008
 40
7.000000
  0
CIRCLE
  8
0
 10
10.999996
 20
48.000008
 40
4.300000
  0
CIRCLE
  8
0
  6
DASHED
 62
     2
 10
10.999996
 20
48.000008
 40
5.000000
  0
CIRCLE
  8
0
 10
11.000008
 20
-18.000008
 40
4.300000
  0
CIRCLE
  8
0
 10
-8.999973
 20
-18.000008
 40
7.000000
  0
CIRCLE
  8
0
 10
-8.999973
 20
-18.000008
 40
4.300000
  0
CIRCLE
  8
0
  6
DASHED
 62
     2
 10
-8.999973
 20
-18.000008
 40
5.000000
  0
CIRCLE
  8
0
 10
11.000008
 20
-18.000008
 40
7.000000
  0
CIRCLE
  8
0
  6
DASHED
 62
     2
 10
11.000008
 20
-18.000008
 40
5.000000
  0
CIRCLE
  8
0
 10
25.000015
 20
-37.499992
 40
5.750000
  0
CIRCLE
  8
0
 62
     2
 10
-1.499969
 20
-37.499992
 40
6.600000
  0
CIRCLE
  8
0
 62
     2
 10
25.000015
 20
-37.499992
 40
6.600000
  0
CIRCLE
  8
0
 10
190.000000
 20
-40.000000
 40
14.000001
  0
CIRCLE
  8
0
 10
190.000000
 20
70.000000
 40
14.000001
  0
ARC
  8
0
 10
161.600006
 20
27.399990
 40
2.100000
 50
270.000000
 51
90.000000
  0
ARC
  8
0
 10
161.600006
 20
2.600012
 40
2.100000
 50
270.000000
 51
90.000000
  0
ARC
  8
0
 10
218.400009
 20
27.399990
 40
2.100000
 50
90.000000
 51
270.000000
  0
ARC
  8
0
 10
218.400009
 20
2.600012
 40
2.100000
 50
90.000000
 51
270.000000
  0
CIRCLE
  8
0
 62
     2
 10
168.000031
 20
-50.000008
 40
5.000000
  0
CIRCLE
  8
0
 10
168.000031
 20
-50.000008
 40
4.250000
  0
CIRCLE
  8
0
 62
     2
 10
211.999969
 20
-50.000008
 40
5.000000
  0
CIRCLE
  8
0
 10
211.999969
 20
-50.000008
 40
4.250000
  0
CIRCLE
  8
0
 62
     2
 10
168.000031
 20
80.000015
 40
5.000000
  0
CIRCLE
  8
0
 10
168.000031
 20
80.000015
 40
4.250000
  0
CIRCLE
  8
0
 62
     2
 10
211.999969
 20
80.000015
 40
5.000000
  0
CIRCLE
  8
0
 10
211.999969
 20
80.000015
 40
4.250000
  0
CIRCLE
  8
0
 10
190.000061
 20
15.000000
 40
25.999998
  0
CIRCLE
  8
0
 10
190.000061
 20
15.000000
 40
19.000000
  0
CIRCLE
  8
0
 10
190.000000
 20
70.000000
 40
12.500000
  0
CIRCLE
  8
0
 10
190.000000
 20
-40.000000
 40
12.500000
  0
CIRCLE
  8
0
 10
170.500015
 20
-37.500000
 40
1.500000
  0
CIRCLE
  8
0
 10
170.500015
 20
-37.500000
 40
2.000000
  0
CIRCLE
  8
0
 10
-190.000000
 20
15.000000
 40
5.600000
  0
CIRCLE
  8
0
 10
-190.000000
 20
15.000000
 40
8.750000
  0
CIRCLE
  8
0
 10
-190.000000
 20
15.000000
 40
10.000000
  0
CIRCLE
  8
0
 10
-190.000000
 20
-40.000000
 40
10.000000
  0
CIRCLE
  8
0
 10
-190.000000
 20
70.000000
 40
10.000000
  0
CIRCLE
  8
0
 62
     2
 10
-211.000000
 20
-45.000000
 40
5.000000
  0
CIRCLE
  8
0
 10
-211.000000
 20
-45.000000
 40
4.250000
  0
CIRCLE
  8
0
 10
-211.000000
 20
75.000000
 40
4.250000
  0
CIRCLE
  8
0
 62
     2
 10
-211.000000
 20
75.000000
 40
5.000000
  0
CIRCLE
  8
0
 10
-169.000015
 20
-45.000000
 40
4.250000
  0
CIRCLE
  8
0
 62
     2
 10
-169.000015
 20
-45.000000
 40
5.000000
  0
CIRCLE
  8
0
 10
-169.000015
 20
75.000000
 40
4.250000
  0
CIRCLE
  8
0
 62
     2
 10
-169.000015
 20
75.000000
 40
5.000000
  0
CIRCLE
  8
0
 10
-190.000000
 20
-40.000000
 40
8.750000
  0
CIRCLE
  8
0
 10
-190.000000
 20
-40.000000
 40
5.600000
  0
CIRCLE
  8
0
 10
-190.000000
 20
70.000000
 40
8.750000
  0
CIRCLE
  8
0
 10
-190.000000
 20
70.000000
 40
5.600000
  0
TEXT
  8
0
 10
196.250259
 20
180.830002
 40
6.300000
  1
Ver. 1.0
 50
0.000000
 41
1.052632
 51
0.000000
  7
STANDARD
  0
TEXT
  8
0
 10
167.564667
 20
-192.100006
 40
9.000000
  1
KOGANEI CORP.
 50
0.000000
 41
1.052632
 51
0.000000
  7
STANDARD
  0
TEXT
  8
0
 10
-274.349731
 20
180.830002
 40
6.300000
  1
JIG CYLINDER WITH GUIDE
 50
0.000000
 41
1.052632
 51
0.000000
  7
STANDARD
  0
TEXT
  8
0
 10
-232.249710
 20
145.830002
 40
6.300000
  1
SGDAF50*ST(10)
 50
0.000000
 41
1.052632
 51
0.000000
  7
STANDARD
  0
TEXT
  8
0
 10
-270.049713
 20
155.830002
 40
6.300000
  1
MODEL:SGDA50*ST(10)
 50
0.000000
 41
1.052632
 51
0.000000
  7
STANDARD
  0
TEXT
  8
0
 10
-226.142654
 20
-157.550003
 40
4.500000
  1
10
 50
0.000000
 41
1.052632
 51
0.000000
  7
STANDARD
  0
TEXT
  8
0
 10
-206.142654
 20
-157.550003
 40
4.500000
  1
20
 50
0.000000
 41
1.052632
 51
0.000000
  7
STANDARD
  0
TEXT
  8
0
 10
-186.142654
 20
-157.550003
 40
4.500000
  1
30
 50
0.000000
 41
1.052632
 51
0.000000
  7
STANDARD
  0
TEXT
  8
0
 10
-166.142654
 20
-157.550003
 40
4.500000
  1
50
 50
0.000000
 41
1.052632
 51
0.000000
  7
STANDARD
  0
TEXT
  8
0
 10
-146.142654
 20
-157.550003
 40
4.500000
  1
75
 50
0.000000
 41
1.052632
 51
0.000000
  7
STANDARD
  0
TEXT
  8
0
 10
-128.392654
 20
-157.550003
 40
4.500000
  1
100
 50
0.000000
 41
1.052632
 51
0.000000
  7
STANDARD
  0
TEXT
  8
0
 10
-265.142670
 20
-150.550003
 40
4.500000
  1
STROKE
 50
0.000000
 41
1.052632
 51
0.000000
  7
STANDARD
  0
TEXT
  8
0
 10
-267.392670
 20
-156.324997
 40
4.500000
  1
STRETCH
 50
0.000000
 41
1.052632
 51
0.000000
  7
STANDARD
  0
TEXT
  8
0
 10
-267.392670
 20
-163.074997
 40
4.500000
  1
  PLACE
 50
0.000000
 41
1.052632
 51
0.000000
  7
STANDARD
  0
TEXT
  8
0
 10
-253.892654
 20
-173.050003
 40
4.500000
  1
A
 50
0.000000
 41
1.052632
 51
0.000000
  7
STANDARD
  0
TEXT
  8
0
 10
-253.892654
 20
-183.050003
 40
4.500000
  1
B
 50
0.000000
 41
1.052632
 51
0.000000
  7
STANDARD
  0
TEXT
  8
0
 10
-168.642654
 20
-142.050003
 40
4.500000
  1
STRETCH LIST
 50
0.000000
 41
1.052632
 51
0.000000
  7
STANDARD
  0
TEXT
  8
0
 10
-50.642658
 20
-144.050003
 40
4.500000
  1
(mm)
 50
0.000000
 41
1.052632
 51
0.000000
  7
STANDARD
  0
TEXT
  8
0
 62
     3
 10
-12.892664
 20
124.199997
 40
4.500000
  1
STRETCH LINE B
 50
0.000000
 41
1.052632
 51
0.000000
  7
STANDARD
  0
TEXT
  8
0
 62
     3
 10
16.357134
 20
111.699997
 40
4.500000
  1
STRETCH LINE A
 50
0.000000
 41
1.052632
 51
0.000000
  7
STANDARD
  0
TEXT
  8
0
 10
-108.392654
 20
-157.550003
 40
4.500000
  1
125
 50
0.000000
 41
1.052632
 51
0.000000
  7
STANDARD
  0
TEXT
  8
0
 10
-88.392654
 20
-157.550003
 40
4.500000
  1
150
 50
0.000000
 41
1.052632
 51
0.000000
  7
STANDARD
  0
TEXT
  8
0
 10
-68.392654
 20
-157.550003
 40
4.500000
  1
175
 50
0.000000
 41
1.052632
 51
0.000000
  7
STANDARD
  0
TEXT
  8
0
 10
-48.392658
 20
-157.550003
 40
4.500000
  1
200
 50
0.000000
 41
1.052632
 51
0.000000
  7
STANDARD
  0
TEXT
  8
0
 10
-206.142654
 20
-183.050003
 40
4.500000
  1
10
 50
0.000000
 41
1.052632
 51
0.000000
  7
STANDARD
  0
TEXT
  8
0
 10
-186.142654
 20
-183.050003
 40
4.500000
  1
20
 50
0.000000
 41
1.052632
 51
0.000000
  7
STANDARD
  0
TEXT
  8
0
 10
-166.142654
 20
-183.050003
 40
4.500000
  1
40
 50
0.000000
 41
1.052632
 51
0.000000
  7
STANDARD
  0
TEXT
  8
0
 10
-146.142654
 20
-183.050003
 40
4.500000
  1
40
 50
0.000000
 41
1.052632
 51
0.000000
  7
STANDARD
  0
TEXT
  8
0
 10
-126.142654
 20
-183.050003
 40
4.500000
  1
40
 50
0.000000
 41
1.052632
 51
0.000000
  7
STANDARD
  0
TEXT
  8
0
 10
-106.142654
 20
-183.050003
 40
4.500000
  1
90
 50
0.000000
 41
1.052632
 51
0.000000
  7
STANDARD
  0
TEXT
  8
0
 10
-86.142654
 20
-183.050003
 40
4.500000
  1
90
 50
0.000000
 41
1.052632
 51
0.000000
  7
STANDARD
  0
TEXT
  8
0
 10
-66.142654
 20
-183.050003
 40
4.500000
  1
90
 50
0.000000
 41
1.052632
 51
0.000000
  7
STANDARD
  0
TEXT
  8
0
 10
-46.142658
 20
-183.050003
 40
4.500000
  1
90
 50
0.000000
 41
1.052632
 51
0.000000
  7
STANDARD
  0
TEXT
  8
0
 10
-223.892654
 20
-183.050003
 40
4.500000
  1
0
 50
0.000000
 41
1.052632
 51
0.000000
  7
STANDARD
  0
TEXT
  8
0
 10
-223.892654
 20
-173.050003
 40
4.500000
  1
0
 50
0.000000
 41
1.052632
 51
0.000000
  7
STANDARD
  0
TEXT
  8
0
 10
-48.392658
 20
-173.050003
 40
4.500000
  1
100
 50
0.000000
 41
1.052632
 51
0.000000
  7
STANDARD
  0
TEXT
  8
0
 10
-66.142654
 20
-173.050003
 40
4.500000
  1
75
 50
0.000000
 41
1.052632
 51
0.000000
  7
STANDARD
  0
TEXT
  8
0
 10
-86.142654
 20
-173.050003
 40
4.500000
  1
50
 50
0.000000
 41
1.052632
 51
0.000000
  7
STANDARD
  0
TEXT
  8
0
 10
-106.142654
 20
-173.050003
 40
4.500000
  1
25
 50
0.000000
 41
1.052632
 51
0.000000
  7
STANDARD
  0
TEXT
  8
0
 10
-126.142654
 20
-173.050003
 40
4.500000
  1
50
 50
0.000000
 41
1.052632
 51
0.000000
  7
STANDARD
  0
TEXT
  8
0
 10
-146.142654
 20
-173.050003
 40
4.500000
  1
25
 50
0.000000
 41
1.052632
 51
0.000000
  7
STANDARD
  0
TEXT
  8
0
 10
-163.892654
 20
-173.050003
 40
4.500000
  1
0
 50
0.000000
 41
1.052632
 51
0.000000
  7
STANDARD
  0
TEXT
  8
0
 10
-183.892654
 20
-173.050003
 40
4.500000
  1
0
 50
0.000000
 41
1.052632
 51
0.000000
  7
STANDARD
  0
TEXT
  8
0
 10
-203.892654
 20
-173.050003
 40
4.500000
  1
0
 50
0.000000
 41
1.052632
 51
0.000000
  7
STANDARD
  0
TEXT
  8
0
 62
     2
 10
91.975189
 20
-89.000000
 40
3.200000
  1
STROKE=75-200
 50
0.000000
 41
1.052632
 51
0.000000
  7
STANDARD
  0
LINE
  8
0
 62
     2
 10
78.499985
 20
-90.000000
 11
133.325195
 21
-90.000000
  0
LINE
  8
0
 62
     2
 10
39.999992
 20
-90.000000
 11
78.499985
 21
-90.000000
  0
LINE
  8
0
 62
     2
 10
39.999992
 20
-90.000000
 11
42.897770
 21
-89.223541
  0
LINE
  8
0
 62
     2
 10
39.999992
 20
-90.000000
 11
42.897770
 21
-90.776459
  0
LINE
  8
0
 62
     2
 10
78.499985
 20
-90.000000
 11
75.602211
 21
-90.776459
  0
LINE
  8
0
 62
     2
 10
78.499985
 20
-90.000000
 11
75.602211
 21
-89.223541
  0
LINE
  8
0
 62
     2
 10
39.999992
 20
-59.499969
 11
39.999992
 21
-91.500000
  0
LINE
  8
0
 62
     2
 10
78.499985
 20
-52.500000
 11
78.499985
 21
-91.500000
  0
ENDSEC
  0
EOF
