  0
SECTION
  2
HEADER
  0
ENDSEC
  0
SECTION
  2
TABLES
  0
TABLE
  2
LTYPE
 70
     4
  0
LTYPE
  2
CONTINUOUS
 70
    64
  3
Solid line
 72
    65
 73
     0
 40
0.000000
  0
LTYPE
  2
DASHED
 70
    64
  3
__ __ __ __ __ __ __ __ __ __ __ __ __ __ __
 72
    65
 73
     2
 40
3.500000
 49
2.000000
 49
-1.500000
  0
LTYPE
  2
CENTER
 70
    64
  3
____ _ ____ _ ____ _ ____ _ ____ _ ____ _ ____
 72
    65
 73
     4
 40
17.500000
 49
13.000000
 49
-1.500000
 49
1.500000
 49
-1.500000
  0
LTYPE
  2
PHANTOM
 70
    64
  3
_____ _ _ _____ _ _ _____ _ _ _____ _ _ ____  
 72
    65
 73
     6
 40
15.500000
 49
8.000000
 49
-1.500000
 49
1.500000
 49
-1.500000
 49
1.500000
 49
-1.500000
  0
LTYPE
  2
DASHED1
 70
    64
  3
__ __ __ __ __ __ __ __ __ __ __ __ __ __ __
 72
    65
 73
     2
 40
1.500000
 49
1.000000
 49
-0.500000
  0
LTYPE
  2
DASHED2
 70
    64
  3
__ __ __ __ __ __ __ __ __ __ __ __ __ __ __
 72
    65
 73
     2
 40
3.500000
 49
2.500000
 49
-1.000000
  0
LTYPE
  2
DASHED3
 70
    64
  3
__ __ __ __ __ __ __ __ __ __ __ __ __ __ __
 72
    65
 73
     2
 40
6.000000
 49
4.000000
 49
-2.000000
  0
LTYPE
  2
DASHED4
 70
    64
  3
__ __ __ __ __ __ __ __ __ __ __ __ __ __ __
 72
    65
 73
     2
 40
12.000000
 49
10.000000
 49
-2.000000
  0
LTYPE
  2
DASHED5
 70
    64
  3
__ __ __ __ __ __ __ __ __ __ __ __ __ __ __
 72
    65
 73
     2
 40
17.000000
 49
15.000000
 49
-2.000000
  0
LTYPE
  2
DASHED6
 70
    64
  3
__ __ __ __ __ __ __ __ __ __ __ __ __ __ __
 72
    65
 73
     2
 40
29.000000
 49
27.000000
 49
-2.000000
  0
LTYPE
  2
PHANTOM1
 70
    64
  3
_____ _ _ _____ _ _ _____ _ _ _____ _ _ ____  
 72
    65
 73
     6
 40
31.000000
 49
25.000000
 49
-1.500000
 49
1.000000
 49
-1.000000
 49
1.000000
 49
-1.500000
  0
LTYPE
  2
PHANTOM2
 70
    64
  3
_____ _ _ _____ _ _ _____ _ _ _____ _ _ ____  
 72
    65
 73
     6
 40
36.000000
 49
27.000000
 49
-1.500000
 49
2.500000
 49
-1.000000
 49
2.500000
 49
-1.500000
  0
LTYPE
  2
PHANTOM3
 70
    64
  3
_____ _ _ _____ _ _ _____ _ _ _____ _ _ ____  
 72
    65
 73
     6
 40
78.000000
 49
64.000000
 49
-2.000000
 49
4.000000
 49
-2.000000
 49
4.000000
 49
-2.000000
  0
LTYPE
  2
CENTER1
 70
    64
  3
____ _ ____ _ ____ _ ____ _ ____ _ ____ _ ____
 72
    65
 73
     4
 40
19.000000
 49
14.000000
 49
-1.000000
 49
3.000000
 49
-1.000000
  0
LTYPE
  2
CENTER2
 70
    64
  3
____ _ ____ _ ____ _ ____ _ ____ _ ____ _ ____
 72
    65
 73
     4
 40
28.500000
 49
25.000000
 49
-1.000000
 49
1.500000
 49
-1.000000
  0
LTYPE
  2
CENTER3
 70
    64
  3
____ _ ____ _ ____ _ ____ _ ____ _ ____ _ ____
 72
    65
 73
     4
 40
31.500000
 49
27.000000
 49
-1.000000
 49
2.500000
 49
-1.000000
  0
LTYPE
  2
CENTER4
 70
    64
  3
____ _ ____ _ ____ _ ____ _ ____ _ ____ _ ____
 72
    65
 73
     4
 40
50.000000
 49
45.000000
 49
-1.000000
 49
3.000000
 49
-1.000000
  0
LTYPE
  2
CENTER5
 70
    64
  3
____ _ ____ _ ____ _ ____ _ ____ _ ____ _ ____
 72
    65
 73
     4
 40
100.000000
 49
92.000000
 49
-2.000000
 49
4.000000
 49
-2.000000
  0
LTYPE
  2
SBK1
 70
    64
  3
______ _ _ _ ______ _ _ _ ______ _ _ _ _____  
 72
    65
 73
     8
 40
60.500000
 49
45.000000
 49
-2.000000
 49
2.500000
 49
-2.000000
 49
2.500000
 49
-2.000000
 49
2.500000
 49
-2.000000
  0
LTYPE
  2
SBK2
 70
    64
  3
______ _ _ _ ______ _ _ _ ______ _ _ _ _____  
 72
    65
 73
     8
 40
84.000000
 49
64.000000
 49
-2.000000
 49
4.000000
 49
-2.000000
 49
4.000000
 49
-2.000000
 49
4.000000
 49
-2.000000
  0
LTYPE
  2
STCH
 70
    64
  3
__ __ __ __ __ __ __ __ __ __ __ __ __ __ __
 72
    65
 73
     2
 40
3.000000
 49
1.000000
 49
-2.000000
  0
LTYPE
  2
MTCH
 70
    64
  3
_____ _ _ _____ _ _ _____ _ _ _____ _ _ ____  
 72
    65
 73
     6
 40
80.000000
 49
66.000000
 49
-2.000000
 49
4.000000
 49
-2.000000
 49
4.000000
 49
-2.000000
  0
ENDTAB
  0
TABLE
  2
LAYER
 70
     1
  0
LAYER
  2
0
 70
     0
 62
     7
  6
CONTINUOUS
  0
ENDTAB
  0
TABLE
  2
STYLE
 70
     1
  0
STYLE
  2
STANDARD
 70
     0
 40
0.000000
 41
1.000000
 50
0.000000
 71
     0
 42
0.200000
  3
txt
  4
BIGFONT
  0
ENDTAB
  0
TABLE
  2
VIEW
 70
     0
  0
ENDTAB
  0
ENDSEC
  0
SECTION
  2
BLOCKS
  0
ENDSEC
  0
SECTION
  2
ENTITIES
  0
LINE
  8
0
 10
-21.999992
 20
0.000000
 11
-17.000015
 21
0.000000
  0
LINE
  8
0
 10
-21.999992
 20
20.000000
 11
-16.999992
 21
20.000000
  0
LINE
  8
0
  6
CENTER
 62
     2
 10
-42.853745
 20
-51.000000
 11
-14.305771
 21
-51.000000
  0
LINE
  8
0
 10
-38.999985
 20
-69.999985
 11
-22.999989
 21
-69.999985
  0
LINE
  8
0
 10
-21.999992
 20
-69.000000
 11
-21.999992
 21
88.571358
  0
LINE
  8
0
  6
CENTER
 62
     2
 10
-42.853745
 20
71.000000
 11
-14.477875
 21
71.000000
  0
LINE
  8
0
 10
-38.571430
 20
90.000000
 11
-23.428562
 21
90.000000
  0
LINE
  8
0
 10
-40.000000
 20
-69.000000
 11
-40.000000
 21
88.571434
  0
LINE
  8
0
 62
     2
 10
-21.999992
 20
11.452841
 11
-20.000036
 21
5.641106
  0
LINE
  8
0
 62
     2
 10
-19.999977
 20
14.358856
 11
-21.999969
 21
8.547012
  0
LINE
  8
0
 10
-21.999992
 20
5.641106
 11
-21.999992
 21
10.000008
  0
LINE
  8
0
 10
-21.999992
 20
5.641098
 11
-19.999981
 21
5.641098
  0
LINE
  8
0
 10
-21.999992
 20
-63.500000
 11
-17.000015
 21
-63.500000
  0
LINE
  8
0
 10
-21.999992
 20
-38.500011
 11
-17.000015
 21
-38.500011
  0
LINE
  8
0
 10
-39.999908
 20
-68.999916
 11
-38.999893
 21
-69.999924
  0
LINE
  8
0
 10
-22.999950
 20
-70.000038
 11
-21.999958
 21
-69.000038
  0
LINE
  8
0
 10
-23.428614
 20
89.999954
 11
-22.000044
 21
88.571388
  0
LINE
  8
0
 10
-38.571362
 20
89.999924
 11
-39.999931
 21
88.571350
  0
LINE
  8
0
 10
-19.999981
 20
14.358883
 11
-19.999981
 21
5.641106
  0
LINE
  8
0
 10
-16.499985
 20
91.000000
 11
39.500015
 21
91.000000
  0
LINE
  8
0
 10
-16.999992
 20
87.999992
 11
40.000000
 21
87.999992
  0
LINE
  8
0
  6
CENTER
 62
     2
 10
-17.090935
 20
49.000008
 11
-0.293381
 21
49.000008
  0
LINE
  8
0
 10
39.500023
 20
91.000023
 11
40.000023
 21
90.500038
  0
LINE
  8
0
 10
-16.500006
 20
91.000107
 11
-17.000010
 21
90.500130
  0
LINE
  8
0
 10
-16.999992
 20
72.649994
 11
40.000000
 21
72.649994
  0
LINE
  8
0
 10
-16.999992
 20
67.350006
 11
40.000000
 21
67.350006
  0
LINE
  8
0
 10
-16.999992
 20
34.500015
 11
40.000000
 21
34.500015
  0
LINE
  8
0
 10
-16.999992
 20
34.000008
 11
40.000000
 21
34.000008
  0
LINE
  8
0
 10
-16.999992
 20
24.999981
 11
40.000000
 21
24.999981
  0
LINE
  8
0
 10
-16.999992
 20
21.799992
 11
40.000000
 21
21.799992
  0
LINE
  8
0
 10
-21.999992
 20
14.358852
 11
-19.999981
 21
14.358852
  0
LINE
  8
0
  6
DASHED
 62
     2
 10
79.000008
 20
-38.999992
 11
79.000008
 21
-63.000000
  0
LINE
  8
0
  6
DASHED
 62
     2
 10
40.000000
 20
-38.499996
 11
78.500000
 21
-38.499996
  0
LINE
  8
0
  6
DASHED
 62
     2
 10
40.000000
 20
-63.500000
 11
78.500000
 21
-63.500000
  0
LINE
  8
0
  6
DASHED
 62
     2
 10
78.499992
 20
-38.500015
 11
78.999985
 21
-39.000008
  0
LINE
  8
0
  6
DASHED
 62
     2
 10
78.999992
 20
-62.999977
 11
78.499992
 21
-63.499977
  0
LINE
  8
0
  6
DASHED
 62
     2
 10
78.500000
 20
-38.499996
 11
78.500000
 21
-63.500000
  0
LINE
  8
0
  6
DASHED
 62
     2
 10
79.000000
 20
83.000000
 11
79.000000
 21
58.999992
  0
LINE
  8
0
  6
DASHED
 62
     2
 10
40.000000
 20
83.500000
 11
78.500000
 21
83.500000
  0
LINE
  8
0
  6
DASHED
 62
     2
 10
40.000000
 20
58.500000
 11
78.500000
 21
58.500000
  0
LINE
  8
0
  6
DASHED
 62
     2
 10
78.499985
 20
83.499985
 11
78.999985
 21
82.999985
  0
LINE
  8
0
  6
DASHED
 62
     2
 10
79.000008
 20
59.000000
 11
78.500008
 21
58.500000
  0
LINE
  8
0
  6
DASHED
 62
     2
 10
78.500000
 20
83.500000
 11
78.500000
 21
58.500000
  0
LINE
  8
0
 10
-21.999992
 20
83.500000
 11
-17.000015
 21
83.500000
  0
LINE
  8
0
 10
-21.999992
 20
58.500000
 11
-17.000015
 21
58.500000
  0
LINE
  8
0
  6
CENTER
 62
     2
 10
-8.999983
 20
57.596169
 11
-8.999983
 21
40.297905
  0
LINE
  8
0
  6
CENTER
 62
     2
 10
11.000015
 20
57.699142
 11
11.000015
 21
40.812737
  0
LINE
  8
0
  6
CENTER
 62
     2
 10
2.276199
 20
49.000008
 11
19.574471
 21
49.000008
  0
LINE
  8
0
  6
CENTER
 62
     2
 10
-44.145462
 20
10.000000
 11
43.188736
 21
10.000000
  0
LINE
  8
0
 10
-16.999989
 20
90.500031
 11
-16.999989
 21
-70.499985
  0
LINE
  8
0
 10
-16.500011
 20
-71.000000
 11
39.499992
 21
-71.000000
  0
LINE
  8
0
 10
-17.000008
 20
-67.999985
 11
39.999992
 21
-67.999985
  0
LINE
  8
0
  6
CENTER
 62
     2
 10
1.909019
 20
-29.000004
 11
19.617241
 21
-29.000004
  0
LINE
  8
0
 10
40.000008
 20
90.500031
 11
40.000008
 21
-70.499985
  0
LINE
  8
0
  6
CENTER
 62
     2
 10
-17.952766
 20
-29.000004
 11
-0.302803
 21
-29.000004
  0
LINE
  8
0
  6
CENTER
 62
     2
 10
-9.000000
 20
-20.386833
 11
-9.000000
 21
-37.719139
  0
LINE
  8
0
  6
CENTER
 62
     2
 10
11.000000
 20
-20.386833
 11
11.000000
 21
-38.046158
  0
LINE
  8
0
  6
CENTER
 62
     2
 10
34.963806
 20
-50.000000
 11
17.987804
 21
-50.000000
  0
LINE
  8
0
  6
CENTER
 62
     2
 10
0.000008
 20
-41.465332
 11
0.000008
 21
-58.504585
  0
LINE
  8
0
  6
DASHED
 62
     2
 10
-1.299884
 20
-69.999771
 11
-0.299906
 21
-70.999748
  0
LINE
  8
0
  6
DASHED
 62
     2
 10
-13.699809
 20
-71.000046
 11
-12.699807
 21
-70.000046
  0
LINE
  8
0
  6
DASHED
 62
     2
 10
-1.300003
 20
-70.000000
 11
-12.700016
 21
-70.000000
  0
LINE
  8
0
  6
DASHED
 62
     2
 10
-12.700016
 20
-65.614868
 11
-12.700016
 21
-69.999985
  0
LINE
  8
0
  6
DASHED
 62
     2
 10
-13.409153
 20
-65.614868
 11
-13.546133
 21
-70.845909
  0
LINE
  8
0
  6
DASHED
 62
     2
 10
-1.299980
 20
-65.614868
 11
-1.299980
 21
-69.999985
  0
LINE
  8
0
  6
DASHED
 62
     2
 10
-0.590974
 20
-65.614883
 11
-0.449960
 21
-70.999992
  0
LINE
  8
0
  6
CENTER
 62
     2
 10
9.000008
 20
-64.591583
 11
9.000008
 21
-73.195740
  0
LINE
  8
0
  6
DASHED
 62
     2
 10
14.700182
 20
-69.999779
 11
15.700160
 21
-70.999756
  0
LINE
  8
0
  6
DASHED
 62
     2
 10
2.299944
 20
-71.000046
 11
3.299948
 21
-70.000038
  0
LINE
  8
0
  6
DASHED
 62
     2
 10
14.700005
 20
-70.000000
 11
3.299980
 21
-70.000000
  0
LINE
  8
0
  6
DASHED
 62
     2
 10
3.299980
 20
-65.614868
 11
3.299980
 21
-69.999985
  0
LINE
  8
0
  6
DASHED
 62
     2
 10
2.590753
 20
-65.614868
 11
2.453772
 21
-70.845947
  0
LINE
  8
0
  6
CENTER
 62
     2
 10
26.000000
 20
-41.669987
 11
26.000000
 21
-58.953796
  0
LINE
  8
0
 10
40.000141
 20
-70.500038
 11
39.500107
 21
-71.000076
  0
LINE
  8
0
 10
-16.999819
 20
-70.499878
 11
-16.499826
 21
-70.999863
  0
LINE
  8
0
  6
CENTER
 62
     2
 10
7.694477
 20
-50.000000
 11
-7.716202
 21
-50.000000
  0
LINE
  8
0
 10
-17.000008
 20
-1.800013
 11
39.999992
 21
-1.800013
  0
LINE
  8
0
 10
-17.000008
 20
-5.000000
 11
39.999992
 21
-5.000000
  0
LINE
  8
0
 10
-17.000008
 20
-13.999960
 11
39.999992
 21
-13.999960
  0
LINE
  8
0
 10
-17.000008
 20
-14.499990
 11
39.999992
 21
-14.499990
  0
LINE
  8
0
  6
CENTER
 62
     2
 10
-6.999985
 20
-64.386932
 11
-6.999985
 21
-73.098167
  0
LINE
  8
0
  6
DASHED
 62
     2
 10
14.700016
 20
-65.614868
 11
14.700016
 21
-69.999985
  0
LINE
  8
0
  6
DASHED
 62
     2
 10
15.408661
 20
-65.614883
 11
15.549675
 21
-71.000000
  0
LINE
  8
0
  6
PHANTOM
 62
     3
 10
1.750000
 20
-61.393753
 11
1.750000
 21
-81.000000
  0
LINE
  8
0
  6
PHANTOM
 62
     3
 10
16.437500
 20
-39.393753
 11
16.437500
 21
-61.393753
  0
LINE
  8
0
  6
PHANTOM
 62
     3
 10
1.750000
 20
-61.393753
 11
16.437500
 21
-61.393753
  0
LINE
  8
0
  6
PHANTOM
 62
     3
 10
0.625000
 20
119.999969
 11
0.625000
 21
-39.393753
  0
LINE
  8
0
  6
PHANTOM
 62
     3
 10
28.343750
 20
107.999969
 11
28.343750
 21
-39.393753
  0
LINE
  8
0
  6
PHANTOM
 62
     3
 10
16.437500
 20
-39.393753
 11
28.343750
 21
-39.393753
  0
LINE
  8
0
  6
PHANTOM
 62
     3
 10
0.625000
 20
-39.393753
 11
9.250000
 21
-39.393753
  0
LINE
  8
0
  6
PHANTOM
 62
     3
 10
9.250000
 20
-39.393753
 11
9.250000
 21
-59.393753
  0
LINE
  8
0
  6
PHANTOM
 62
     3
 10
0.750000
 20
-59.393753
 11
0.750000
 21
-81.000000
  0
LINE
  8
0
  6
PHANTOM
 62
     3
 10
0.750000
 20
-59.393753
 11
9.250000
 21
-59.393753
  0
LINE
  8
0
 10
135.000000
 20
91.000000
 11
205.000000
 21
91.000000
  0
LINE
  8
0
 10
135.000000
 20
-71.000000
 11
205.000000
 21
-71.000000
  0
LINE
  8
0
  6
CENTER
 62
     2
 10
150.556702
 20
71.000000
 11
189.050598
 21
71.000000
  0
LINE
  8
0
  6
CENTER
 62
     2
 10
153.457825
 20
-50.999996
 11
186.911697
 21
-50.999996
  0
LINE
  8
0
 10
135.000092
 20
90.999939
 11
132.000046
 21
87.999901
  0
LINE
  8
0
 10
204.999771
 20
90.999840
 11
207.999771
 21
87.999832
  0
LINE
  8
0
 10
208.000198
 20
-68.000069
 11
205.000183
 21
-71.000084
  0
LINE
  8
0
 10
132.000000
 20
-14.499990
 11
132.000000
 21
-67.999985
  0
LINE
  8
0
 10
208.000015
 20
-14.500034
 11
208.000015
 21
-45.849960
  0
LINE
  8
0
 10
132.000153
 20
-67.999870
 11
135.000122
 21
-70.999840
  0
LINE
  8
0
 10
132.500031
 20
21.799992
 11
133.000031
 21
21.799992
  0
LINE
  8
0
 10
132.999924
 20
21.799925
 11
133.499939
 21
21.299906
  0
LINE
  8
0
 10
133.500031
 20
21.300007
 11
135.100006
 21
21.300007
  0
LINE
  8
0
 10
133.500031
 20
25.499981
 11
135.100006
 21
25.499981
  0
LINE
  8
0
 10
132.999847
 20
25.000179
 11
133.499863
 21
25.500204
  0
LINE
  8
0
 10
132.500031
 20
24.999981
 11
133.000031
 21
24.999981
  0
LINE
  8
0
 10
132.500031
 20
34.000008
 11
132.500031
 21
24.999981
  0
LINE
  8
0
 10
132.500031
 20
21.799992
 11
132.500031
 21
-1.799992
  0
LINE
  8
0
 10
132.499985
 20
33.999973
 11
131.999954
 21
34.500000
  0
LINE
  8
0
 10
132.500031
 20
-1.799992
 11
133.000031
 21
-1.799992
  0
LINE
  8
0
 10
132.999832
 20
-1.799903
 11
133.499817
 21
-1.299911
  0
LINE
  8
0
 10
133.500031
 20
-1.300001
 11
135.100006
 21
-1.300001
  0
LINE
  8
0
 10
133.500031
 20
-5.500008
 11
135.100006
 21
-5.500008
  0
LINE
  8
0
 10
132.999878
 20
-5.000128
 11
133.499878
 21
-5.500118
  0
LINE
  8
0
 10
132.500031
 20
-5.000000
 11
133.000031
 21
-5.000000
  0
LINE
  8
0
 10
132.500031
 20
-13.999983
 11
132.500031
 21
-5.000000
  0
LINE
  8
0
 10
132.500000
 20
-13.999971
 11
131.999954
 21
-14.500003
  0
LINE
  8
0
 10
207.499985
 20
21.799992
 11
206.999969
 21
21.799992
  0
LINE
  8
0
 10
207.000168
 20
21.799795
 11
206.500168
 21
21.299793
  0
LINE
  8
0
 10
206.499969
 20
21.300007
 11
204.899994
 21
21.300007
  0
LINE
  8
0
 10
206.499969
 20
25.499981
 11
204.899994
 21
25.499981
  0
LINE
  8
0
 10
207.000229
 20
25.000235
 11
206.500244
 21
25.500219
  0
LINE
  8
0
 10
207.499985
 20
24.999981
 11
206.999969
 21
24.999981
  0
LINE
  8
0
 10
207.499985
 20
34.000008
 11
207.499985
 21
24.999981
  0
LINE
  8
0
 10
207.499985
 20
21.799992
 11
207.499985
 21
-1.799992
  0
LINE
  8
0
 10
207.499969
 20
-14.000073
 11
207.999985
 21
-14.500083
  0
LINE
  8
0
 10
207.499954
 20
34.000031
 11
207.999985
 21
34.500046
  0
LINE
  8
0
 10
207.499985
 20
-1.799992
 11
206.999969
 21
-1.799992
  0
LINE
  8
0
 10
207.000229
 20
-1.799870
 11
206.500183
 21
-1.299841
  0
LINE
  8
0
 10
206.499969
 20
-1.300001
 11
204.899994
 21
-1.300001
  0
LINE
  8
0
 10
206.499969
 20
-5.500008
 11
204.899994
 21
-5.500008
  0
LINE
  8
0
 10
207.000290
 20
-5.000269
 11
206.500290
 21
-5.500270
  0
LINE
  8
0
 10
207.499985
 20
-5.000000
 11
206.999969
 21
-5.000000
  0
LINE
  8
0
 10
207.499985
 20
-13.999983
 11
207.499985
 21
-5.000000
  0
LINE
  8
0
 10
208.000015
 20
-54.150002
 11
208.000015
 21
-68.000031
  0
LINE
  8
0
 10
203.500000
 20
-54.150002
 11
203.500000
 21
-56.650002
  0
LINE
  8
0
 10
196.500015
 20
-43.349960
 11
196.500015
 21
-56.650002
  0
LINE
  8
0
 10
203.500000
 20
-43.350025
 11
203.500000
 21
-45.850025
  0
LINE
  8
0
 10
196.500015
 20
-56.650024
 11
203.500000
 21
-56.650024
  0
LINE
  8
0
 10
196.500015
 20
-43.349960
 11
203.500000
 21
-43.349960
  0
LINE
  8
0
 10
203.500000
 20
-45.849960
 11
207.999985
 21
-45.849960
  0
LINE
  8
0
 10
203.500000
 20
-54.150024
 11
207.999985
 21
-54.150024
  0
LINE
  8
0
  6
CENTER
 62
     2
 10
140.857208
 20
82.000008
 11
155.296158
 21
82.000008
  0
LINE
  8
0
  6
CENTER
 62
     2
 10
140.857208
 20
-61.999985
 11
155.296158
 21
-61.999985
  0
LINE
  8
0
  6
CENTER
 62
     2
 10
148.000015
 20
-54.999992
 11
148.000015
 21
-68.999977
  0
LINE
  8
0
  6
CENTER
 62
     2
 10
192.000000
 20
-54.999992
 11
192.000000
 21
-68.999977
  0
LINE
  8
0
 10
171.500000
 20
-71.000000
 11
171.500000
 21
-64.919418
  0
LINE
  8
0
 10
168.500000
 20
-71.000000
 11
168.500000
 21
-64.919418
  0
LINE
  8
0
 10
171.500000
 20
91.000000
 11
171.500000
 21
84.919418
  0
LINE
  8
0
 10
168.500000
 20
91.000000
 11
168.500000
 21
84.919418
  0
LINE
  8
0
 10
134.000000
 20
72.649994
 11
134.000000
 21
67.350006
  0
LINE
  8
0
 10
206.000000
 20
74.149979
 11
206.000000
 21
65.849983
  0
LINE
  8
0
 10
134.000000
 20
25.499989
 11
134.000000
 21
21.300007
  0
LINE
  8
0
 10
134.000000
 20
-1.300005
 11
134.000000
 21
-5.500008
  0
LINE
  8
0
 10
206.000000
 20
-45.849960
 11
206.000000
 21
-54.150024
  0
LINE
  8
0
 10
206.000000
 20
-1.300005
 11
206.000000
 21
-5.500008
  0
LINE
  8
0
 10
206.000000
 20
25.499989
 11
206.000000
 21
21.300007
  0
LINE
  8
0
 10
132.000000
 20
87.999992
 11
132.000000
 21
72.649994
  0
LINE
  8
0
 10
132.000000
 20
72.649994
 11
135.000000
 21
72.649994
  0
LINE
  8
0
 10
135.000000
 20
74.150002
 11
135.000000
 21
72.649994
  0
LINE
  8
0
 10
139.500015
 20
74.150002
 11
139.500015
 21
65.849998
  0
LINE
  8
0
 10
135.000000
 20
67.350006
 11
135.000000
 21
65.849998
  0
LINE
  8
0
 10
132.000000
 20
67.350006
 11
135.000000
 21
67.350006
  0
LINE
  8
0
 10
132.000000
 20
67.350006
 11
132.000000
 21
34.500015
  0
LINE
  8
0
 10
196.500015
 20
76.649979
 11
203.500000
 21
76.649979
  0
LINE
  8
0
 10
196.500015
 20
63.349983
 11
196.500015
 21
76.649979
  0
LINE
  8
0
 10
196.500015
 20
63.349983
 11
203.500000
 21
63.349983
  0
LINE
  8
0
 10
203.500000
 20
63.350029
 11
203.500000
 21
65.850029
  0
LINE
  8
0
 10
203.500000
 20
65.849983
 11
207.999985
 21
65.849983
  0
LINE
  8
0
 10
208.000015
 20
34.500015
 11
208.000015
 21
65.849983
  0
LINE
  8
0
 10
203.500000
 20
74.149979
 11
207.999985
 21
74.149979
  0
LINE
  8
0
 10
203.500000
 20
74.150024
 11
203.500000
 21
76.650024
  0
LINE
  8
0
 10
208.000015
 20
74.149979
 11
208.000015
 21
88.000076
  0
LINE
  8
0
  6
CENTER
 62
     2
 10
148.000015
 20
89.391571
 11
148.000015
 21
74.520378
  0
LINE
  8
0
  6
CENTER
 62
     2
 10
192.000000
 20
89.194603
 11
192.000000
 21
74.520378
  0
LINE
  8
0
  6
CENTER
 62
     2
 10
185.504486
 20
-61.999985
 11
198.439743
 21
-61.999985
  0
LINE
  8
0
  6
CENTER
 62
     2
 10
184.660858
 20
82.000008
 11
199.532043
 21
82.000008
  0
LINE
  8
0
  6
DASHED
 62
     2
 10
140.300018
 20
-65.614868
 11
140.300018
 21
-70.000061
  0
LINE
  8
0
  6
DASHED
 62
     2
 10
151.699982
 20
-70.000061
 11
140.300018
 21
-70.000061
  0
LINE
  8
0
  6
DASHED
 62
     2
 10
139.591110
 20
-65.614876
 11
139.454132
 21
-70.846069
  0
LINE
  8
0
  6
DASHED
 62
     2
 10
139.299927
 20
-70.999901
 11
140.299911
 21
-69.999924
  0
LINE
  8
0
  6
DASHED
 62
     2
 10
151.699966
 20
-70.000107
 11
152.699951
 21
-71.000092
  0
LINE
  8
0
  6
DASHED
 62
     2
 10
152.409012
 20
-65.614876
 11
152.550018
 21
-71.000084
  0
LINE
  8
0
  6
DASHED
 62
     2
 10
151.700012
 20
-65.614868
 11
151.700012
 21
-70.000061
  0
LINE
  8
0
  6
CENTER
 62
     2
 10
146.000000
 20
-64.079941
 11
146.000000
 21
-73.120407
  0
LINE
  8
0
  6
CENTER
 62
     2
 10
125.704498
 20
10.000000
 11
210.027191
 21
10.000000
  0
LINE
  8
0
  6
CENTER
 62
     2
 10
170.000000
 20
96.785172
 11
170.000000
 21
-74.269409
  0
LINE
  8
0
  6
CENTER
 62
     2
 10
149.480270
 20
-50.000000
 11
142.812439
 21
-50.000000
  0
LINE
  8
0
  6
CENTER
 62
     2
 10
146.000000
 20
-46.847229
 11
146.000000
 21
-53.176010
  0
LINE
  8
0
  6
CENTER
 62
     2
 10
193.663315
 20
69.999977
 11
203.500000
 21
69.999977
  0
LINE
  8
0
  6
CENTER
 62
     2
 10
135.000000
 20
70.000000
 11
142.370880
 21
70.000000
  0
LINE
  8
0
  6
CENTER
 62
     2
 10
192.937134
 20
-49.999992
 11
203.500000
 21
-49.999992
  0
LINE
  8
0
 10
135.000000
 20
65.849998
 11
139.500015
 21
65.849998
  0
LINE
  8
0
 10
135.000000
 20
74.150002
 11
139.500015
 21
74.150002
  0
LINE
  8
0
 10
-155.000000
 20
91.000000
 11
-225.000000
 21
91.000000
  0
LINE
  8
0
 10
-155.000000
 20
-71.000000
 11
-225.000000
 21
-71.000000
  0
LINE
  8
0
 10
-152.000000
 20
87.999992
 11
-152.000000
 21
72.649994
  0
LINE
  8
0
 10
-155.000153
 20
90.999893
 11
-152.000122
 21
87.999863
  0
LINE
  8
0
 10
-224.999893
 20
90.999771
 11
-227.999908
 21
87.999763
  0
LINE
  8
0
 10
-228.000183
 20
-68.000137
 11
-225.000153
 21
-71.000153
  0
LINE
  8
0
 10
-152.000000
 20
-14.499990
 11
-152.000000
 21
-67.999985
  0
LINE
  8
0
  6
CENTER
 62
     2
 10
-231.542542
 20
10.000000
 11
-149.070450
 21
10.000000
  0
LINE
  8
0
 10
-228.000015
 20
-14.500034
 11
-228.000015
 21
-45.849960
  0
LINE
  8
0
 10
-152.000198
 20
-67.999741
 11
-155.000183
 21
-70.999718
  0
LINE
  8
0
 10
-228.000015
 20
74.149979
 11
-228.000015
 21
88.000076
  0
LINE
  8
0
 10
-228.000015
 20
34.500015
 11
-228.000015
 21
65.849983
  0
LINE
  8
0
 10
-152.500031
 20
21.799992
 11
-153.000031
 21
21.799992
  0
LINE
  8
0
 10
-152.999802
 20
21.799879
 11
-153.499786
 21
21.299887
  0
LINE
  8
0
 10
-153.500031
 20
21.300007
 11
-154.000015
 21
21.300007
  0
LINE
  8
0
 10
-153.500031
 20
25.499981
 11
-154.000015
 21
25.499981
  0
LINE
  8
0
 10
-152.999817
 20
25.000183
 11
-153.499817
 21
25.500172
  0
LINE
  8
0
 10
-152.500031
 20
24.999981
 11
-153.000031
 21
24.999981
  0
LINE
  8
0
 10
-152.500031
 20
34.000008
 11
-152.500031
 21
24.999981
  0
LINE
  8
0
 10
-152.500031
 20
21.799992
 11
-152.500031
 21
-1.799992
  0
LINE
  8
0
 10
-226.000000
 20
65.849983
 11
-228.000015
 21
65.849983
  0
LINE
  8
0
 10
-226.000000
 20
74.149979
 11
-228.000015
 21
74.149979
  0
LINE
  8
0
 10
-152.000000
 20
72.649994
 11
-154.000015
 21
72.649994
  0
LINE
  8
0
 10
-152.000000
 20
67.350006
 11
-154.000015
 21
67.350006
  0
LINE
  8
0
 10
-152.000000
 20
67.350006
 11
-152.000000
 21
34.500015
  0
LINE
  8
0
 10
-152.500122
 20
34.000019
 11
-152.000076
 21
34.500072
  0
LINE
  8
0
 10
-152.500031
 20
-1.799992
 11
-153.000031
 21
-1.799992
  0
LINE
  8
0
 10
-152.999924
 20
-1.799896
 11
-153.499908
 21
-1.299904
  0
LINE
  8
0
 10
-153.500031
 20
-1.300001
 11
-154.000015
 21
-1.300001
  0
LINE
  8
0
 10
-153.500031
 20
-5.500008
 11
-154.000015
 21
-5.500008
  0
LINE
  8
0
 10
-152.999817
 20
-5.000247
 11
-153.499817
 21
-5.500256
  0
LINE
  8
0
 10
-152.500031
 20
-5.000000
 11
-153.000031
 21
-5.000000
  0
LINE
  8
0
 10
-152.500031
 20
-13.999983
 11
-152.500031
 21
-5.000000
  0
LINE
  8
0
 10
-152.500092
 20
-14.000013
 11
-152.000061
 21
-14.500038
  0
LINE
  8
0
 10
-227.499954
 20
21.799992
 11
-227.000000
 21
21.799992
  0
LINE
  8
0
 10
-227.000137
 20
21.799852
 11
-226.500153
 21
21.299862
  0
LINE
  8
0
 10
-226.499985
 20
21.300007
 11
-226.000000
 21
21.300007
  0
LINE
  8
0
 10
-226.499985
 20
25.499981
 11
-226.000000
 21
25.499981
  0
LINE
  8
0
 10
-227.000229
 20
25.000177
 11
-226.500198
 21
25.500198
  0
LINE
  8
0
 10
-227.499954
 20
24.999981
 11
-227.000000
 21
24.999981
  0
LINE
  8
0
 10
-227.499985
 20
34.000008
 11
-227.499985
 21
24.999981
  0
LINE
  8
0
 10
-227.499985
 20
21.799992
 11
-227.499985
 21
-1.799992
  0
LINE
  8
0
 10
-227.499954
 20
-14.000002
 11
-228.000000
 21
-14.500030
  0
LINE
  8
0
 10
-227.500000
 20
33.999962
 11
-228.000031
 21
34.499981
  0
LINE
  8
0
 10
-227.499954
 20
-1.799992
 11
-227.000000
 21
-1.799992
  0
LINE
  8
0
 10
-227.000153
 20
-1.799915
 11
-226.500137
 21
-1.299889
  0
LINE
  8
0
 10
-226.499985
 20
-1.300001
 11
-226.000000
 21
-1.300001
  0
LINE
  8
0
 10
-226.499985
 20
-5.500008
 11
-226.000000
 21
-5.500008
  0
LINE
  8
0
 10
-227.000259
 20
-5.000260
 11
-226.500259
 21
-5.500261
  0
LINE
  8
0
 10
-227.499954
 20
-5.000000
 11
-227.000000
 21
-5.000000
  0
LINE
  8
0
 10
-227.499985
 20
-13.999983
 11
-227.499985
 21
-5.000000
  0
LINE
  8
0
 10
-228.000015
 20
-54.150002
 11
-228.000015
 21
-68.000053
  0
LINE
  8
0
 10
-226.000000
 20
-45.849960
 11
-228.000015
 21
-45.849960
  0
LINE
  8
0
 10
-226.000000
 20
-54.150024
 11
-228.000015
 21
-54.150024
  0
LINE
  8
0
 10
-225.000000
 20
-70.000000
 11
-155.000000
 21
-70.000000
  0
LINE
  8
0
 10
-225.000000
 20
90.000000
 11
-155.000000
 21
90.000000
  0
LINE
  8
0
 10
-224.999924
 20
89.999893
 11
-225.999924
 21
88.999893
  0
LINE
  8
0
 10
-225.999985
 20
-68.999985
 11
-224.999985
 21
-69.999985
  0
LINE
  8
0
 10
-154.000061
 20
-68.999939
 11
-155.000061
 21
-69.999939
  0
LINE
  8
0
 10
-154.999939
 20
90.000076
 11
-153.999939
 21
89.000069
  0
LINE
  8
0
  6
CENTER
 62
     2
 10
-216.000000
 20
-63.102783
 11
-216.000000
 21
-48.733955
  0
LINE
  8
0
  6
CENTER
 62
     2
 10
-208.310684
 20
-56.000000
 11
-223.242172
 21
-56.000000
  0
LINE
  8
0
  6
CENTER
 62
     2
 10
-207.814362
 20
76.000000
 11
-223.242172
 21
76.000000
  0
LINE
  8
0
  6
CENTER
 62
     2
 10
-164.000000
 20
-63.298279
 11
-164.000000
 21
-48.733955
  0
LINE
  8
0
 10
-154.000000
 20
89.000000
 11
-154.000000
 21
-69.000000
  0
LINE
  8
0
 10
-226.000000
 20
89.000000
 11
-226.000000
 21
-69.000000
  0
LINE
  8
0
 10
-189.999939
 20
74.464073
 11
-192.999969
 21
72.731995
  0
LINE
  8
0
 10
-193.000015
 20
72.732048
 11
-193.000015
 21
69.267952
  0
LINE
  8
0
 10
-190.000031
 20
67.535919
 11
-193.000061
 21
69.267990
  0
LINE
  8
0
 10
-187.000046
 20
69.268066
 11
-190.000015
 21
67.536018
  0
LINE
  8
0
 10
-187.000000
 20
72.732048
 11
-187.000000
 21
69.267952
  0
LINE
  8
0
 10
-189.999985
 20
74.464096
 11
-187.000000
 21
72.732048
  0
LINE
  8
0
 10
-190.000031
 20
-47.535980
 11
-187.000046
 21
-49.268040
  0
LINE
  8
0
 10
-189.999939
 20
-47.535892
 11
-192.999969
 21
-49.267963
  0
LINE
  8
0
 10
-193.000015
 20
-49.267952
 11
-193.000015
 21
-52.732048
  0
LINE
  8
0
 10
-190.000031
 20
-54.464039
 11
-193.000061
 21
-52.731968
  0
LINE
  8
0
 10
-187.000015
 20
-52.731983
 11
-190.000015
 21
-54.464035
  0
LINE
  8
0
 10
-187.000000
 20
-49.267952
 11
-187.000000
 21
-52.732048
  0
LINE
  8
0
 10
-190.000015
 20
13.464067
 11
-187.000031
 21
11.732011
  0
LINE
  8
0
 10
-189.999954
 20
13.464082
 11
-192.999985
 21
11.732008
  0
LINE
  8
0
 10
-193.000015
 20
11.732048
 11
-193.000015
 21
8.267956
  0
LINE
  8
0
 10
-190.000031
 20
6.535950
 11
-193.000061
 21
8.268018
  0
LINE
  8
0
 10
-187.000015
 20
8.268035
 11
-190.000015
 21
6.535977
  0
LINE
  8
0
 10
-187.000000
 20
11.732048
 11
-187.000000
 21
8.267956
  0
LINE
  8
0
  6
CENTER
 62
     2
 10
-190.000000
 20
95.222458
 11
-190.000000
 21
-75.657166
  0
LINE
  8
0
  6
CENTER
 62
     2
 10
-216.000000
 20
83.088882
 11
-216.000000
 21
68.682777
  0
LINE
  8
0
  6
CENTER
 62
     2
 10
-171.566666
 20
-56.000000
 11
-156.595612
 21
-56.000000
  0
LINE
  8
0
  6
CENTER
 62
     2
 10
-171.849152
 20
76.000000
 11
-156.595612
 21
76.000000
  0
LINE
  8
0
  6
CENTER
 62
     2
 10
-164.000000
 20
83.371353
 11
-164.000000
 21
68.682777
  0
LINE
  8
0
  6
CENTER
 62
     2
 10
-202.187592
 20
71.000000
 11
-178.341904
 21
71.000000
  0
LINE
  8
0
  6
CENTER
 62
     2
 10
-202.187592
 20
-50.999996
 11
-178.341904
 21
-50.999996
  0
LINE
  8
0
 10
-281.250000
 20
195.500000
 11
282.099976
 21
195.500000
  0
LINE
  8
0
 10
-281.250000
 20
195.500000
 11
-281.250000
 21
-195.000000
  0
LINE
  8
0
 10
282.099976
 20
195.500000
 11
282.099976
 21
-195.000000
  0
LINE
  8
0
 10
-281.250000
 20
-195.000000
 11
282.099976
 21
-195.000000
  0
LINE
  8
0
 10
162.099976
 20
-175.000000
 11
162.099976
 21
-195.000000
  0
LINE
  8
0
 10
162.099976
 20
-175.000000
 11
282.099976
 21
-175.000000
  0
LINE
  8
0
 10
162.099976
 20
175.500000
 11
282.099976
 21
175.500000
  0
LINE
  8
0
 10
-281.250000
 20
175.500000
 11
-121.250000
 21
175.500000
  0
LINE
  8
0
 10
162.099976
 20
195.500000
 11
162.099976
 21
175.500000
  0
LINE
  8
0
 10
-121.250000
 20
195.500000
 11
-121.250000
 21
175.500000
  0
LINE
  8
0
 10
-271.250000
 20
-185.000000
 11
-31.250000
 21
-185.000000
  0
LINE
  8
0
 10
-271.250000
 20
-144.000000
 11
-271.250000
 21
-185.000000
  0
LINE
  8
0
 10
-231.250000
 20
-144.000000
 11
-231.250000
 21
-185.000000
  0
LINE
  8
0
 10
-271.250000
 20
-151.000000
 11
-235.001297
 21
-151.000000
  0
LINE
  8
0
 10
-271.250000
 20
-165.000000
 11
-31.250000
 21
-165.000000
  0
LINE
  8
0
 10
-271.250000
 20
-144.000000
 11
-31.250000
 21
-144.000000
  0
LINE
  8
0
 10
-231.250015
 20
-165.000015
 11
-235.001312
 21
-151.000000
  0
LINE
  8
0
 10
-211.250000
 20
-144.000000
 11
-211.250000
 21
-185.000000
  0
LINE
  8
0
 10
-191.250000
 20
-144.000000
 11
-191.250000
 21
-185.000000
  0
LINE
  8
0
 10
-171.250000
 20
-144.000000
 11
-171.250000
 21
-185.000000
  0
LINE
  8
0
 10
-151.250000
 20
-144.000000
 11
-151.250000
 21
-185.000000
  0
LINE
  8
0
 10
-131.250000
 20
-144.000000
 11
-131.250000
 21
-185.000000
  0
LINE
  8
0
 10
-111.250000
 20
-144.000000
 11
-111.250000
 21
-185.000000
  0
LINE
  8
0
 10
-271.250000
 20
-175.000000
 11
-31.250000
 21
-175.000000
  0
LINE
  8
0
 10
-91.250000
 20
-144.000000
 11
-91.250000
 21
-185.000000
  0
LINE
  8
0
 10
-71.250000
 20
-144.000000
 11
-71.250000
 21
-185.000000
  0
LINE
  8
0
 10
-51.250000
 20
-144.000000
 11
-51.250000
 21
-185.000000
  0
LINE
  8
0
 10
-31.250000
 20
-144.000000
 11
-31.250000
 21
-185.000000
  0
CIRCLE
  8
0
 10
26.000000
 20
-50.000000
 40
5.750000
  0
ARC
  8
0
 10
-28.999985
 20
10.000000
 40
9.999995
 50
334.158081
 51
25.841825
  0
CIRCLE
  8
0
 10
-8.999983
 20
49.000008
 40
7.000000
  0
CIRCLE
  8
0
  6
DASHED
 62
     2
 10
-8.999983
 20
49.000008
 40
5.000000
  0
CIRCLE
  8
0
 10
-8.999983
 20
49.000008
 40
4.300000
  0
CIRCLE
  8
0
 10
11.000015
 20
49.000008
 40
7.000000
  0
CIRCLE
  8
0
 10
11.000015
 20
49.000008
 40
4.300000
  0
CIRCLE
  8
0
  6
DASHED
 62
     2
 10
11.000015
 20
49.000008
 40
5.000000
  0
CIRCLE
  8
0
 10
11.000000
 20
-29.000004
 40
4.300000
  0
CIRCLE
  8
0
 10
-9.000000
 20
-29.000004
 40
7.000000
  0
CIRCLE
  8
0
 10
-9.000000
 20
-29.000004
 40
4.300000
  0
CIRCLE
  8
0
  6
DASHED
 62
     2
 10
-9.000000
 20
-29.000004
 40
5.000000
  0
CIRCLE
  8
0
 10
11.000000
 20
-29.000004
 40
7.000000
  0
CIRCLE
  8
0
  6
DASHED
 62
     2
 10
11.000000
 20
-29.000004
 40
5.000000
  0
CIRCLE
  8
0
 10
0.000008
 20
-50.000000
 40
5.750000
  0
CIRCLE
  8
0
 62
     2
 10
26.000000
 20
-50.000000
 40
6.600000
  0
CIRCLE
  8
0
 62
     2
 10
0.000008
 20
-50.000000
 40
6.600000
  0
ARC
  8
0
 10
204.899994
 20
-3.399988
 40
2.100000
 50
90.000000
 51
270.000000
  0
CIRCLE
  8
0
 10
170.000000
 20
-50.999996
 40
14.000001
  0
CIRCLE
  8
0
 10
170.000000
 20
71.000000
 40
14.000001
  0
ARC
  8
0
 10
135.100006
 20
23.399986
 40
2.100000
 50
270.000000
 51
90.000000
  0
ARC
  8
0
 10
135.100006
 20
-3.399988
 40
2.100000
 50
270.000000
 51
90.000000
  0
ARC
  8
0
 10
204.899994
 20
23.399986
 40
2.100000
 50
90.000000
 51
270.000000
  0
CIRCLE
  8
0
 10
148.000015
 20
82.000008
 40
4.250000
  0
CIRCLE
  8
0
 62
     2
 10
148.000015
 20
82.000008
 40
5.000000
  0
CIRCLE
  8
0
 10
148.000015
 20
-61.999985
 40
4.250000
  0
CIRCLE
  8
0
 62
     2
 10
148.000015
 20
-61.999985
 40
5.000000
  0
CIRCLE
  8
0
 10
192.000000
 20
82.000008
 40
4.250000
  0
CIRCLE
  8
0
 62
     2
 10
192.000000
 20
82.000008
 40
5.000000
  0
CIRCLE
  8
0
 10
192.000000
 20
-61.999985
 40
4.250000
  0
CIRCLE
  8
0
 62
     2
 10
192.000000
 20
-61.999985
 40
5.000000
  0
CIRCLE
  8
0
 10
170.000000
 20
10.000000
 40
32.500000
  0
CIRCLE
  8
0
 10
170.000000
 20
10.000000
 40
20.000000
  0
CIRCLE
  8
0
 10
170.000000
 20
71.000000
 40
12.500000
  0
CIRCLE
  8
0
 10
170.000000
 20
-50.999996
 40
12.500000
  0
CIRCLE
  8
0
 10
146.000000
 20
-50.000000
 40
1.750000
  0
CIRCLE
  8
0
 10
146.000000
 20
-50.000000
 40
1.500000
  0
CIRCLE
  8
0
 10
-190.000000
 20
10.000000
 40
5.600000
  0
CIRCLE
  8
0
 10
-190.000000
 20
10.000000
 40
8.750000
  0
CIRCLE
  8
0
 10
-190.000000
 20
10.000000
 40
10.000000
  0
CIRCLE
  8
0
 10
-190.000000
 20
-51.000000
 40
10.000000
  0
CIRCLE
  8
0
 10
-190.000000
 20
71.000000
 40
10.000000
  0
CIRCLE
  8
0
 62
     2
 10
-216.000000
 20
-56.000000
 40
5.000000
  0
CIRCLE
  8
0
 10
-216.000000
 20
-56.000000
 40
4.250000
  0
CIRCLE
  8
0
 10
-216.000000
 20
76.000000
 40
4.250000
  0
CIRCLE
  8
0
 62
     2
 10
-216.000000
 20
76.000000
 40
5.000000
  0
CIRCLE
  8
0
 10
-164.000000
 20
-56.000000
 40
4.250000
  0
CIRCLE
  8
0
 62
     2
 10
-164.000000
 20
-56.000000
 40
5.000000
  0
CIRCLE
  8
0
 10
-164.000000
 20
76.000000
 40
4.250000
  0
CIRCLE
  8
0
 62
     2
 10
-164.000000
 20
76.000000
 40
5.000000
  0
CIRCLE
  8
0
 10
-190.000000
 20
71.000000
 40
5.600000
  0
CIRCLE
  8
0
 10
-190.000000
 20
71.000000
 40
8.750000
  0
CIRCLE
  8
0
 10
-190.000000
 20
-51.000000
 40
8.750000
  0
CIRCLE
  8
0
 10
-190.000000
 20
-51.000000
 40
5.600000
  0
TEXT
  8
0
 10
196.250259
 20
180.830002
 40
6.300000
  1
Ver. 1.0
 50
0.000000
 41
1.052632
 51
0.000000
  7
STANDARD
  0
TEXT
  8
0
 10
167.564667
 20
-192.100006
 40
9.000000
  1
KOGANEI CORP.
 50
0.000000
 41
1.052632
 51
0.000000
  7
STANDARD
  0
TEXT
  8
0
 10
-274.349731
 20
180.830002
 40
6.300000
  1
JIG CYLINDER WITH GUIDE
 50
0.000000
 41
1.052632
 51
0.000000
  7
STANDARD
  0
TEXT
  8
0
 10
-232.249710
 20
145.830002
 40
6.300000
  1
SGDAF63*ST(10)
 50
0.000000
 41
1.052632
 51
0.000000
  7
STANDARD
  0
TEXT
  8
0
 10
-270.049713
 20
155.830002
 40
6.300000
  1
MODEL:SGDA63*ST(10)
 50
0.000000
 41
1.052632
 51
0.000000
  7
STANDARD
  0
TEXT
  8
0
 62
     3
 10
11.357143
 20
109.699997
 40
4.500000
  1
STRETCH LINE A
 50
0.000000
 41
1.052632
 51
0.000000
  7
STANDARD
  0
TEXT
  8
0
 62
     3
 10
-10.892656
 20
124.199997
 40
4.500000
  1
STRETCH LINE B
 50
0.000000
 41
1.052632
 51
0.000000
  7
STANDARD
  0
TEXT
  8
0
 10
-226.142654
 20
-157.550003
 40
4.500000
  1
10
 50
0.000000
 41
1.052632
 51
0.000000
  7
STANDARD
  0
TEXT
  8
0
 10
-206.142654
 20
-157.550003
 40
4.500000
  1
20
 50
0.000000
 41
1.052632
 51
0.000000
  7
STANDARD
  0
TEXT
  8
0
 10
-186.142654
 20
-157.550003
 40
4.500000
  1
30
 50
0.000000
 41
1.052632
 51
0.000000
  7
STANDARD
  0
TEXT
  8
0
 10
-166.142654
 20
-157.550003
 40
4.500000
  1
50
 50
0.000000
 41
1.052632
 51
0.000000
  7
STANDARD
  0
TEXT
  8
0
 10
-146.142654
 20
-157.550003
 40
4.500000
  1
75
 50
0.000000
 41
1.052632
 51
0.000000
  7
STANDARD
  0
TEXT
  8
0
 10
-128.392654
 20
-157.550003
 40
4.500000
  1
100
 50
0.000000
 41
1.052632
 51
0.000000
  7
STANDARD
  0
TEXT
  8
0
 10
-265.142670
 20
-150.550003
 40
4.500000
  1
STROKE
 50
0.000000
 41
1.052632
 51
0.000000
  7
STANDARD
  0
TEXT
  8
0
 10
-267.392670
 20
-156.324997
 40
4.500000
  1
STRETCH
 50
0.000000
 41
1.052632
 51
0.000000
  7
STANDARD
  0
TEXT
  8
0
 10
-267.392670
 20
-163.074997
 40
4.500000
  1
  PLACE
 50
0.000000
 41
1.052632
 51
0.000000
  7
STANDARD
  0
TEXT
  8
0
 10
-253.892654
 20
-173.050003
 40
4.500000
  1
A
 50
0.000000
 41
1.052632
 51
0.000000
  7
STANDARD
  0
TEXT
  8
0
 10
-253.892654
 20
-183.050003
 40
4.500000
  1
B
 50
0.000000
 41
1.052632
 51
0.000000
  7
STANDARD
  0
TEXT
  8
0
 10
-168.642654
 20
-142.050003
 40
4.500000
  1
STRETCH LIST
 50
0.000000
 41
1.052632
 51
0.000000
  7
STANDARD
  0
TEXT
  8
0
 10
-50.642658
 20
-144.050003
 40
4.500000
  1
(mm)
 50
0.000000
 41
1.052632
 51
0.000000
  7
STANDARD
  0
TEXT
  8
0
 10
-108.392654
 20
-157.550003
 40
4.500000
  1
125
 50
0.000000
 41
1.052632
 51
0.000000
  7
STANDARD
  0
TEXT
  8
0
 10
-88.392654
 20
-157.550003
 40
4.500000
  1
150
 50
0.000000
 41
1.052632
 51
0.000000
  7
STANDARD
  0
TEXT
  8
0
 10
-68.392654
 20
-157.550003
 40
4.500000
  1
175
 50
0.000000
 41
1.052632
 51
0.000000
  7
STANDARD
  0
TEXT
  8
0
 10
-48.392658
 20
-157.550003
 40
4.500000
  1
200
 50
0.000000
 41
1.052632
 51
0.000000
  7
STANDARD
  0
TEXT
  8
0
 10
-206.142654
 20
-183.050003
 40
4.500000
  1
10
 50
0.000000
 41
1.052632
 51
0.000000
  7
STANDARD
  0
TEXT
  8
0
 10
-186.142654
 20
-183.050003
 40
4.500000
  1
20
 50
0.000000
 41
1.052632
 51
0.000000
  7
STANDARD
  0
TEXT
  8
0
 10
-166.142654
 20
-183.050003
 40
4.500000
  1
40
 50
0.000000
 41
1.052632
 51
0.000000
  7
STANDARD
  0
TEXT
  8
0
 10
-146.142654
 20
-183.050003
 40
4.500000
  1
40
 50
0.000000
 41
1.052632
 51
0.000000
  7
STANDARD
  0
TEXT
  8
0
 10
-126.142654
 20
-183.050003
 40
4.500000
  1
40
 50
0.000000
 41
1.052632
 51
0.000000
  7
STANDARD
  0
TEXT
  8
0
 10
-106.142654
 20
-183.050003
 40
4.500000
  1
90
 50
0.000000
 41
1.052632
 51
0.000000
  7
STANDARD
  0
TEXT
  8
0
 10
-86.142654
 20
-183.050003
 40
4.500000
  1
90
 50
0.000000
 41
1.052632
 51
0.000000
  7
STANDARD
  0
TEXT
  8
0
 10
-66.142654
 20
-183.050003
 40
4.500000
  1
90
 50
0.000000
 41
1.052632
 51
0.000000
  7
STANDARD
  0
TEXT
  8
0
 10
-46.142658
 20
-183.050003
 40
4.500000
  1
90
 50
0.000000
 41
1.052632
 51
0.000000
  7
STANDARD
  0
TEXT
  8
0
 10
-223.892654
 20
-183.050003
 40
4.500000
  1
0
 50
0.000000
 41
1.052632
 51
0.000000
  7
STANDARD
  0
TEXT
  8
0
 10
-223.892654
 20
-173.050003
 40
4.500000
  1
0
 50
0.000000
 41
1.052632
 51
0.000000
  7
STANDARD
  0
TEXT
  8
0
 10
-48.392658
 20
-173.050003
 40
4.500000
  1
100
 50
0.000000
 41
1.052632
 51
0.000000
  7
STANDARD
  0
TEXT
  8
0
 10
-66.142654
 20
-173.050003
 40
4.500000
  1
75
 50
0.000000
 41
1.052632
 51
0.000000
  7
STANDARD
  0
TEXT
  8
0
 10
-86.142654
 20
-173.050003
 40
4.500000
  1
50
 50
0.000000
 41
1.052632
 51
0.000000
  7
STANDARD
  0
TEXT
  8
0
 10
-106.142654
 20
-173.050003
 40
4.500000
  1
25
 50
0.000000
 41
1.052632
 51
0.000000
  7
STANDARD
  0
TEXT
  8
0
 10
-126.142654
 20
-173.050003
 40
4.500000
  1
50
 50
0.000000
 41
1.052632
 51
0.000000
  7
STANDARD
  0
TEXT
  8
0
 10
-146.142654
 20
-173.050003
 40
4.500000
  1
25
 50
0.000000
 41
1.052632
 51
0.000000
  7
STANDARD
  0
TEXT
  8
0
 10
-163.892654
 20
-173.050003
 40
4.500000
  1
0
 50
0.000000
 41
1.052632
 51
0.000000
  7
STANDARD
  0
TEXT
  8
0
 10
-183.892654
 20
-173.050003
 40
4.500000
  1
0
 50
0.000000
 41
1.052632
 51
0.000000
  7
STANDARD
  0
TEXT
  8
0
 10
-203.892654
 20
-173.050003
 40
4.500000
  1
0
 50
0.000000
 41
1.052632
 51
0.000000
  7
STANDARD
  0
TEXT
  8
0
 62
     2
 10
92.598328
 20
-100.000000
 40
3.200000
  1
STROKE=75-200
 50
0.000000
 41
1.052632
 51
0.000000
  7
STANDARD
  0
LINE
  8
0
 62
     2
 10
79.000008
 20
-101.000000
 11
133.948334
 21
-101.000000
  0
LINE
  8
0
 62
     2
 10
40.000008
 20
-101.000000
 11
79.000008
 21
-101.000000
  0
LINE
  8
0
 62
     2
 10
40.000008
 20
-101.000000
 11
42.897785
 21
-100.223541
  0
LINE
  8
0
 62
     2
 10
40.000008
 20
-101.000000
 11
42.897785
 21
-101.776459
  0
LINE
  8
0
 62
     2
 10
79.000008
 20
-101.000000
 11
76.102234
 21
-101.776459
  0
LINE
  8
0
 62
     2
 10
79.000008
 20
-101.000000
 11
76.102234
 21
-100.223541
  0
LINE
  8
0
 62
     2
 10
40.000008
 20
-70.499985
 11
40.000008
 21
-102.500000
  0
LINE
  8
0
 62
     2
 10
79.000008
 20
-63.000000
 11
79.000008
 21
-102.500000
  0
ENDSEC
  0
EOF
