  0
SECTION
  2
HEADER
  0
ENDSEC
  0
SECTION
  2
TABLES
  0
TABLE
  2
LTYPE
 70
     4
  0
LTYPE
  2
CONTINUOUS
 70
    64
  3
Solid line
 72
    65
 73
     0
 40
0.000000
  0
LTYPE
  2
DASHED
 70
    64
  3
__ __ __ __ __ __ __ __ __ __ __ __ __ __ __
 72
    65
 73
     2
 40
3.500000
 49
2.000000
 49
-1.500000
  0
LTYPE
  2
CENTER
 70
    64
  3
____ _ ____ _ ____ _ ____ _ ____ _ ____ _ ____
 72
    65
 73
     4
 40
17.500000
 49
13.000000
 49
-1.500000
 49
1.500000
 49
-1.500000
  0
LTYPE
  2
PHANTOM
 70
    64
  3
_____ _ _ _____ _ _ _____ _ _ _____ _ _ ____  
 72
    65
 73
     6
 40
15.500000
 49
8.000000
 49
-1.500000
 49
1.500000
 49
-1.500000
 49
1.500000
 49
-1.500000
  0
LTYPE
  2
DASHED1
 70
    64
  3
__ __ __ __ __ __ __ __ __ __ __ __ __ __ __
 72
    65
 73
     2
 40
1.500000
 49
1.000000
 49
-0.500000
  0
LTYPE
  2
DASHED2
 70
    64
  3
__ __ __ __ __ __ __ __ __ __ __ __ __ __ __
 72
    65
 73
     2
 40
3.500000
 49
2.500000
 49
-1.000000
  0
LTYPE
  2
DASHED3
 70
    64
  3
__ __ __ __ __ __ __ __ __ __ __ __ __ __ __
 72
    65
 73
     2
 40
6.000000
 49
4.000000
 49
-2.000000
  0
LTYPE
  2
DASHED4
 70
    64
  3
__ __ __ __ __ __ __ __ __ __ __ __ __ __ __
 72
    65
 73
     2
 40
12.000000
 49
10.000000
 49
-2.000000
  0
LTYPE
  2
DASHED5
 70
    64
  3
__ __ __ __ __ __ __ __ __ __ __ __ __ __ __
 72
    65
 73
     2
 40
17.000000
 49
15.000000
 49
-2.000000
  0
LTYPE
  2
DASHED6
 70
    64
  3
__ __ __ __ __ __ __ __ __ __ __ __ __ __ __
 72
    65
 73
     2
 40
29.000000
 49
27.000000
 49
-2.000000
  0
LTYPE
  2
PHANTOM1
 70
    64
  3
_____ _ _ _____ _ _ _____ _ _ _____ _ _ ____  
 72
    65
 73
     6
 40
31.000000
 49
25.000000
 49
-1.500000
 49
1.000000
 49
-1.000000
 49
1.000000
 49
-1.500000
  0
LTYPE
  2
PHANTOM2
 70
    64
  3
_____ _ _ _____ _ _ _____ _ _ _____ _ _ ____  
 72
    65
 73
     6
 40
36.000000
 49
27.000000
 49
-1.500000
 49
2.500000
 49
-1.000000
 49
2.500000
 49
-1.500000
  0
LTYPE
  2
PHANTOM3
 70
    64
  3
_____ _ _ _____ _ _ _____ _ _ _____ _ _ ____  
 72
    65
 73
     6
 40
78.000000
 49
64.000000
 49
-2.000000
 49
4.000000
 49
-2.000000
 49
4.000000
 49
-2.000000
  0
LTYPE
  2
CENTER1
 70
    64
  3
____ _ ____ _ ____ _ ____ _ ____ _ ____ _ ____
 72
    65
 73
     4
 40
19.000000
 49
14.000000
 49
-1.000000
 49
3.000000
 49
-1.000000
  0
LTYPE
  2
CENTER2
 70
    64
  3
____ _ ____ _ ____ _ ____ _ ____ _ ____ _ ____
 72
    65
 73
     4
 40
28.500000
 49
25.000000
 49
-1.000000
 49
1.500000
 49
-1.000000
  0
LTYPE
  2
CENTER3
 70
    64
  3
____ _ ____ _ ____ _ ____ _ ____ _ ____ _ ____
 72
    65
 73
     4
 40
31.500000
 49
27.000000
 49
-1.000000
 49
2.500000
 49
-1.000000
  0
LTYPE
  2
CENTER4
 70
    64
  3
____ _ ____ _ ____ _ ____ _ ____ _ ____ _ ____
 72
    65
 73
     4
 40
50.000000
 49
45.000000
 49
-1.000000
 49
3.000000
 49
-1.000000
  0
LTYPE
  2
CENTER5
 70
    64
  3
____ _ ____ _ ____ _ ____ _ ____ _ ____ _ ____
 72
    65
 73
     4
 40
100.000000
 49
92.000000
 49
-2.000000
 49
4.000000
 49
-2.000000
  0
LTYPE
  2
SBK1
 70
    64
  3
______ _ _ _ ______ _ _ _ ______ _ _ _ _____  
 72
    65
 73
     8
 40
60.500000
 49
45.000000
 49
-2.000000
 49
2.500000
 49
-2.000000
 49
2.500000
 49
-2.000000
 49
2.500000
 49
-2.000000
  0
LTYPE
  2
SBK2
 70
    64
  3
______ _ _ _ ______ _ _ _ ______ _ _ _ _____  
 72
    65
 73
     8
 40
84.000000
 49
64.000000
 49
-2.000000
 49
4.000000
 49
-2.000000
 49
4.000000
 49
-2.000000
 49
4.000000
 49
-2.000000
  0
LTYPE
  2
STCH
 70
    64
  3
__ __ __ __ __ __ __ __ __ __ __ __ __ __ __
 72
    65
 73
     2
 40
3.000000
 49
1.000000
 49
-2.000000
  0
LTYPE
  2
MTCH
 70
    64
  3
_____ _ _ _____ _ _ _____ _ _ _____ _ _ ____  
 72
    65
 73
     6
 40
80.000000
 49
66.000000
 49
-2.000000
 49
4.000000
 49
-2.000000
 49
4.000000
 49
-2.000000
  0
ENDTAB
  0
TABLE
  2
LAYER
 70
     1
  0
LAYER
  2
0
 70
     0
 62
     7
  6
CONTINUOUS
  0
ENDTAB
  0
TABLE
  2
STYLE
 70
     1
  0
STYLE
  2
STANDARD
 70
     0
 40
0.000000
 41
1.000000
 50
0.000000
 71
     0
 42
0.200000
  3
txt
  4
BIGFONT
  0
ENDTAB
  0
TABLE
  2
VIEW
 70
     0
  0
ENDTAB
  0
ENDSEC
  0
SECTION
  2
BLOCKS
  0
ENDSEC
  0
SECTION
  2
ENTITIES
  0
LINE
  8
0
 10
-1.198059
 20
-84.229568
 11
42.441956
 21
-84.229568
  0
LINE
  8
0
 10
1.161942
 20
-82.639572
 11
42.441956
 21
-82.639572
  0
LINE
  8
0
 10
2.731949
 20
-80.829567
 11
42.441956
 21
-80.829567
  0
LINE
  8
0
 10
4.151947
 20
-77.629570
 11
42.441956
 21
-77.629570
  0
LINE
  8
0
 10
4.151947
 20
-72.829567
 11
42.441956
 21
-72.829567
  0
LINE
  8
0
 10
2.731949
 20
-69.629570
 11
42.441956
 21
-69.629570
  0
LINE
  8
0
 10
-1.198059
 20
-66.229568
 11
42.441956
 21
-66.229568
  0
LINE
  8
0
 10
1.161942
 20
-67.829567
 11
42.441956
 21
-67.829567
  0
LINE
  8
0
  6
CENTER
 62
     2
 10
-5.558044
 20
-64.009567
 11
-5.558044
 21
-86.919571
  0
LINE
  8
0
 10
-23.558044
 20
-50.379578
 11
42.441956
 21
-50.379578
  0
LINE
  8
0
 10
-23.558044
 20
-46.079575
 11
42.441956
 21
-46.079575
  0
LINE
  8
0
  6
CENTER
 62
     2
 10
-3.918045
 20
-60.229568
 11
8.721954
 21
-60.229568
  0
LINE
  8
0
  6
CENTER
 62
     2
 10
2.441956
 20
-54.119583
 11
2.441956
 21
-66.509567
  0
LINE
  8
0
  6
CENTER
 62
     2
 10
-17.558044
 20
-53.989578
 11
-17.558044
 21
-66.509567
  0
LINE
  8
0
  6
CENTER
 62
     2
 10
22.441956
 20
-111.779556
 11
22.441956
 21
-117.139557
  0
LINE
  8
0
  6
CENTER
 62
     2
 10
-12.558044
 20
-96.229568
 11
-12.558044
 21
-117.659561
  0
LINE
  8
0
  6
DASHED
 62
     2
 10
26.721954
 20
-113.289566
 11
26.721954
 21
-116.229568
  0
LINE
  8
0
  6
DASHED
 62
     2
 10
27.161955
 20
-113.289558
 11
27.301954
 21
-116.229561
  0
LINE
  8
0
  6
DASHED
 62
     2
 10
17.711950
 20
-113.289574
 11
17.571951
 21
-116.229561
  0
LINE
  8
0
  6
DASHED
 62
     2
 10
18.151947
 20
-113.289566
 11
18.151947
 21
-116.229568
  0
LINE
  8
0
  6
DASHED
 62
     2
 10
-7.828058
 20
-113.289551
 11
-7.688058
 21
-116.229553
  0
LINE
  8
0
  6
CENTER
 62
     2
 10
-18.448059
 20
-102.229568
 11
-6.618057
 21
-102.229568
  0
LINE
  8
0
  6
DASHED
 62
     2
 10
-8.268051
 20
-113.289566
 11
-8.268051
 21
-116.229568
  0
LINE
  8
0
  6
DASHED
 62
     2
 10
-17.278048
 20
-113.289566
 11
-17.418047
 21
-116.229568
  0
LINE
  8
0
  6
DASHED
 62
     2
 10
-16.838058
 20
-113.289566
 11
-16.838058
 21
-116.229568
  0
LINE
  8
0
  6
CENTER
 62
     2
 10
32.441956
 20
-95.919556
 11
32.441956
 21
-117.659561
  0
LINE
  8
0
 10
-23.558046
 20
-115.729561
 11
-23.058046
 21
-116.229561
  0
LINE
  8
0
 10
42.441948
 20
-115.729568
 11
41.941948
 21
-116.229568
  0
LINE
  8
0
  6
CENTER
 62
     2
 10
26.571945
 20
-102.229568
 11
43.641953
 21
-102.229568
  0
LINE
  8
0
 10
-23.558044
 20
-115.229568
 11
42.441956
 21
-115.229568
  0
LINE
  8
0
 10
-23.558044
 20
-84.229568
 11
-9.908051
 21
-84.229568
  0
LINE
  8
0
 10
-23.558044
 20
-82.639572
 11
-12.268051
 21
-82.639572
  0
LINE
  8
0
 10
-23.558044
 20
-80.829567
 11
-13.838058
 21
-80.829567
  0
LINE
  8
0
 10
-23.558044
 20
-77.629570
 11
-15.258057
 21
-77.629570
  0
LINE
  8
0
  6
CENTER
 62
     2
 10
-3.488052
 20
-90.229568
 11
8.611954
 21
-90.229568
  0
LINE
  8
0
 10
-23.058044
 20
-116.229568
 11
41.941956
 21
-116.229568
  0
LINE
  8
0
  6
CENTER
 62
     2
 10
-41.848045
 20
-75.229568
 11
44.671951
 21
-75.229568
  0
LINE
  8
0
 10
42.441956
 20
-34.729568
 11
42.441956
 21
-115.729568
  0
LINE
  8
0
 10
-23.558044
 20
-34.729568
 11
-23.558044
 21
-115.729568
  0
LINE
  8
0
  6
CENTER
 62
     2
 10
-23.018051
 20
-90.229568
 11
-11.438049
 21
-90.229568
  0
LINE
  8
0
  6
CENTER
 62
     2
 10
-17.558044
 20
-84.189568
 11
-17.558044
 21
-96.269562
  0
LINE
  8
0
  6
CENTER
 62
     2
 10
2.441956
 20
-84.189568
 11
2.441956
 21
-96.099564
  0
LINE
  8
0
 10
-27.558044
 20
-53.229568
 11
-23.558044
 21
-53.229568
  0
LINE
  8
0
 10
-27.558044
 20
-39.229568
 11
-23.558044
 21
-39.229568
  0
LINE
  8
0
  6
DASHED
 62
     2
 10
49.441944
 20
-52.729576
 11
48.941944
 21
-53.229576
  0
LINE
  8
0
  6
DASHED
 62
     2
 10
48.941944
 20
-39.229561
 11
49.441944
 21
-39.729561
  0
LINE
  8
0
  6
DASHED
 62
     2
 10
49.441956
 20
-39.729568
 11
49.441956
 21
-52.729568
  0
LINE
  8
0
  6
DASHED
 62
     2
 10
42.441956
 20
-53.229568
 11
48.941956
 21
-53.229568
  0
LINE
  8
0
  6
DASHED
 62
     2
 10
42.441956
 20
-39.229568
 11
48.941956
 21
-39.229568
  0
LINE
  8
0
  6
DASHED
 62
     2
 10
49.441944
 20
-110.729576
 11
48.941944
 21
-111.229576
  0
LINE
  8
0
  6
DASHED
 62
     2
 10
48.941944
 20
-97.229561
 11
49.441944
 21
-97.729561
  0
LINE
  8
0
  6
DASHED
 62
     2
 10
49.441956
 20
-97.729568
 11
49.441956
 21
-110.729568
  0
LINE
  8
0
  6
DASHED
 62
     2
 10
42.441956
 20
-111.229568
 11
48.941956
 21
-111.229568
  0
LINE
  8
0
  6
DASHED
 62
     2
 10
42.441956
 20
-97.229568
 11
48.941956
 21
-97.229568
  0
LINE
  8
0
  6
CENTER
 62
     2
 10
-42.368042
 20
-104.229568
 11
-20.988052
 21
-104.229568
  0
LINE
  8
0
 10
-27.558044
 20
-72.229568
 11
-26.058044
 21
-72.229568
  0
LINE
  8
0
 10
-23.558044
 20
-36.229568
 11
42.441956
 21
-36.229568
  0
LINE
  8
0
 10
-23.558044
 20
-72.829567
 11
-15.258057
 21
-72.829567
  0
LINE
  8
0
 10
-23.558044
 20
-69.629570
 11
-13.838058
 21
-69.629570
  0
LINE
  8
0
 10
-23.558044
 20
-67.829567
 11
-12.268051
 21
-67.829567
  0
LINE
  8
0
 10
-23.558044
 20
-66.229568
 11
-9.908051
 21
-66.229568
  0
LINE
  8
0
  6
CENTER
 62
     2
 10
-23.018051
 20
-60.229568
 11
-11.438049
 21
-60.229568
  0
LINE
  8
0
 10
41.941948
 20
-34.229568
 11
42.441948
 21
-34.729568
  0
LINE
  8
0
 10
-23.058046
 20
-34.229580
 11
-23.558046
 21
-34.729580
  0
LINE
  8
0
 10
-28.558043
 20
-35.229580
 11
-27.558043
 21
-36.229580
  0
LINE
  8
0
 10
-38.558056
 20
-35.229580
 11
-39.558044
 21
-36.229568
  0
LINE
  8
0
 10
-28.558046
 20
-115.229561
 11
-27.558043
 21
-114.229546
  0
LINE
  8
0
 10
-39.558044
 20
-114.229576
 11
-38.558056
 21
-115.229561
  0
LINE
  8
0
  6
CENTER
 62
     2
 10
-42.068043
 20
-46.229568
 11
-20.988052
 21
-46.229568
  0
LINE
  8
0
 10
-27.558044
 20
-80.229568
 11
-23.558044
 21
-80.229568
  0
LINE
  8
0
 62
     2
 10
-26.058044
 20
-72.229568
 11
-27.558043
 21
-76.729568
  0
LINE
  8
0
 62
     2
 10
-27.558046
 20
-73.729568
 11
-26.058046
 21
-78.229568
  0
LINE
  8
0
 10
-27.558044
 20
-78.229568
 11
-26.058044
 21
-78.229568
  0
LINE
  8
0
 10
-26.058044
 20
-72.229568
 11
-26.058044
 21
-78.229568
  0
LINE
  8
0
 10
-27.558044
 20
-111.229568
 11
-23.558044
 21
-111.229568
  0
LINE
  8
0
 10
-27.558044
 20
-97.229568
 11
-23.558044
 21
-97.229568
  0
LINE
  8
0
 10
-38.558044
 20
-115.229568
 11
-28.558044
 21
-115.229568
  0
LINE
  8
0
 10
-38.558044
 20
-35.229568
 11
-28.558044
 21
-35.229568
  0
LINE
  8
0
 10
-23.058044
 20
-34.229568
 11
41.941956
 21
-34.229568
  0
LINE
  8
0
 10
-39.558044
 20
-36.229568
 11
-39.558044
 21
-114.229568
  0
LINE
  8
0
 10
-27.558044
 20
-36.229568
 11
-27.558044
 21
-114.229568
  0
LINE
  8
0
 10
-27.558044
 20
-70.229568
 11
-23.558044
 21
-70.229568
  0
LINE
  8
0
  6
PHANTOM
 62
     3
 10
-17.035599
 20
-81.482918
 11
-17.035599
 21
-68.830772
  0
LINE
  8
0
  6
PHANTOM
 62
     3
 10
-8.501129
 20
-61.823505
 11
-8.501129
 21
-20.612152
  0
LINE
  8
0
  6
PHANTOM
 62
     3
 10
13.116180
 20
-123.872513
 11
13.116180
 21
-27.276047
  0
LINE
  8
0
  6
PHANTOM
 62
     3
 10
-5.413145
 20
-91.466080
 11
-17.035601
 21
-81.482910
  0
LINE
  8
0
  6
PHANTOM
 62
     3
 10
-17.035591
 20
-68.830772
 11
-8.501133
 21
-61.823509
  0
LINE
  8
0
  6
PHANTOM
 62
     3
 10
-5.413147
 20
-123.872513
 11
-5.413147
 21
-91.466080
  0
LINE
  8
0
 10
183.441940
 20
55.420425
 11
183.441940
 21
50.120422
  0
LINE
  8
0
 10
183.441940
 20
87.640419
 11
183.441940
 21
71.900414
  0
LINE
  8
0
 10
147.441940
 20
108.920410
 11
147.441940
 21
104.620407
  0
LINE
  8
0
 10
183.441940
 20
109.420410
 11
183.441940
 21
104.120407
  0
LINE
  8
0
  6
CENTER
 62
     2
 10
145.256073
 20
106.770416
 11
153.791946
 21
106.770416
  0
LINE
  8
0
  6
CENTER
 62
     2
 10
174.061935
 20
43.770416
 11
182.511932
 21
43.770416
  0
LINE
  8
0
  6
CENTER
 62
     2
 10
178.441940
 20
47.820419
 11
178.441940
 21
39.710419
  0
LINE
  8
0
  6
CENTER
 62
     2
 10
151.541946
 20
52.770416
 11
155.401947
 21
52.770416
  0
LINE
  8
0
  6
CENTER
 62
     2
 10
151.941940
 20
43.020416
 11
151.941940
 21
37.890427
  0
LINE
  8
0
  6
CENTER
 62
     2
 10
153.441940
 20
54.630417
 11
153.441940
 21
50.820419
  0
LINE
  8
0
 10
173.421936
 20
51.270416
 11
177.941940
 21
51.270416
  0
LINE
  8
0
 10
172.631943
 20
54.270416
 11
177.941940
 21
54.270416
  0
LINE
  8
0
 10
172.631943
 20
105.270416
 11
177.941940
 21
105.270416
  0
LINE
  8
0
 10
173.421936
 20
108.270416
 11
177.941940
 21
108.270416
  0
LINE
  8
0
  6
CENTER
 62
     2
 10
176.621933
 20
106.770416
 11
185.906555
 21
106.770416
  0
LINE
  8
0
  6
CENTER
 62
     2
 10
176.751938
 20
52.770416
 11
185.906555
 21
52.770416
  0
LINE
  8
0
 10
177.941940
 20
56.920425
 11
177.941940
 21
48.620422
  0
LINE
  8
0
  6
DASHED
 62
     2
 10
156.661942
 20
41.710426
 11
156.801941
 21
38.770428
  0
LINE
  8
0
  6
DASHED
 62
     2
 10
156.221939
 20
41.710419
 11
156.221939
 21
38.770416
  0
LINE
  8
0
  6
DASHED
 62
     2
 10
147.651947
 20
41.710419
 11
147.651947
 21
38.770416
  0
LINE
  8
0
  6
DASHED
 62
     2
 10
147.211945
 20
41.710419
 11
147.071945
 21
38.770420
  0
LINE
  8
0
 10
145.441940
 20
39.770420
 11
146.441940
 21
38.770424
  0
LINE
  8
0
 10
148.441940
 20
108.920410
 11
148.441940
 21
110.420410
  0
LINE
  8
0
 10
145.441940
 20
104.620407
 11
145.441940
 21
39.770416
  0
LINE
  8
0
 10
148.441940
 20
103.120407
 11
152.441940
 21
103.120407
  0
LINE
  8
0
 10
148.441940
 20
110.420410
 11
152.441940
 21
110.420410
  0
LINE
  8
0
 10
152.441940
 20
110.420410
 11
152.441940
 21
103.120407
  0
LINE
  8
0
 10
148.441940
 20
104.620407
 11
148.441940
 21
103.120407
  0
LINE
  8
0
 10
145.441940
 20
104.620407
 11
148.441940
 21
104.620407
  0
LINE
  8
0
 10
145.441940
 20
108.920410
 11
148.441940
 21
108.920410
  0
LINE
  8
0
 10
185.441940
 20
40.770416
 11
185.441940
 21
50.120422
  0
LINE
  8
0
 10
182.441940
 20
50.120422
 11
185.441940
 21
50.120422
  0
LINE
  8
0
 10
182.441940
 20
48.620422
 11
182.441940
 21
50.120422
  0
LINE
  8
0
 10
177.941940
 20
48.620422
 11
182.441940
 21
48.620422
  0
LINE
  8
0
 10
177.941940
 20
56.920425
 11
182.441940
 21
56.920425
  0
LINE
  8
0
 10
182.441940
 20
55.420425
 11
182.441940
 21
56.920425
  0
LINE
  8
0
 10
182.441940
 20
55.420425
 11
185.441940
 21
55.420425
  0
LINE
  8
0
 10
185.441940
 20
55.420425
 11
185.441940
 21
70.770416
  0
LINE
  8
0
 10
185.441940
 20
104.120407
 11
185.441940
 21
88.770416
  0
LINE
  8
0
 10
182.441940
 20
104.120407
 11
185.441940
 21
104.120407
  0
LINE
  8
0
 10
182.441940
 20
104.120407
 11
182.441940
 21
102.620407
  0
LINE
  8
0
 10
177.941940
 20
102.620407
 11
182.441940
 21
102.620407
  0
LINE
  8
0
 10
177.941940
 20
110.920410
 11
177.941940
 21
102.620407
  0
LINE
  8
0
 10
182.441940
 20
109.420410
 11
185.441940
 21
109.420410
  0
LINE
  8
0
 10
177.941940
 20
110.920410
 11
182.441940
 21
110.920410
  0
LINE
  8
0
 10
182.441940
 20
110.920410
 11
182.441940
 21
109.420410
  0
LINE
  8
0
 10
185.441940
 20
118.770416
 11
185.441940
 21
109.420410
  0
LINE
  8
0
  6
CENTER
 62
     2
 10
178.441940
 20
111.720413
 11
178.441940
 21
119.830414
  0
LINE
  8
0
  6
CENTER
 62
     2
 10
152.441940
 20
111.720413
 11
152.441940
 21
120.180405
  0
LINE
  8
0
  6
CENTER
 62
     2
 10
174.451935
 20
115.770416
 11
182.511932
 21
115.770416
  0
LINE
  8
0
  6
CENTER
 62
     2
 10
148.061951
 20
43.770416
 11
156.511948
 21
43.770416
  0
LINE
  8
0
 10
183.141922
 20
72.060432
 11
185.441940
 21
70.770424
  0
LINE
  8
0
 10
183.141937
 20
74.170418
 11
183.141937
 21
72.060417
  0
LINE
  8
0
 10
183.141937
 20
74.170418
 11
182.641937
 21
74.170418
  0
LINE
  8
0
 10
183.141937
 20
77.370415
 11
182.641937
 21
77.370415
  0
LINE
  8
0
 10
183.141937
 20
82.170418
 11
183.141937
 21
77.370415
  0
LINE
  8
0
 10
183.141937
 20
82.170418
 11
182.641937
 21
82.170418
  0
LINE
  8
0
 10
183.141937
 20
85.370415
 11
182.641937
 21
85.370415
  0
LINE
  8
0
 10
183.141937
 20
87.470413
 11
183.141937
 21
85.370415
  0
LINE
  8
0
 10
183.141937
 20
87.470413
 11
185.441940
 21
88.770424
  0
LINE
  8
0
 10
147.731949
 20
74.170418
 11
147.731949
 21
72.060417
  0
LINE
  8
0
 10
147.731949
 20
82.170418
 11
147.731949
 21
77.370415
  0
LINE
  8
0
 10
147.731949
 20
87.470413
 11
147.731949
 21
85.370415
  0
LINE
  8
0
 10
147.731949
 20
87.470413
 11
145.441940
 21
88.770416
  0
LINE
  8
0
 10
147.731949
 20
72.060425
 11
145.441940
 21
70.770416
  0
LINE
  8
0
 10
145.441940
 20
118.770416
 11
145.441940
 21
108.920410
  0
LINE
  8
0
  6
CENTER
 62
     2
 10
152.441940
 20
47.820419
 11
152.441940
 21
39.710419
  0
LINE
  8
0
 10
182.641937
 20
77.370407
 11
182.141937
 21
77.870407
  0
LINE
  8
0
 10
182.141937
 20
77.870415
 11
180.541946
 21
77.870415
  0
LINE
  8
0
 10
182.141937
 20
73.670418
 11
180.541946
 21
73.670418
  0
LINE
  8
0
 10
182.641937
 20
74.170425
 11
182.141937
 21
73.670425
  0
LINE
  8
0
 10
182.641937
 20
82.170418
 11
182.141937
 21
81.670418
  0
LINE
  8
0
 10
182.141937
 20
81.670418
 11
180.541946
 21
81.670418
  0
LINE
  8
0
 10
182.141937
 20
85.870415
 11
180.541946
 21
85.870415
  0
LINE
  8
0
 10
182.641937
 20
85.370407
 11
182.141937
 21
85.870415
  0
LINE
  8
0
 10
147.731949
 20
77.370415
 11
148.231949
 21
77.370415
  0
LINE
  8
0
 10
148.231934
 20
77.370415
 11
148.731934
 21
77.870415
  0
LINE
  8
0
 10
148.731949
 20
77.870415
 11
150.331940
 21
77.870415
  0
LINE
  8
0
 10
148.731949
 20
73.670418
 11
150.331940
 21
73.670418
  0
LINE
  8
0
 10
148.231949
 20
74.170418
 11
148.731949
 21
73.670418
  0
LINE
  8
0
 10
147.731949
 20
74.170418
 11
148.231949
 21
74.170418
  0
LINE
  8
0
 10
148.731949
 20
81.670418
 11
150.331940
 21
81.670418
  0
LINE
  8
0
 10
148.231934
 20
82.170418
 11
148.731934
 21
81.670418
  0
LINE
  8
0
 10
147.731949
 20
82.170418
 11
148.231949
 21
82.170418
  0
LINE
  8
0
 10
148.231949
 20
85.370407
 11
148.731949
 21
85.870407
  0
LINE
  8
0
 10
147.731949
 20
85.370415
 11
148.231949
 21
85.370415
  0
LINE
  8
0
 10
148.731949
 20
85.870415
 11
150.331940
 21
85.870415
  0
LINE
  8
0
 10
183.441971
 20
120.770416
 11
185.441940
 21
118.770432
  0
LINE
  8
0
 10
183.441971
 20
38.770435
 11
185.441940
 21
40.770416
  0
LINE
  8
0
 10
147.441925
 20
120.770409
 11
145.441940
 21
118.770416
  0
LINE
  8
0
  6
CENTER
 62
     2
 10
154.641937
 20
50.770416
 11
176.631943
 21
50.770416
  0
LINE
  8
0
  6
CENTER
 62
     2
 10
143.901947
 20
79.770416
 11
186.571930
 21
79.770416
  0
LINE
  8
0
  6
CENTER
 62
     2
 10
148.351944
 20
115.770416
 11
156.791946
 21
115.770416
  0
LINE
  8
0
  6
CENTER
 62
     2
 10
155.481934
 20
108.770416
 11
175.931946
 21
108.770416
  0
LINE
  8
0
 10
147.441940
 20
120.770416
 11
183.441940
 21
120.770416
  0
LINE
  8
0
 10
146.441940
 20
38.770416
 11
183.441940
 21
38.770416
  0
LINE
  8
0
  6
CENTER
 62
     2
 10
165.441940
 20
123.430405
 11
165.441940
 21
35.460419
  0
LINE
  8
0
  6
CENTER
 62
     2
 10
-169.808044
 20
50.770416
 11
-155.258041
 21
50.770416
  0
LINE
  8
0
  6
CENTER
 62
     2
 10
-154.658051
 20
46.770416
 11
-146.268051
 21
46.770416
  0
LINE
  8
0
  6
CENTER
 62
     2
 10
-169.948044
 20
108.770416
 11
-154.978043
 21
108.770416
  0
LINE
  8
0
  6
CENTER
 62
     2
 10
-155.328049
 20
112.770416
 11
-145.688049
 21
112.770416
  0
LINE
  8
0
  6
CENTER
 62
     2
 10
-150.558044
 20
117.570404
 11
-150.558044
 21
108.080414
  0
LINE
  8
0
  6
CENTER
 62
     2
 10
-174.558044
 20
117.640411
 11
-174.558044
 21
107.870407
  0
LINE
  8
0
  6
CENTER
 62
     2
 10
-183.798035
 20
79.770416
 11
-141.028046
 21
79.770416
  0
LINE
  8
0
  6
CENTER
 62
     2
 10
-162.558044
 20
123.840408
 11
-162.558044
 21
35.880417
  0
LINE
  8
0
 10
-180.558044
 20
118.770416
 11
-180.558044
 21
40.770416
  0
LINE
  8
0
 10
-144.558044
 20
118.770416
 11
-144.558044
 21
40.770416
  0
LINE
  8
0
 10
-160.558044
 20
51.930420
 11
-160.558044
 21
49.620422
  0
LINE
  8
0
 10
-160.558044
 20
49.620426
 11
-162.558044
 21
48.470428
  0
LINE
  8
0
 10
-162.558044
 20
48.470432
 11
-164.558044
 21
49.620426
  0
LINE
  8
0
 10
-164.558044
 20
51.930420
 11
-164.558044
 21
49.620422
  0
LINE
  8
0
 10
-162.558044
 20
53.080429
 11
-164.558044
 21
51.930428
  0
LINE
  8
0
 10
-162.558060
 20
53.080421
 11
-160.558044
 21
51.930416
  0
LINE
  8
0
 10
-160.558044
 20
80.920418
 11
-160.558044
 21
78.610413
  0
LINE
  8
0
 10
-160.558044
 20
78.610413
 11
-162.558044
 21
77.460419
  0
LINE
  8
0
 10
-162.558044
 20
77.460419
 11
-164.558044
 21
78.610413
  0
LINE
  8
0
 10
-164.558044
 20
80.920418
 11
-164.558044
 21
78.610413
  0
LINE
  8
0
 10
-162.558044
 20
82.070427
 11
-164.558044
 21
80.920425
  0
LINE
  8
0
 10
-162.558044
 20
82.070419
 11
-160.558044
 21
80.920418
  0
LINE
  8
0
 10
-162.558060
 20
111.070404
 11
-160.558060
 21
109.920403
  0
LINE
  8
0
 10
-160.558044
 20
109.920410
 11
-160.558044
 21
107.610413
  0
LINE
  8
0
 10
-160.558044
 20
107.610420
 11
-162.558044
 21
106.460419
  0
LINE
  8
0
 10
-162.558044
 20
106.460411
 11
-164.558044
 21
107.610413
  0
LINE
  8
0
 10
-164.558044
 20
109.920410
 11
-164.558044
 21
107.610413
  0
LINE
  8
0
 10
-162.558044
 20
111.070412
 11
-164.558044
 21
109.920410
  0
LINE
  8
0
  6
CENTER
 62
     2
 10
-150.558044
 20
42.170425
 11
-150.558044
 21
51.260422
  0
LINE
  8
0
  6
CENTER
 62
     2
 10
-179.978043
 20
112.770416
 11
-168.588043
 21
112.770416
  0
LINE
  8
0
  6
CENTER
 62
     2
 10
-179.218033
 20
46.770416
 11
-169.988037
 21
46.770416
  0
LINE
  8
0
  6
CENTER
 62
     2
 10
-174.558044
 20
42.220428
 11
-174.558044
 21
51.260422
  0
LINE
  8
0
 10
-144.558044
 20
40.770412
 11
-145.558044
 21
39.770420
  0
LINE
  8
0
 10
-180.558044
 20
40.770409
 11
-179.558044
 21
39.770424
  0
LINE
  8
0
 10
-145.558044
 20
119.770409
 11
-144.558044
 21
118.770424
  0
LINE
  8
0
 10
-179.558044
 20
119.770401
 11
-180.558044
 21
118.770409
  0
LINE
  8
0
 10
-179.558044
 20
39.770416
 11
-145.558044
 21
39.770416
  0
LINE
  8
0
 10
-179.558044
 20
119.770416
 11
-145.558044
 21
119.770416
  0
LINE
  8
0
 10
-142.558044
 20
39.770412
 11
-143.558044
 21
38.770416
  0
LINE
  8
0
 10
-182.558044
 20
40.770416
 11
-182.558044
 21
50.120422
  0
LINE
  8
0
 10
-182.558044
 20
55.420425
 11
-182.558044
 21
70.770416
  0
LINE
  8
0
 10
-180.558044
 20
55.420425
 11
-182.558044
 21
55.420425
  0
LINE
  8
0
 10
-180.558044
 20
50.120422
 11
-182.558044
 21
50.120422
  0
LINE
  8
0
 10
-142.558044
 20
108.920410
 11
-144.558044
 21
108.920410
  0
LINE
  8
0
 10
-142.558044
 20
104.620407
 11
-144.558044
 21
104.620407
  0
LINE
  8
0
 10
-180.558044
 20
104.120407
 11
-182.558044
 21
104.120407
  0
LINE
  8
0
 10
-180.558044
 20
109.420410
 11
-182.558044
 21
109.420410
  0
LINE
  8
0
 10
-180.558014
 20
71.900414
 11
-182.558014
 21
70.770416
  0
LINE
  8
0
 10
-180.558029
 20
87.640411
 11
-182.558029
 21
88.770409
  0
LINE
  8
0
 10
-144.558060
 20
87.640404
 11
-142.558060
 21
88.770401
  0
LINE
  8
0
 10
-144.558060
 20
71.900421
 11
-142.558060
 21
70.770424
  0
LINE
  8
0
 10
-142.558044
 20
118.770416
 11
-142.558044
 21
108.920410
  0
LINE
  8
0
 10
-180.558060
 20
120.770416
 11
-182.558044
 21
118.770424
  0
LINE
  8
0
 10
-180.558060
 20
38.770428
 11
-182.558060
 21
40.770420
  0
LINE
  8
0
 10
-144.558029
 20
120.770416
 11
-142.558044
 21
118.770416
  0
LINE
  8
0
 10
-182.558044
 20
104.120407
 11
-182.558044
 21
88.770416
  0
LINE
  8
0
 10
-142.558044
 20
104.620407
 11
-142.558044
 21
39.770416
  0
LINE
  8
0
 10
-144.558044
 20
120.770416
 11
-180.558044
 21
120.770416
  0
LINE
  8
0
 10
-143.558044
 20
38.770416
 11
-180.558044
 21
38.770416
  0
LINE
  8
0
 10
-182.558044
 20
118.770416
 11
-182.558044
 21
109.420410
  0
LINE
  8
0
  6
CENTER
 62
     2
 10
26.571945
 20
52.770416
 11
43.641953
 21
52.770416
  0
LINE
  8
0
 10
42.441956
 20
120.270416
 11
42.441956
 21
39.270416
  0
LINE
  8
0
 10
-23.558044
 20
118.770416
 11
42.441956
 21
118.770416
  0
LINE
  8
0
 10
-27.558044
 20
44.770416
 11
-23.558044
 21
44.770416
  0
LINE
  8
0
 10
-27.558044
 20
56.770416
 11
-23.558044
 21
56.770416
  0
LINE
  8
0
  6
CENTER
 62
     2
 10
-42.368042
 20
50.770416
 11
-20.988052
 21
50.770416
  0
LINE
  8
0
 10
-39.558044
 20
118.770416
 11
-39.558044
 21
40.770416
  0
LINE
  8
0
 10
-27.558044
 20
102.770416
 11
-23.558044
 21
102.770416
  0
LINE
  8
0
 10
-27.558044
 20
114.770416
 11
-23.558044
 21
114.770416
  0
LINE
  8
0
 10
-23.558044
 20
104.620407
 11
42.441956
 21
104.620407
  0
LINE
  8
0
 10
-23.558044
 20
108.920410
 11
42.441956
 21
108.920410
  0
LINE
  8
0
 10
-23.558044
 20
120.270416
 11
-23.558044
 21
39.270416
  0
LINE
  8
0
  6
CENTER
 62
     2
 10
-42.068043
 20
108.770416
 11
-20.988052
 21
108.770416
  0
LINE
  8
0
 10
-27.558044
 20
118.770416
 11
-27.558044
 21
40.770416
  0
LINE
  8
0
 10
30.791946
 20
70.770416
 11
42.441956
 21
70.770416
  0
LINE
  8
0
 10
33.151947
 20
72.360413
 11
42.441956
 21
72.360413
  0
LINE
  8
0
 10
34.721954
 20
74.170418
 11
42.441956
 21
74.170418
  0
LINE
  8
0
 10
36.141953
 20
77.370415
 11
42.441956
 21
77.370415
  0
LINE
  8
0
 10
36.141953
 20
82.170418
 11
42.441956
 21
82.170418
  0
LINE
  8
0
 10
34.721954
 20
85.370415
 11
42.441956
 21
85.370415
  0
LINE
  8
0
 10
30.791946
 20
88.770416
 11
42.441956
 21
88.770416
  0
LINE
  8
0
 10
33.151947
 20
87.170418
 11
42.441956
 21
87.170418
  0
LINE
  8
0
  6
CENTER
 62
     2
 10
26.441956
 20
90.990417
 11
26.441956
 21
68.080414
  0
LINE
  8
0
  6
CENTER
 62
     2
 10
-3.918045
 20
94.770416
 11
8.721954
 21
94.770416
  0
LINE
  8
0
  6
CENTER
 62
     2
 10
2.441940
 20
100.880402
 11
2.441940
 21
88.490417
  0
LINE
  8
0
  6
CENTER
 62
     2
 10
-17.558044
 20
101.010406
 11
-17.558044
 21
88.490417
  0
LINE
  8
0
  6
CENTER
 62
     2
 10
22.441956
 20
43.220428
 11
22.441956
 21
37.860428
  0
LINE
  8
0
  6
CENTER
 62
     2
 10
-12.558044
 20
58.770416
 11
-12.558044
 21
37.340424
  0
LINE
  8
0
 10
-11.558044
 20
48.770416
 11
-11.558044
 21
48.610428
  0
LINE
  8
0
 10
-13.558044
 20
48.770416
 11
-13.558044
 21
48.610428
  0
LINE
  8
0
  6
DASHED
 62
     2
 10
26.721954
 20
41.710419
 11
26.721954
 21
38.770416
  0
LINE
  8
0
  6
DASHED
 62
     2
 10
27.161957
 20
41.710423
 11
27.301956
 21
38.770428
  0
LINE
  8
0
  6
DASHED
 62
     2
 10
17.711950
 20
41.710419
 11
17.571951
 21
38.770424
  0
LINE
  8
0
  6
DASHED
 62
     2
 10
18.151947
 20
41.710419
 11
18.151947
 21
38.770416
  0
LINE
  8
0
  6
DASHED
 62
     2
 10
-7.828058
 20
41.710426
 11
-7.688058
 21
38.770428
  0
LINE
  8
0
  6
CENTER
 62
     2
 10
-18.448059
 20
52.770416
 11
-6.618057
 21
52.770416
  0
LINE
  8
0
  6
DASHED
 62
     2
 10
-8.268051
 20
41.710419
 11
-8.268051
 21
38.770416
  0
LINE
  8
0
  6
DASHED
 62
     2
 10
-17.278048
 20
41.710419
 11
-17.418047
 21
38.770420
  0
LINE
  8
0
  6
DASHED
 62
     2
 10
-16.838058
 20
41.710419
 11
-16.838058
 21
38.770416
  0
LINE
  8
0
  6
CENTER
 62
     2
 10
32.441956
 20
59.080429
 11
32.441956
 21
37.340424
  0
LINE
  8
0
 10
-23.558048
 20
39.270428
 11
-23.058048
 21
38.770428
  0
LINE
  8
0
 10
42.441948
 20
39.270416
 11
41.941948
 21
38.770416
  0
LINE
  8
0
 10
-23.558044
 20
39.770416
 11
42.441956
 21
39.770416
  0
LINE
  8
0
 10
-23.558044
 20
70.770416
 11
22.081955
 21
70.770416
  0
LINE
  8
0
 10
-23.558044
 20
72.360413
 11
19.721954
 21
72.360413
  0
LINE
  8
0
 10
-23.558044
 20
74.170418
 11
18.151947
 21
74.170418
  0
LINE
  8
0
 10
-23.558044
 20
77.370415
 11
16.731949
 21
77.370415
  0
LINE
  8
0
 62
     2
 10
-3.488052
 20
64.770416
 11
8.611954
 21
64.770416
  0
LINE
  8
0
 10
-23.058060
 20
38.770416
 11
41.941956
 21
38.770416
  0
LINE
  8
0
  6
CENTER
 62
     2
 10
-41.848045
 20
79.770416
 11
44.671951
 21
79.770416
  0
LINE
  8
0
  6
CENTER
 62
     2
 10
-23.018051
 20
64.770416
 11
-11.438049
 21
64.770416
  0
LINE
  8
0
  6
CENTER
 62
     2
 10
-17.558044
 20
70.810417
 11
-17.558044
 21
58.730423
  0
LINE
  8
0
 62
     2
 10
2.441940
 20
70.810417
 11
2.441940
 21
58.900421
  0
LINE
  8
0
 10
-27.558044
 20
82.770416
 11
-26.058044
 21
82.770416
  0
LINE
  8
0
 10
-23.558044
 20
82.170418
 11
16.731949
 21
82.170418
  0
LINE
  8
0
 10
-23.558044
 20
85.370415
 11
18.151947
 21
85.370415
  0
LINE
  8
0
 10
-23.558044
 20
87.170418
 11
19.721954
 21
87.170418
  0
LINE
  8
0
 10
-23.558044
 20
88.770416
 11
22.081955
 21
88.770416
  0
LINE
  8
0
  6
CENTER
 62
     2
 10
-23.018051
 20
94.770416
 11
-11.438049
 21
94.770416
  0
LINE
  8
0
 10
41.941948
 20
120.770416
 11
42.441944
 21
120.270416
  0
LINE
  8
0
 10
-23.058050
 20
120.770409
 11
-23.558052
 21
120.270409
  0
LINE
  8
0
 10
-28.558044
 20
119.770409
 11
-27.558043
 21
118.770393
  0
LINE
  8
0
 10
-38.558060
 20
119.770416
 11
-39.558048
 21
118.770424
  0
LINE
  8
0
 10
-28.558043
 20
39.770428
 11
-27.558043
 21
40.770428
  0
LINE
  8
0
 10
-39.558044
 20
40.770416
 11
-38.558056
 21
39.770428
  0
LINE
  8
0
 10
-27.558044
 20
74.770416
 11
-23.558044
 21
74.770416
  0
LINE
  8
0
 62
     2
 10
-26.058046
 20
82.770416
 11
-27.558044
 21
78.270416
  0
LINE
  8
0
 62
     2
 10
-27.558044
 20
81.270416
 11
-26.058044
 21
76.770416
  0
LINE
  8
0
 10
-27.558044
 20
76.770416
 11
-26.058044
 21
76.770416
  0
LINE
  8
0
 10
-26.058044
 20
82.770416
 11
-26.058044
 21
76.770416
  0
LINE
  8
0
 10
-38.558044
 20
39.770416
 11
-28.558044
 21
39.770416
  0
LINE
  8
0
 10
-38.558044
 20
119.770416
 11
-28.558044
 21
119.770416
  0
LINE
  8
0
 10
-23.058060
 20
120.770416
 11
41.941956
 21
120.770416
  0
LINE
  8
0
 10
-27.558044
 20
84.770416
 11
-23.558044
 21
84.770416
  0
LINE
  8
0
  6
PHANTOM
 62
     3
 10
12.936676
 20
32.386353
 11
12.936676
 21
129.761703
  0
LINE
  8
0
  6
PHANTOM
 62
     3
 10
0.629211
 20
32.386353
 11
0.629211
 21
57.549973
  0
LINE
  8
0
  6
PHANTOM
 62
     3
 10
-6.356110
 20
57.549973
 11
0.629211
 21
57.549973
  0
LINE
  8
0
  6
PHANTOM
 62
     3
 10
-6.356110
 20
57.549973
 11
-6.356110
 21
137.437881
  0
LINE
  8
0
  6
DASHED
 62
     2
 10
42.441956
 20
101.770416
 11
48.941956
 21
101.770416
  0
LINE
  8
0
  6
DASHED
 62
     2
 10
42.441956
 20
115.770416
 11
48.941956
 21
115.770416
  0
LINE
  8
0
  6
DASHED
 62
     2
 10
49.441956
 20
115.270416
 11
49.441956
 21
102.270416
  0
LINE
  8
0
  6
DASHED
 62
     2
 10
48.941940
 20
115.770424
 11
49.441944
 21
115.270424
  0
LINE
  8
0
  6
DASHED
 62
     2
 10
49.441944
 20
102.270409
 11
48.941940
 21
101.770409
  0
LINE
  8
0
  6
DASHED
 62
     2
 10
42.441956
 20
43.770416
 11
48.941956
 21
43.770416
  0
LINE
  8
0
  6
DASHED
 62
     2
 10
42.441956
 20
57.770416
 11
48.941956
 21
57.770416
  0
LINE
  8
0
  6
DASHED
 62
     2
 10
49.441956
 20
57.270416
 11
49.441956
 21
44.270416
  0
LINE
  8
0
  6
DASHED
 62
     2
 10
48.941944
 20
57.770424
 11
49.441944
 21
57.270424
  0
LINE
  8
0
  6
DASHED
 62
     2
 10
49.441944
 20
44.270409
 11
48.941944
 21
43.770409
  0
LINE
  8
0
 10
-271.250000
 20
-145.000000
 11
-16.249985
 21
-145.000000
  0
LINE
  8
0
 10
-271.250000
 20
-153.000000
 11
-240.537186
 21
-153.000000
  0
LINE
  8
0
 10
-271.250000
 20
-169.000000
 11
-16.249985
 21
-169.000000
  0
LINE
  8
0
 10
-271.250000
 20
-185.000000
 11
-16.249985
 21
-185.000000
  0
LINE
  8
0
 10
-271.250000
 20
-177.000000
 11
-16.249985
 21
-177.000000
  0
LINE
  8
0
 10
-16.249985
 20
-145.000000
 11
-16.249985
 21
-185.000000
  0
LINE
  8
0
 10
-36.249985
 20
-145.000000
 11
-36.249985
 21
-185.000000
  0
LINE
  8
0
 10
-76.249985
 20
-145.000000
 11
-76.249985
 21
-185.000000
  0
LINE
  8
0
 10
-96.249985
 20
-145.000000
 11
-96.249985
 21
-185.000000
  0
LINE
  8
0
 10
-116.249985
 20
-145.000000
 11
-116.249985
 21
-185.000000
  0
LINE
  8
0
 10
-136.249985
 20
-145.000000
 11
-136.249985
 21
-185.000000
  0
LINE
  8
0
 10
-156.249985
 20
-145.000000
 11
-156.249985
 21
-185.000000
  0
LINE
  8
0
 10
-176.249985
 20
-145.000000
 11
-176.249985
 21
-185.000000
  0
LINE
  8
0
 10
-196.249985
 20
-145.000000
 11
-196.249985
 21
-185.000000
  0
LINE
  8
0
 10
-216.249985
 20
-145.000000
 11
-216.249985
 21
-185.000000
  0
LINE
  8
0
 10
-236.249985
 20
-145.000000
 11
-236.249985
 21
-185.000000
  0
LINE
  8
0
 10
-236.249817
 20
-168.999939
 11
-240.537003
 21
-152.999939
  0
LINE
  8
0
 10
-56.249985
 20
-145.000000
 11
-56.249985
 21
-185.000000
  0
LINE
  8
0
 10
-271.249756
 20
-184.999985
 11
-271.249756
 21
-144.999985
  0
LINE
  8
0
 10
-121.250000
 20
195.500000
 11
-121.250000
 21
175.500000
  0
LINE
  8
0
 10
282.099854
 20
195.500000
 11
282.099854
 21
-195.000000
  0
LINE
  8
0
 10
-281.250000
 20
195.500000
 11
282.099854
 21
195.500000
  0
LINE
  8
0
 10
-281.250000
 20
195.500000
 11
-281.250000
 21
-195.000000
  0
LINE
  8
0
 10
-281.250000
 20
-195.000000
 11
282.099854
 21
-195.000000
  0
LINE
  8
0
 10
162.099976
 20
-175.000000
 11
162.099976
 21
-195.000000
  0
LINE
  8
0
 10
162.099976
 20
-175.000000
 11
282.099854
 21
-175.000000
  0
LINE
  8
0
 10
162.099976
 20
175.500000
 11
282.099854
 21
175.500000
  0
LINE
  8
0
 10
-281.250000
 20
175.500000
 11
-121.250000
 21
175.500000
  0
LINE
  8
0
 10
162.099976
 20
195.500000
 11
162.099976
 21
175.500000
  0
CIRCLE
  8
0
 10
-5.558044
 20
-68.229568
 40
1.000000
  0
CIRCLE
  8
0
 10
-5.558044
 20
-82.229568
 40
1.000000
  0
CIRCLE
  8
0
 62
     2
 10
-5.558044
 20
-75.229568
 40
9.500000
  0
CIRCLE
  8
0
 10
-5.558044
 20
-75.229568
 40
1.650000
  0
CIRCLE
  8
0
 10
-5.558044
 20
-75.229568
 40
10.000000
  0
CIRCLE
  8
0
 62
     2
 10
-12.558044
 20
-102.229553
 40
4.863995
  0
CIRCLE
  8
0
 10
-12.558044
 20
-102.229568
 40
4.283005
  0
CIRCLE
  8
0
 62
     2
 10
32.441956
 20
-102.229553
 40
4.863995
  0
CIRCLE
  8
0
 10
32.441956
 20
-102.229568
 40
4.283005
  0
CIRCLE
  8
0
 10
2.441956
 20
-90.229568
 40
4.750000
  0
CIRCLE
  8
0
 10
-17.558044
 20
-90.229568
 40
4.750000
  0
CIRCLE
  8
0
 10
-17.558044
 20
-90.229568
 40
2.599999
  0
CIRCLE
  8
0
  6
DASHED
 62
     2
 10
-17.558044
 20
-90.229568
 40
3.000000
  0
CIRCLE
  8
0
 10
2.441956
 20
-90.229568
 40
2.599999
  0
CIRCLE
  8
0
  6
DASHED
 62
     2
 10
2.441956
 20
-90.229568
 40
3.000000
  0
CIRCLE
  8
0
 10
2.441956
 20
-60.229568
 40
4.750000
  0
CIRCLE
  8
0
 10
-17.558044
 20
-60.229568
 40
4.750000
  0
CIRCLE
  8
0
 10
-17.558044
 20
-60.229568
 40
2.599999
  0
CIRCLE
  8
0
  6
DASHED
 62
     2
 10
-17.558044
 20
-60.229568
 40
3.000000
  0
CIRCLE
  8
0
 10
2.441956
 20
-60.229568
 40
2.599999
  0
CIRCLE
  8
0
  6
DASHED
 62
     2
 10
2.441956
 20
-60.229568
 40
3.000000
  0
ARC
  8
0
 10
-30.058044
 20
-75.229568
 40
5.000000
 50
323.130096
 51
36.869896
  0
CIRCLE
  8
0
 10
165.441940
 20
108.770416
 40
7.000000
  0
CIRCLE
  8
0
 10
165.441940
 20
50.770416
 40
7.000000
  0
CIRCLE
  8
0
 10
178.441940
 20
43.770416
 40
2.500000
  0
CIRCLE
  8
0
 62
     2
 10
178.441940
 20
43.770416
 40
3.000000
  0
CIRCLE
  8
0
 10
153.441940
 20
52.770416
 40
1.000000
  0
CIRCLE
  8
0
 10
165.441940
 20
79.770416
 40
11.000000
  0
CIRCLE
  8
0
 10
178.441940
 20
115.770416
 40
2.500000
  0
CIRCLE
  8
0
 62
     2
 10
178.441940
 20
115.770416
 40
3.000000
  0
CIRCLE
  8
0
 10
152.441940
 20
43.770416
 40
2.500000
  0
CIRCLE
  8
0
 62
     2
 10
152.441940
 20
43.770416
 40
3.000000
  0
CIRCLE
  8
0
 10
152.441940
 20
115.770416
 40
2.500000
  0
CIRCLE
  8
0
 62
     2
 10
152.441940
 20
115.770416
 40
3.000000
  0
ARC
  8
0
 10
180.541946
 20
75.770416
 40
2.099998
 50
90.000000
 51
270.000000
  0
ARC
  8
0
 10
180.541946
 20
83.770416
 40
2.099998
 50
90.000000
 51
270.000000
  0
ARC
  8
0
 10
150.340714
 20
75.770416
 40
2.100017
 50
269.760620
 51
90.239380
  0
ARC
  8
0
 10
150.340714
 20
83.770416
 40
2.100017
 50
269.760620
 51
90.239380
  0
CIRCLE
  8
0
 10
165.441940
 20
50.770416
 40
8.000000
  0
CIRCLE
  8
0
 10
165.441940
 20
108.770416
 40
8.000000
  0
CIRCLE
  8
0
 10
-162.558044
 20
50.770416
 40
3.400000
  0
CIRCLE
  8
0
 10
-162.558044
 20
50.770416
 40
5.250000
  0
CIRCLE
  8
0
 10
-162.558044
 20
79.770416
 40
3.400000
  0
CIRCLE
  8
0
 10
-162.558044
 20
79.770416
 40
5.250000
  0
CIRCLE
  8
0
 10
-162.558044
 20
108.770416
 40
3.400000
  0
CIRCLE
  8
0
 10
-162.558044
 20
108.770416
 40
5.250000
  0
CIRCLE
  8
0
 62
     2
 10
-150.558044
 20
112.770416
 40
3.000000
  0
CIRCLE
  8
0
 10
-150.558044
 20
112.770416
 40
2.500000
  0
CIRCLE
  8
0
 62
     2
 10
-150.558044
 20
46.770416
 40
3.000000
  0
CIRCLE
  8
0
 10
-150.558044
 20
46.770416
 40
2.500000
  0
CIRCLE
  8
0
 62
     2
 10
-174.558044
 20
112.770416
 40
3.000000
  0
CIRCLE
  8
0
 10
-174.558044
 20
112.770416
 40
2.500000
  0
CIRCLE
  8
0
 10
-162.558044
 20
50.770416
 40
5.750000
  0
CIRCLE
  8
0
 10
-174.558044
 20
46.770416
 40
2.500000
  0
CIRCLE
  8
0
 62
     2
 10
-174.558044
 20
46.770416
 40
3.000000
  0
CIRCLE
  8
0
 10
-162.558044
 20
79.770416
 40
5.750000
  0
CIRCLE
  8
0
 10
-162.558044
 20
108.770416
 40
5.750000
  0
CIRCLE
  8
0
 10
26.441956
 20
86.770416
 40
1.000000
  0
CIRCLE
  8
0
 10
26.441956
 20
72.770416
 40
1.000000
  0
CIRCLE
  8
0
 62
     2
 10
26.441956
 20
79.770416
 40
9.500000
  0
CIRCLE
  8
0
 10
26.441956
 20
79.770416
 40
1.650000
  0
CIRCLE
  8
0
 10
26.441956
 20
79.770416
 40
10.000000
  0
CIRCLE
  8
0
 62
     2
 10
-12.558044
 20
52.770432
 40
4.863995
  0
CIRCLE
  8
0
 10
-12.558044
 20
52.770416
 40
4.283005
  0
CIRCLE
  8
0
 62
     2
 10
32.441956
 20
52.770432
 40
4.863995
  0
CIRCLE
  8
0
 10
32.441956
 20
52.770416
 40
4.283005
  0
CIRCLE
  8
0
 10
2.441940
 20
64.770416
 40
4.750000
  0
CIRCLE
  8
0
 10
-17.558044
 20
64.770416
 40
4.750000
  0
CIRCLE
  8
0
 10
-17.558044
 20
64.770416
 40
2.599999
  0
CIRCLE
  8
0
  6
DASHED
 62
     2
 10
-17.558044
 20
64.770416
 40
3.000000
  0
CIRCLE
  8
0
 10
2.441940
 20
64.770416
 40
2.599999
  0
CIRCLE
  8
0
  6
DASHED
 62
     2
 10
2.441940
 20
64.770416
 40
3.000000
  0
CIRCLE
  8
0
 10
2.441940
 20
94.770416
 40
4.750000
  0
CIRCLE
  8
0
 10
-17.558044
 20
94.770416
 40
4.750000
  0
CIRCLE
  8
0
 10
-17.558044
 20
94.770416
 40
2.599999
  0
CIRCLE
  8
0
  6
DASHED
 62
     2
 10
-17.558044
 20
94.770416
 40
3.000000
  0
CIRCLE
  8
0
 10
2.441940
 20
94.770416
 40
2.599999
  0
CIRCLE
  8
0
  6
DASHED
 62
     2
 10
2.441940
 20
94.770416
 40
3.000000
  0
ARC
  8
0
 10
-30.058044
 20
79.770416
 40
5.000000
 50
323.130096
 51
36.869896
  0
TEXT
  8
0
 10
-35.642658
 20
-145.050003
 40
4.500000
  1
（ｍｍ）
 50
0.000000
 41
0.833333
 51
0.000000
  7
STANDARD
  0
TEXT
  8
0
 10
-173.642654
 20
-143.050003
 40
4.500000
  1
STRETCH LIST
 50
0.000000
 41
1.052632
 51
0.000000
  7
STANDARD
  0
TEXT
  8
0
 10
-271.892670
 20
-159.324997
 40
4.500000
  1
STRETCH
 50
0.000000
 41
1.052632
 51
0.000000
  7
STANDARD
  0
TEXT
  8
0
 10
-271.892670
 20
-166.074997
 40
4.500000
  1
  PLACE
 50
0.000000
 41
1.052632
 51
0.000000
  7
STANDARD
  0
TEXT
  8
0
 10
-256.392670
 20
-184.050003
 40
4.500000
  1
B
 50
0.000000
 41
1.052632
 51
0.000000
  7
STANDARD
  0
TEXT
  8
0
 10
-256.392670
 20
-176.050003
 40
4.500000
  1
A
 50
0.000000
 41
1.052632
 51
0.000000
  7
STANDARD
  0
TEXT
  8
0
 10
-267.642670
 20
-151.550003
 40
4.500000
  1
STROKE
 50
0.000000
 41
1.052632
 51
0.000000
  7
STANDARD
  0
TEXT
  8
0
 10
-231.142654
 20
-160.050003
 40
4.500000
  1
10
 50
0.000000
 41
1.052632
 51
0.000000
  7
STANDARD
  0
TEXT
  8
0
 10
-211.142654
 20
-160.050003
 40
4.500000
  1
20
 50
0.000000
 41
1.052632
 51
0.000000
  7
STANDARD
  0
TEXT
  8
0
 10
-191.142654
 20
-160.050003
 40
4.500000
  1
30
 50
0.000000
 41
1.052632
 51
0.000000
  7
STANDARD
  0
TEXT
  8
0
 10
-171.142654
 20
-160.050003
 40
4.500000
  1
40
 50
0.000000
 41
1.052632
 51
0.000000
  7
STANDARD
  0
TEXT
  8
0
 10
-151.142654
 20
-160.050003
 40
4.500000
  1
50
 50
0.000000
 41
1.052632
 51
0.000000
  7
STANDARD
  0
TEXT
  8
0
 10
-131.142654
 20
-160.050003
 40
4.500000
  1
75
 50
0.000000
 41
1.052632
 51
0.000000
  7
STANDARD
  0
TEXT
  8
0
 10
-113.392654
 20
-160.050003
 40
4.500000
  1
100
 50
0.000000
 41
1.052632
 51
0.000000
  7
STANDARD
  0
TEXT
  8
0
 10
-93.392654
 20
-160.050003
 40
4.500000
  1
125
 50
0.000000
 41
1.052632
 51
0.000000
  7
STANDARD
  0
TEXT
  8
0
 10
-73.392654
 20
-160.050003
 40
4.500000
  1
150
 50
0.000000
 41
1.052632
 51
0.000000
  7
STANDARD
  0
TEXT
  8
0
 10
-53.392658
 20
-160.050003
 40
4.500000
  1
175
 50
0.000000
 41
1.052632
 51
0.000000
  7
STANDARD
  0
TEXT
  8
0
 10
-33.392658
 20
-160.050003
 40
4.500000
  1
200
 50
0.000000
 41
1.052632
 51
0.000000
  7
STANDARD
  0
TEXT
  8
0
 10
-228.742187
 20
-176.050003
 40
4.500000
  1
0
 50
0.000000
 41
1.052632
 51
0.000000
  7
STANDARD
  0
TEXT
  8
0
 10
-228.742187
 20
-184.050003
 40
4.500000
  1
0
 50
0.000000
 41
1.052632
 51
0.000000
  7
STANDARD
  0
TEXT
  8
0
 10
-210.992187
 20
-176.050003
 40
4.500000
  1
10
 50
0.000000
 41
1.052632
 51
0.000000
  7
STANDARD
  0
TEXT
  8
0
 10
-208.742187
 20
-184.050003
 40
4.500000
  1
0
 50
0.000000
 41
1.052632
 51
0.000000
  7
STANDARD
  0
TEXT
  8
0
 10
-190.992187
 20
-176.050003
 40
4.500000
  1
20
 50
0.000000
 41
1.052632
 51
0.000000
  7
STANDARD
  0
TEXT
  8
0
 10
-188.742187
 20
-184.050003
 40
4.500000
  1
0
 50
0.000000
 41
1.052632
 51
0.000000
  7
STANDARD
  0
TEXT
  8
0
 10
-170.992187
 20
-176.050003
 40
4.500000
  1
30
 50
0.000000
 41
1.052632
 51
0.000000
  7
STANDARD
  0
TEXT
  8
0
 10
-168.742187
 20
-184.050003
 40
4.500000
  1
0
 50
0.000000
 41
1.052632
 51
0.000000
  7
STANDARD
  0
TEXT
  8
0
 10
-150.992187
 20
-176.050003
 40
4.500000
  1
40
 50
0.000000
 41
1.052632
 51
0.000000
  7
STANDARD
  0
TEXT
  8
0
 10
-148.742187
 20
-184.050003
 40
4.500000
  1
0
 50
0.000000
 41
1.052632
 51
0.000000
  7
STANDARD
  0
TEXT
  8
0
 10
-130.992187
 20
-176.050003
 40
4.500000
  1
40
 50
0.000000
 41
1.052632
 51
0.000000
  7
STANDARD
  0
TEXT
  8
0
 10
-130.992187
 20
-184.050003
 40
4.500000
  1
25
 50
0.000000
 41
1.052632
 51
0.000000
  7
STANDARD
  0
TEXT
  8
0
 10
-110.992187
 20
-176.050003
 40
4.500000
  1
40
 50
0.000000
 41
1.052632
 51
0.000000
  7
STANDARD
  0
TEXT
  8
0
 10
-110.992187
 20
-184.050003
 40
4.500000
  1
50
 50
0.000000
 41
1.052632
 51
0.000000
  7
STANDARD
  0
TEXT
  8
0
 10
-90.992187
 20
-176.050003
 40
4.500000
  1
90
 50
0.000000
 41
1.052632
 51
0.000000
  7
STANDARD
  0
TEXT
  8
0
 10
-90.992187
 20
-184.050003
 40
4.500000
  1
25
 50
0.000000
 41
1.052632
 51
0.000000
  7
STANDARD
  0
TEXT
  8
0
 10
-70.992187
 20
-176.050003
 40
4.500000
  1
90
 50
0.000000
 41
1.052632
 51
0.000000
  7
STANDARD
  0
TEXT
  8
0
 10
-70.992187
 20
-184.050003
 40
4.500000
  1
50
 50
0.000000
 41
1.052632
 51
0.000000
  7
STANDARD
  0
TEXT
  8
0
 10
-50.992187
 20
-176.050003
 40
4.500000
  1
90
 50
0.000000
 41
1.052632
 51
0.000000
  7
STANDARD
  0
TEXT
  8
0
 10
-50.992187
 20
-184.050003
 40
4.500000
  1
75
 50
0.000000
 41
1.052632
 51
0.000000
  7
STANDARD
  0
TEXT
  8
0
 10
-30.992187
 20
-176.050003
 40
4.500000
  1
90
 50
0.000000
 41
1.052632
 51
0.000000
  7
STANDARD
  0
TEXT
  8
0
 10
-33.242187
 20
-184.050003
 40
4.500000
  1
100
 50
0.000000
 41
1.052632
 51
0.000000
  7
STANDARD
  0
TEXT
  8
0
 62
     3
 10
7.217834
 20
130.738174
 40
4.500000
  1
STRETCH LINE B
 50
0.000000
 41
1.052632
 51
0.000000
  7
STANDARD
  0
TEXT
  8
0
 62
     3
 10
-29.326109
 20
137.591537
 40
4.500000
  1
STRETCH LINE A
 50
0.000000
 41
1.052632
 51
0.000000
  7
STANDARD
  0
TEXT
  8
0
 62
     3
 10
7.677260
 20
-26.547773
 40
4.500000
  1
STRETCH LINE B
 50
0.000000
 41
1.052632
 51
0.000000
  7
STANDARD
  0
TEXT
  8
0
 62
     3
 10
-28.505978
 20
-19.874754
 40
4.500000
  1
STRETCH LINE A
 50
0.000000
 41
1.052632
 51
0.000000
  7
STANDARD
  0
TEXT
  8
0
 10
-232.249710
 20
147.830002
 40
6.300000
  1
SGDAK20*ST(10)-RL
 50
0.000000
 41
1.052632
 51
0.000000
  7
STANDARD
  0
TEXT
  8
0
 10
196.250259
 20
180.830002
 40
6.300000
  1
Ｖｅｒ．　１．０
 50
0.000000
 41
0.833333
 51
0.000000
  7
STANDARD
  0
TEXT
  8
0
 10
167.564667
 20
-192.100006
 40
9.000000
  1
KOGANEI CORP.
 50
0.000000
 41
1.052632
 51
0.000000
  7
STANDARD
  0
TEXT
  8
0
 10
-274.349731
 20
180.830002
 40
6.300000
  1
JIG CYLINDER WITH GUIDE
 50
0.000000
 41
1.052632
 51
0.000000
  7
STANDARD
  0
TEXT
  8
0
 10
-270.049713
 20
155.830002
 40
6.300000
  1
MODEL:SGDAK20*ST(10)-HL
 50
0.000000
 41
1.052632
 51
0.000000
  7
STANDARD
  0
TEXT
  8
0
 62
     2
 10
59.179569
 20
24.930176
 40
3.200000
  1
STROKE:75-200
 50
0.000000
 41
1.052632
 51
0.000000
  7
STANDARD
  0
LINE
  8
0
 62
     2
 10
49.441940
 20
23.930176
 11
100.529572
 21
23.930176
  0
LINE
  8
0
 62
     2
 10
49.441940
 20
23.930176
 11
42.441940
 21
23.930176
  0
LINE
  8
0
 62
     2
 10
49.441940
 20
23.930176
 11
52.339718
 21
24.706633
  0
LINE
  8
0
 62
     2
 10
49.441940
 20
23.930176
 11
52.339718
 21
23.153719
  0
LINE
  8
0
 62
     2
 10
49.441940
 20
23.930176
 11
55.441940
 21
23.930176
  0
LINE
  8
0
 62
     2
 10
42.441940
 20
23.930176
 11
39.544163
 21
23.153719
  0
LINE
  8
0
 62
     2
 10
42.441940
 20
23.930176
 11
39.544163
 21
24.706633
  0
LINE
  8
0
 62
     2
 10
42.441940
 20
23.930176
 11
36.441940
 21
23.930176
  0
LINE
  8
0
 62
     2
 10
49.441940
 20
45.270416
 11
49.441940
 21
22.430176
  0
LINE
  8
0
 62
     2
 10
42.441940
 20
39.270416
 11
42.441940
 21
22.430176
  0
ENDSEC
  0
EOF
