  0
SECTION
  2
HEADER
  0
ENDSEC
  0
SECTION
  2
TABLES
  0
TABLE
  2
LTYPE
 70
     4
  0
LTYPE
  2
CONTINUOUS
 70
    64
  3
Solid line
 72
    65
 73
     0
 40
0.000000
  0
LTYPE
  2
DASHED
 70
    64
  3
__ __ __ __ __ __ __ __ __ __ __ __ __ __ __
 72
    65
 73
     2
 40
3.500000
 49
2.000000
 49
-1.500000
  0
LTYPE
  2
CENTER
 70
    64
  3
____ _ ____ _ ____ _ ____ _ ____ _ ____ _ ____
 72
    65
 73
     4
 40
17.500000
 49
13.000000
 49
-1.500000
 49
1.500000
 49
-1.500000
  0
LTYPE
  2
PHANTOM
 70
    64
  3
_____ _ _ _____ _ _ _____ _ _ _____ _ _ ____  
 72
    65
 73
     6
 40
15.500000
 49
8.000000
 49
-1.500000
 49
1.500000
 49
-1.500000
 49
1.500000
 49
-1.500000
  0
LTYPE
  2
DASHED1
 70
    64
  3
__ __ __ __ __ __ __ __ __ __ __ __ __ __ __
 72
    65
 73
     2
 40
1.500000
 49
1.000000
 49
-0.500000
  0
LTYPE
  2
DASHED2
 70
    64
  3
__ __ __ __ __ __ __ __ __ __ __ __ __ __ __
 72
    65
 73
     2
 40
3.500000
 49
2.500000
 49
-1.000000
  0
LTYPE
  2
DASHED3
 70
    64
  3
__ __ __ __ __ __ __ __ __ __ __ __ __ __ __
 72
    65
 73
     2
 40
6.000000
 49
4.000000
 49
-2.000000
  0
LTYPE
  2
DASHED4
 70
    64
  3
__ __ __ __ __ __ __ __ __ __ __ __ __ __ __
 72
    65
 73
     2
 40
12.000000
 49
10.000000
 49
-2.000000
  0
LTYPE
  2
DASHED5
 70
    64
  3
__ __ __ __ __ __ __ __ __ __ __ __ __ __ __
 72
    65
 73
     2
 40
17.000000
 49
15.000000
 49
-2.000000
  0
LTYPE
  2
DASHED6
 70
    64
  3
__ __ __ __ __ __ __ __ __ __ __ __ __ __ __
 72
    65
 73
     2
 40
29.000000
 49
27.000000
 49
-2.000000
  0
LTYPE
  2
PHANTOM1
 70
    64
  3
_____ _ _ _____ _ _ _____ _ _ _____ _ _ ____  
 72
    65
 73
     6
 40
31.000000
 49
25.000000
 49
-1.500000
 49
1.000000
 49
-1.000000
 49
1.000000
 49
-1.500000
  0
LTYPE
  2
PHANTOM2
 70
    64
  3
_____ _ _ _____ _ _ _____ _ _ _____ _ _ ____  
 72
    65
 73
     6
 40
36.000000
 49
27.000000
 49
-1.500000
 49
2.500000
 49
-1.000000
 49
2.500000
 49
-1.500000
  0
LTYPE
  2
PHANTOM3
 70
    64
  3
_____ _ _ _____ _ _ _____ _ _ _____ _ _ ____  
 72
    65
 73
     6
 40
78.000000
 49
64.000000
 49
-2.000000
 49
4.000000
 49
-2.000000
 49
4.000000
 49
-2.000000
  0
LTYPE
  2
CENTER1
 70
    64
  3
____ _ ____ _ ____ _ ____ _ ____ _ ____ _ ____
 72
    65
 73
     4
 40
19.000000
 49
14.000000
 49
-1.000000
 49
3.000000
 49
-1.000000
  0
LTYPE
  2
CENTER2
 70
    64
  3
____ _ ____ _ ____ _ ____ _ ____ _ ____ _ ____
 72
    65
 73
     4
 40
28.500000
 49
25.000000
 49
-1.000000
 49
1.500000
 49
-1.000000
  0
LTYPE
  2
CENTER3
 70
    64
  3
____ _ ____ _ ____ _ ____ _ ____ _ ____ _ ____
 72
    65
 73
     4
 40
31.500000
 49
27.000000
 49
-1.000000
 49
2.500000
 49
-1.000000
  0
LTYPE
  2
CENTER4
 70
    64
  3
____ _ ____ _ ____ _ ____ _ ____ _ ____ _ ____
 72
    65
 73
     4
 40
50.000000
 49
45.000000
 49
-1.000000
 49
3.000000
 49
-1.000000
  0
LTYPE
  2
CENTER5
 70
    64
  3
____ _ ____ _ ____ _ ____ _ ____ _ ____ _ ____
 72
    65
 73
     4
 40
100.000000
 49
92.000000
 49
-2.000000
 49
4.000000
 49
-2.000000
  0
LTYPE
  2
SBK1
 70
    64
  3
______ _ _ _ ______ _ _ _ ______ _ _ _ _____  
 72
    65
 73
     8
 40
60.500000
 49
45.000000
 49
-2.000000
 49
2.500000
 49
-2.000000
 49
2.500000
 49
-2.000000
 49
2.500000
 49
-2.000000
  0
LTYPE
  2
SBK2
 70
    64
  3
______ _ _ _ ______ _ _ _ ______ _ _ _ _____  
 72
    65
 73
     8
 40
84.000000
 49
64.000000
 49
-2.000000
 49
4.000000
 49
-2.000000
 49
4.000000
 49
-2.000000
 49
4.000000
 49
-2.000000
  0
LTYPE
  2
STCH
 70
    64
  3
__ __ __ __ __ __ __ __ __ __ __ __ __ __ __
 72
    65
 73
     2
 40
3.000000
 49
1.000000
 49
-2.000000
  0
LTYPE
  2
MTCH
 70
    64
  3
_____ _ _ _____ _ _ _____ _ _ _____ _ _ ____  
 72
    65
 73
     6
 40
80.000000
 49
66.000000
 49
-2.000000
 49
4.000000
 49
-2.000000
 49
4.000000
 49
-2.000000
  0
ENDTAB
  0
TABLE
  2
LAYER
 70
     1
  0
LAYER
  2
0
 70
     0
 62
     7
  6
CONTINUOUS
  0
ENDTAB
  0
TABLE
  2
STYLE
 70
     1
  0
STYLE
  2
STANDARD
 70
     0
 40
0.000000
 41
1.000000
 50
0.000000
 71
     0
 42
0.200000
  3
txt
  4
BIGFONT
  0
ENDTAB
  0
TABLE
  2
VIEW
 70
     0
  0
ENDTAB
  0
ENDSEC
  0
SECTION
  2
BLOCKS
  0
ENDSEC
  0
SECTION
  2
ENTITIES
  0
LINE
  8
0
  6
DASHED
 62
     2
 10
47.471016
 20
-121.044128
 11
47.971016
 21
-120.544128
  0
LINE
  8
0
  6
DASHED
 62
     2
 10
47.471016
 20
-105.044128
 11
47.971020
 21
-105.544136
  0
LINE
  8
0
  6
DASHED
 62
     2
 10
47.971016
 20
-57.544125
 11
47.471016
 21
-58.044125
  0
LINE
  8
0
  6
DASHED
 62
     2
 10
47.471016
 20
-42.044128
 11
47.971016
 21
-42.544128
  0
LINE
  8
0
  6
DASHED
 62
     2
 10
47.971024
 20
-105.544128
 11
47.971024
 21
-120.544128
  0
LINE
  8
0
  6
DASHED
 62
     2
 10
47.971024
 20
-42.544128
 11
47.971024
 21
-57.544128
  0
LINE
  8
0
 10
-1.648987
 20
-89.244125
 11
39.971024
 21
-89.244125
  0
LINE
  8
0
 10
0.901016
 20
-86.044128
 11
39.971024
 21
-86.044128
  0
LINE
  8
0
 10
0.901016
 20
-77.044128
 11
39.971024
 21
-77.044128
  0
LINE
  8
0
 10
-1.648987
 20
-73.844131
 11
39.971024
 21
-73.844131
  0
LINE
  8
0
  6
CENTER
 62
     2
 10
-8.028976
 20
-93.184128
 11
-8.028976
 21
-69.874130
  0
LINE
  8
0
  6
CENTER
 62
     2
 10
-8.198990
 20
-65.044128
 11
4.231018
 21
-65.044128
  0
LINE
  8
0
  6
CENTER
 62
     2
 10
-22.028976
 20
-58.874130
 11
-22.028976
 21
-71.304131
  0
LINE
  8
0
  6
CENTER
 62
     2
 10
-2.028976
 20
-58.754135
 11
-2.028976
 21
-71.304131
  0
LINE
  8
0
  6
CENTER
 62
     2
 10
18.971024
 20
-129.454117
 11
18.971024
 21
-123.254120
  0
LINE
  8
0
 10
-28.028984
 20
-127.044121
 11
-27.528982
 21
-127.544121
  0
LINE
  8
0
 10
39.971020
 20
-127.044136
 11
39.471020
 21
-127.544136
  0
LINE
  8
0
  6
CENTER
 62
     2
 10
-46.478977
 20
-81.544128
 11
42.771011
 21
-81.544128
  0
LINE
  8
0
  6
CENTER
 62
     2
 10
-21.608978
 20
-110.544128
 11
-10.218979
 21
-110.544128
  0
LINE
  8
0
  6
DASHED
 62
     2
 10
-11.288991
 20
-124.724121
 11
-11.158991
 21
-127.544121
  0
LINE
  8
0
  6
DASHED
 62
     2
 10
-11.738983
 20
-124.724121
 11
-11.738983
 21
-127.544128
  0
LINE
  8
0
  6
DASHED
 62
     2
 10
-20.758980
 20
-124.724121
 11
-20.888981
 21
-127.544113
  0
LINE
  8
0
  6
DASHED
 62
     2
 10
-20.308990
 20
-124.724121
 11
-20.308990
 21
-127.544128
  0
LINE
  8
0
  6
CENTER
 62
     2
 10
-16.028976
 20
-129.454117
 11
-16.028976
 21
-123.254120
  0
LINE
  8
0
  6
CENTER
 62
     2
 10
24.281021
 20
-110.544128
 11
37.451706
 21
-110.544128
  0
LINE
  8
0
 10
-28.028976
 20
-126.544128
 11
39.971024
 21
-126.544128
  0
LINE
  8
0
  6
DASHED
 62
     2
 10
23.711016
 20
-124.724121
 11
23.841015
 21
-127.544128
  0
LINE
  8
0
  6
DASHED
 62
     2
 10
23.261017
 20
-124.724121
 11
23.261017
 21
-127.544128
  0
LINE
  8
0
  6
DASHED
 62
     2
 10
14.241011
 20
-124.724106
 11
14.111010
 21
-127.544113
  0
LINE
  8
0
  6
DASHED
 62
     2
 10
14.691010
 20
-124.724121
 11
14.691010
 21
-127.544128
  0
LINE
  8
0
 10
-27.528976
 20
-127.544128
 11
39.471024
 21
-127.544128
  0
LINE
  8
0
 10
39.971024
 20
-36.044128
 11
39.971024
 21
-127.044128
  0
LINE
  8
0
  6
CENTER
 62
     2
 10
-8.188980
 20
-98.044128
 11
3.971024
 21
-98.044128
  0
LINE
  8
0
 10
-28.028976
 20
-127.044128
 11
-28.028976
 21
-36.044128
  0
LINE
  8
0
  6
CENTER
 62
     2
 10
29.971024
 20
-117.864120
 11
29.971024
 21
-104.794128
  0
LINE
  8
0
 10
-28.028976
 20
-89.244125
 11
-14.408981
 21
-89.244125
  0
LINE
  8
0
 10
-28.028976
 20
-86.044128
 11
-16.958984
 21
-86.044128
  0
LINE
  8
0
 10
-28.028976
 20
-91.544128
 11
39.971024
 21
-91.544128
  0
LINE
  8
0
 10
-28.028976
 20
-92.544128
 11
39.971024
 21
-92.544128
  0
LINE
  8
0
  6
CENTER
 62
     2
 10
-22.028976
 20
-104.084122
 11
-22.028976
 21
-92.094131
  0
LINE
  8
0
  6
CENTER
 62
     2
 10
-27.708984
 20
-98.044128
 11
-16.218979
 21
-98.044128
  0
LINE
  8
0
  6
CENTER
 62
     2
 10
-2.028976
 20
-104.084122
 11
-2.028976
 21
-91.344131
  0
LINE
  8
0
 10
-32.028976
 20
-58.044128
 11
-28.028976
 21
-58.044128
  0
LINE
  8
0
 10
-32.028976
 20
-42.044128
 11
-28.028976
 21
-42.044128
  0
LINE
  8
0
  6
DASHED
 62
     2
 10
39.971024
 20
-58.044128
 11
47.471024
 21
-58.044128
  0
LINE
  8
0
  6
DASHED
 62
     2
 10
39.971024
 20
-42.044128
 11
47.471024
 21
-42.044128
  0
LINE
  8
0
  6
DASHED
 62
     2
 10
39.971024
 20
-121.044128
 11
47.471024
 21
-121.044128
  0
LINE
  8
0
  6
DASHED
 62
     2
 10
39.971024
 20
-105.044128
 11
47.471024
 21
-105.044128
  0
LINE
  8
0
 10
-32.028976
 20
-78.234131
 11
-30.528976
 21
-78.234131
  0
LINE
  8
0
  6
CENTER
 62
     2
 10
-46.528976
 20
-113.044128
 11
-25.198990
 21
-113.044128
  0
LINE
  8
0
  6
CENTER
 62
     2
 10
-46.528976
 20
-50.044128
 11
-25.198990
 21
-50.044128
  0
LINE
  8
0
  6
CENTER
 62
     2
 10
-27.708984
 20
-65.044128
 11
-16.218979
 21
-65.044128
  0
LINE
  8
0
 10
-28.028976
 20
-56.694138
 11
39.971024
 21
-56.694138
  0
LINE
  8
0
 10
-28.028976
 20
-52.394135
 11
39.971024
 21
-52.394135
  0
LINE
  8
0
 10
-28.028976
 20
-37.544128
 11
39.971024
 21
-37.544128
  0
LINE
  8
0
 10
39.471016
 20
-35.544121
 11
39.971016
 21
-36.044121
  0
LINE
  8
0
 10
-27.528980
 20
-35.544132
 11
-28.028980
 21
-36.044132
  0
LINE
  8
0
 10
-28.028976
 20
-70.544128
 11
39.971024
 21
-70.544128
  0
LINE
  8
0
 10
-28.028976
 20
-71.544128
 11
39.971024
 21
-71.544128
  0
LINE
  8
0
 10
-28.028976
 20
-73.844131
 11
-14.408981
 21
-73.844131
  0
LINE
  8
0
 10
-28.028976
 20
-77.044128
 11
-16.958984
 21
-77.044128
  0
LINE
  8
0
 10
-27.528976
 20
-35.544128
 11
39.471024
 21
-35.544128
  0
LINE
  8
0
 10
-33.028976
 20
-36.544132
 11
-32.028973
 21
-37.544136
  0
LINE
  8
0
 10
-43.028980
 20
-36.544144
 11
-44.028976
 21
-37.544147
  0
LINE
  8
0
 10
-32.028973
 20
-125.544121
 11
-33.028976
 21
-126.544121
  0
LINE
  8
0
 10
-44.028973
 20
-125.544113
 11
-43.028976
 21
-126.544113
  0
LINE
  8
0
 10
-43.028976
 20
-36.544128
 11
-33.028976
 21
-36.544128
  0
LINE
  8
0
 10
-43.028976
 20
-126.544128
 11
-33.028976
 21
-126.544128
  0
LINE
  8
0
 10
-32.028976
 20
-87.544128
 11
-28.028976
 21
-87.544128
  0
LINE
  8
0
 62
     2
 10
-30.528978
 20
-84.864120
 11
-32.028976
 21
-79.894127
  0
LINE
  8
0
 62
     2
 10
-32.028976
 20
-83.204132
 11
-30.528975
 21
-78.234131
  0
LINE
  8
0
 10
-32.028976
 20
-84.864128
 11
-30.528976
 21
-84.864128
  0
LINE
  8
0
 10
-30.528976
 20
-78.234131
 11
-30.528976
 21
-84.864128
  0
LINE
  8
0
 10
-32.028976
 20
-121.044128
 11
-28.028976
 21
-121.044128
  0
LINE
  8
0
 10
-32.028976
 20
-105.044128
 11
-28.028976
 21
-105.044128
  0
LINE
  8
0
 10
-44.028976
 20
-37.544128
 11
-44.028976
 21
-125.544128
  0
LINE
  8
0
 10
-32.028976
 20
-125.544128
 11
-32.028976
 21
-37.544128
  0
LINE
  8
0
 10
-32.028976
 20
-75.544128
 11
-28.028976
 21
-75.544128
  0
LINE
  8
0
  6
CENTER
 62
     2
 10
-16.028976
 20
-117.864120
 11
-16.028976
 21
-104.444122
  0
LINE
  8
0
  6
PHANTOM
 62
     3
 10
-20.351593
 20
-86.198196
 11
-20.351593
 21
-77.306152
  0
LINE
  8
0
  6
PHANTOM
 62
     3
 10
-12.790565
 20
-69.610107
 11
-20.351604
 21
-77.306160
  0
LINE
  8
0
  6
PHANTOM
 62
     3
 10
-20.351595
 20
-86.198196
 11
-8.790562
 21
-94.119278
  0
LINE
  8
0
  6
PHANTOM
 62
     3
 10
-12.790558
 20
-69.610100
 11
-12.790558
 21
-23.388306
  0
LINE
  8
0
  6
PHANTOM
 62
     3
 10
-8.790558
 20
-133.591797
 11
-8.790558
 21
-94.119278
  0
LINE
  8
0
  6
PHANTOM
 62
     3
 10
6.373428
 20
-133.591797
 11
6.373428
 21
-28.897736
  0
LINE
  8
0
 10
130.001022
 20
63.455856
 11
131.001022
 21
63.455856
  0
LINE
  8
0
 10
130.001022
 20
83.455856
 11
131.001022
 21
83.455856
  0
LINE
  8
0
 10
130.001022
 20
83.455856
 11
130.001022
 21
63.455856
  0
LINE
  8
0
 10
170.001007
 20
49.105865
 11
170.001007
 21
43.805862
  0
LINE
  8
0
 10
170.001007
 20
69.455856
 11
170.001007
 21
65.255859
  0
LINE
  8
0
 10
170.001007
 20
81.655853
 11
170.001007
 21
77.455856
  0
LINE
  8
0
 10
170.001007
 20
103.105850
 11
170.001007
 21
97.805847
  0
LINE
  8
0
 10
132.001022
 20
102.605850
 11
132.001022
 21
98.305847
  0
LINE
  8
0
  6
CENTER
 62
     2
 10
170.270996
 20
33.455856
 11
161.641006
 21
33.455856
  0
LINE
  8
0
  6
CENTER
 62
     2
 10
166.001007
 20
37.505859
 11
166.001007
 21
29.045868
  0
LINE
  8
0
  6
CENTER
 62
     2
 10
136.501007
 20
46.335861
 11
136.501007
 21
42.445862
  0
LINE
  8
0
  6
CENTER
 62
     2
 10
134.511017
 20
44.455856
 11
138.591003
 21
44.455856
  0
LINE
  8
0
 62
     2
 10
136.501007
 20
31.765869
 11
136.501007
 21
25.635864
  0
LINE
  8
0
  6
CENTER
 62
     2
 10
133.001022
 20
100.455856
 11
139.121002
 21
100.455856
  0
LINE
  8
0
  6
CENTER
 62
     2
 10
162.901001
 20
46.455856
 11
166.681000
 21
46.455856
  0
LINE
  8
0
  6
CENTER
 62
     2
 10
163.031006
 20
100.455856
 11
167.151001
 21
100.455856
  0
LINE
  8
0
  6
CENTER
 62
     2
 10
131.721008
 20
113.455856
 11
140.351013
 21
113.455856
  0
LINE
  8
0
  6
CENTER
 62
     2
 10
136.001007
 20
109.405853
 11
136.001007
 21
117.865845
  0
LINE
  8
0
 10
159.481003
 20
101.955856
 11
164.501007
 21
101.955856
  0
LINE
  8
0
 10
157.701004
 20
98.955856
 11
164.501007
 21
98.955856
  0
LINE
  8
0
 10
159.481003
 20
44.955856
 11
164.501007
 21
44.955856
  0
LINE
  8
0
 10
157.701004
 20
47.955856
 11
164.501007
 21
47.955856
  0
LINE
  8
0
  6
CENTER
 62
     2
 10
170.270996
 20
113.455856
 11
161.641006
 21
113.455856
  0
LINE
  8
0
  6
CENTER
 62
     2
 10
166.001007
 20
109.405853
 11
166.001007
 21
117.865845
  0
LINE
  8
0
  6
CENTER
 62
     2
 10
140.271011
 20
33.455856
 11
131.641022
 21
33.455856
  0
LINE
  8
0
  6
CENTER
 62
     2
 10
136.001007
 20
37.505859
 11
136.001007
 21
29.045868
  0
LINE
  8
0
  6
CENTER
 62
     2
 10
140.051010
 20
41.955856
 11
162.151001
 21
41.955856
  0
LINE
  8
0
 10
164.501007
 20
42.305862
 11
164.501007
 21
50.605865
  0
LINE
  8
0
 10
169.001007
 20
49.105865
 11
169.001007
 21
50.605865
  0
LINE
  8
0
 10
169.001007
 20
42.305862
 11
169.001007
 21
43.805862
  0
LINE
  8
0
 10
169.001007
 20
49.105865
 11
171.701004
 21
49.105865
  0
LINE
  8
0
 10
169.001007
 20
43.805862
 11
171.701004
 21
43.805862
  0
LINE
  8
0
 10
164.501007
 20
50.605865
 11
169.001007
 21
50.605865
  0
LINE
  8
0
 10
164.501007
 20
42.305862
 11
169.001007
 21
42.305862
  0
LINE
  8
0
 10
172.001007
 20
49.405869
 11
172.001007
 21
62.455856
  0
LINE
  8
0
 10
172.001007
 20
29.455856
 11
172.001007
 21
43.505859
  0
LINE
  8
0
 10
171.001007
 20
83.875854
 11
172.001007
 21
84.455849
  0
LINE
  8
0
 10
171.001007
 20
63.025856
 11
171.001007
 21
65.755859
  0
LINE
  8
0
 10
170.001007
 20
69.455856
 11
168.401001
 21
69.455856
  0
LINE
  8
0
 10
170.501007
 20
68.955856
 11
170.001007
 21
69.455856
  0
LINE
  8
0
 10
171.001007
 20
68.955856
 11
170.501007
 21
68.955856
  0
LINE
  8
0
 10
170.501007
 20
65.755867
 11
170.001007
 21
65.255867
  0
LINE
  8
0
 10
171.001007
 20
65.755859
 11
170.501007
 21
65.755859
  0
LINE
  8
0
 10
170.001007
 20
65.255859
 11
168.401001
 21
65.255859
  0
LINE
  8
0
 10
171.001007
 20
77.955856
 11
171.001007
 21
68.955856
  0
LINE
  8
0
 10
171.001007
 20
83.875854
 11
171.001007
 21
81.155853
  0
LINE
  8
0
 10
170.001007
 20
77.455856
 11
168.401001
 21
77.455856
  0
LINE
  8
0
 10
170.501007
 20
77.955856
 11
170.001007
 21
77.455856
  0
LINE
  8
0
 10
171.001007
 20
77.955856
 11
170.501007
 21
77.955856
  0
LINE
  8
0
 10
170.501007
 20
81.155853
 11
170.001007
 21
81.655853
  0
LINE
  8
0
 10
171.001007
 20
81.155853
 11
170.501007
 21
81.155853
  0
LINE
  8
0
 10
170.001007
 20
81.655853
 11
168.401001
 21
81.655853
  0
LINE
  8
0
 10
171.001007
 20
63.025852
 11
172.000992
 21
62.455860
  0
LINE
  8
0
 10
131.001022
 20
63.025864
 11
130.001022
 21
62.455860
  0
LINE
  8
0
 10
131.001022
 20
83.875847
 11
130.001007
 21
84.455856
  0
LINE
  8
0
 10
131.001022
 20
63.025856
 11
131.001022
 21
65.755859
  0
LINE
  8
0
 10
132.001022
 20
69.455856
 11
133.601013
 21
69.455856
  0
LINE
  8
0
 10
131.501007
 20
68.955864
 11
132.001022
 21
69.455864
  0
LINE
  8
0
 10
131.001022
 20
68.955856
 11
131.501022
 21
68.955856
  0
LINE
  8
0
 10
131.501022
 20
65.755859
 11
132.001022
 21
65.255852
  0
LINE
  8
0
 10
131.001022
 20
65.755859
 11
131.501022
 21
65.755859
  0
LINE
  8
0
 10
132.001022
 20
65.255859
 11
133.601013
 21
65.255859
  0
LINE
  8
0
 10
130.001007
 20
28.455862
 11
131.001007
 21
27.455872
  0
LINE
  8
0
 10
164.501007
 20
104.605850
 11
164.501007
 21
96.305847
  0
LINE
  8
0
 10
130.001022
 20
98.005844
 11
130.001022
 21
84.455856
  0
LINE
  8
0
 10
133.001022
 20
98.305847
 11
133.001022
 21
96.805847
  0
LINE
  8
0
 10
130.301010
 20
102.605850
 11
133.001022
 21
102.605850
  0
LINE
  8
0
 10
130.301010
 20
98.305847
 11
133.001022
 21
98.305847
  0
LINE
  8
0
 10
133.001022
 20
96.805847
 11
137.001007
 21
96.805847
  0
LINE
  8
0
 10
133.001022
 20
104.105850
 11
137.001007
 21
104.105850
  0
LINE
  8
0
 10
137.001007
 20
104.105850
 11
137.001007
 21
96.805847
  0
LINE
  8
0
 10
133.001022
 20
104.105850
 11
133.001022
 21
102.605850
  0
LINE
  8
0
 10
169.001007
 20
97.805847
 11
169.001007
 21
96.305847
  0
LINE
  8
0
 10
169.001007
 20
104.605850
 11
169.001007
 21
103.105850
  0
LINE
  8
0
 10
169.001007
 20
97.805847
 11
171.701004
 21
97.805847
  0
LINE
  8
0
 10
169.001007
 20
103.105850
 11
171.701004
 21
103.105850
  0
LINE
  8
0
 10
164.501007
 20
96.305847
 11
169.001007
 21
96.305847
  0
LINE
  8
0
 10
164.501007
 20
104.605850
 11
169.001007
 21
104.605850
  0
LINE
  8
0
 10
131.001022
 20
77.955856
 11
131.001022
 21
68.955856
  0
LINE
  8
0
 10
131.001022
 20
83.875854
 11
131.001022
 21
81.155853
  0
LINE
  8
0
 10
130.001022
 20
117.455856
 11
130.001022
 21
102.905853
  0
LINE
  8
0
 10
132.001022
 20
77.455856
 11
133.601013
 21
77.455856
  0
LINE
  8
0
 10
131.501007
 20
77.955849
 11
132.001022
 21
77.455849
  0
LINE
  8
0
 10
131.001022
 20
77.955856
 11
131.501022
 21
77.955856
  0
LINE
  8
0
 10
131.501022
 20
81.155853
 11
132.001022
 21
81.655853
  0
LINE
  8
0
 10
131.001022
 20
81.155853
 11
131.501022
 21
81.155853
  0
LINE
  8
0
 10
132.001022
 20
81.655853
 11
133.601013
 21
81.655853
  0
LINE
  8
0
 10
170.001007
 20
119.455833
 11
172.001007
 21
117.455833
  0
LINE
  8
0
 10
170.001007
 20
27.455866
 11
172.001007
 21
29.455870
  0
LINE
  8
0
 10
132.001007
 20
119.455841
 11
130.001007
 21
117.455856
  0
LINE
  8
0
 10
172.001007
 20
97.505844
 11
172.001007
 21
84.455856
  0
LINE
  8
0
 10
130.001022
 20
62.455856
 11
130.001022
 21
28.455856
  0
LINE
  8
0
  6
CENTER
 62
     2
 10
127.171021
 20
73.455856
 11
174.770996
 21
73.455856
  0
LINE
  8
0
  6
CENTER
 62
     2
 10
140.051010
 20
104.955856
 11
162.151001
 21
104.955856
  0
LINE
  8
0
 10
132.001022
 20
119.455856
 11
170.001007
 21
119.455856
  0
LINE
  8
0
 10
131.001022
 20
27.455856
 11
170.001007
 21
27.455856
  0
LINE
  8
0
 10
172.001007
 20
117.455856
 11
172.001007
 21
103.405853
  0
LINE
  8
0
  6
DASHED
 62
     2
 10
141.231003
 20
30.275864
 11
141.361008
 21
27.455860
  0
LINE
  8
0
  6
DASHED
 62
     2
 10
140.781006
 20
30.275864
 11
140.781006
 21
27.455856
  0
LINE
  8
0
  6
DASHED
 62
     2
 10
132.211014
 20
30.275864
 11
132.211014
 21
27.455856
  0
LINE
  8
0
  6
DASHED
 62
     2
 10
131.761017
 20
30.275864
 11
131.631012
 21
27.455856
  0
LINE
  8
0
  6
CENTER
 62
     2
 10
150.971008
 20
24.305862
 11
150.971008
 21
123.325851
  0
LINE
  8
0
 10
-116.028976
 20
63.455856
 11
-117.028976
 21
63.455856
  0
LINE
  8
0
 10
-116.028976
 20
83.455856
 11
-116.028976
 21
63.455856
  0
LINE
  8
0
 10
-116.028976
 20
83.455856
 11
-117.028976
 21
83.455856
  0
LINE
  8
0
  6
CENTER
 62
     2
 10
-128.248978
 20
35.455856
 11
-119.838989
 21
35.455856
  0
LINE
  8
0
  6
CENTER
 62
     2
 10
-144.008972
 20
41.955856
 11
-129.648972
 21
41.955856
  0
LINE
  8
0
  6
CENTER
 62
     2
 10
-144.148972
 20
104.955856
 11
-129.928970
 21
104.955856
  0
LINE
  8
0
  6
CENTER
 62
     2
 10
-128.788971
 20
111.455856
 11
-119.168991
 21
111.455856
  0
LINE
  8
0
  6
CENTER
 62
     2
 10
-124.028976
 20
116.025848
 11
-124.028976
 21
106.605850
  0
LINE
  8
0
  6
CENTER
 62
     2
 10
-150.028976
 20
116.095856
 11
-150.028976
 21
106.605850
  0
LINE
  8
0
 10
-158.028976
 20
49.405869
 11
-158.028976
 21
62.455856
  0
LINE
  8
0
 10
-118.028976
 20
117.455856
 11
-118.028976
 21
29.455856
  0
LINE
  8
0
 10
-156.028976
 20
117.455856
 11
-156.028976
 21
29.455856
  0
LINE
  8
0
 10
-137.028976
 20
107.255844
 11
-135.028976
 21
106.105850
  0
LINE
  8
0
 10
-135.028976
 20
106.105850
 11
-135.028976
 21
103.795853
  0
LINE
  8
0
 10
-135.028976
 20
103.795860
 11
-137.028976
 21
102.645859
  0
LINE
  8
0
 10
-137.028976
 20
102.645851
 11
-139.028976
 21
103.795853
  0
LINE
  8
0
 10
-139.028976
 20
106.105850
 11
-139.028976
 21
103.795853
  0
LINE
  8
0
 10
-137.028976
 20
107.255836
 11
-139.028976
 21
106.105835
  0
LINE
  8
0
 10
-137.028976
 20
75.755859
 11
-135.028976
 21
74.605858
  0
LINE
  8
0
 10
-135.028976
 20
74.605858
 11
-135.028976
 21
72.295853
  0
LINE
  8
0
 10
-135.028961
 20
72.295845
 11
-137.028976
 21
71.145851
  0
LINE
  8
0
 10
-137.028961
 20
71.145859
 11
-139.028961
 21
72.295853
  0
LINE
  8
0
 10
-139.028976
 20
74.605858
 11
-139.028976
 21
72.295853
  0
LINE
  8
0
 10
-137.028976
 20
75.755867
 11
-139.028976
 21
74.605865
  0
LINE
  8
0
 10
-137.028976
 20
44.265862
 11
-135.028976
 21
43.115864
  0
LINE
  8
0
 10
-135.028976
 20
43.115860
 11
-135.028976
 21
40.805862
  0
LINE
  8
0
 10
-135.028976
 20
40.805862
 11
-137.028976
 21
39.655869
  0
LINE
  8
0
 10
-137.028976
 20
39.655872
 11
-139.028976
 21
40.805866
  0
LINE
  8
0
 10
-139.028976
 20
43.115860
 11
-139.028976
 21
40.805862
  0
LINE
  8
0
 10
-137.028961
 20
44.265854
 11
-139.028976
 21
43.115852
  0
LINE
  8
0
  6
CENTER
 62
     2
 10
-124.028976
 20
30.855865
 11
-124.028976
 21
39.945862
  0
LINE
  8
0
  6
CENTER
 62
     2
 10
-154.738968
 20
111.455856
 11
-145.248978
 21
111.455856
  0
LINE
  8
0
  6
CENTER
 62
     2
 10
-155.448975
 20
35.455856
 11
-145.058975
 21
35.455856
  0
LINE
  8
0
  6
CENTER
 62
     2
 10
-150.028976
 20
30.855865
 11
-150.028976
 21
39.945862
  0
LINE
  8
0
 10
-118.028984
 20
29.455872
 11
-119.028976
 21
28.455873
  0
LINE
  8
0
 10
-156.028992
 20
29.455881
 11
-155.028992
 21
28.455879
  0
LINE
  8
0
 10
-119.028976
 20
118.455841
 11
-118.028976
 21
117.455841
  0
LINE
  8
0
 10
-155.028976
 20
118.455833
 11
-156.028976
 21
117.455833
  0
LINE
  8
0
 10
-155.028976
 20
28.455856
 11
-119.028976
 21
28.455856
  0
LINE
  8
0
 10
-155.028976
 20
118.455856
 11
-119.028976
 21
118.455856
  0
LINE
  8
0
 10
-156.028976
 20
49.105865
 11
-157.728973
 21
49.105865
  0
LINE
  8
0
 10
-156.028976
 20
43.805862
 11
-157.728973
 21
43.805862
  0
LINE
  8
0
 10
-158.028976
 20
29.455856
 11
-158.028976
 21
43.505859
  0
LINE
  8
0
 10
-157.028976
 20
83.875854
 11
-158.028961
 21
84.455849
  0
LINE
  8
0
 10
-157.028976
 20
63.025856
 11
-157.028976
 21
65.755859
  0
LINE
  8
0
 10
-156.528961
 20
68.955864
 11
-156.028961
 21
69.455864
  0
LINE
  8
0
 10
-157.028976
 20
68.955856
 11
-156.528976
 21
68.955856
  0
LINE
  8
0
 10
-156.528961
 20
65.755867
 11
-156.028961
 21
65.255867
  0
LINE
  8
0
 10
-157.028976
 20
65.755859
 11
-156.528976
 21
65.755859
  0
LINE
  8
0
 10
-157.028976
 20
77.955856
 11
-157.028976
 21
68.955856
  0
LINE
  8
0
 10
-157.028976
 20
83.875854
 11
-157.028976
 21
81.155853
  0
LINE
  8
0
 10
-156.528961
 20
77.955849
 11
-156.028961
 21
77.455849
  0
LINE
  8
0
 10
-157.028976
 20
77.955856
 11
-156.528976
 21
77.955856
  0
LINE
  8
0
 10
-156.528961
 20
81.155846
 11
-156.028961
 21
81.655846
  0
LINE
  8
0
 10
-157.028976
 20
81.155853
 11
-156.528976
 21
81.155853
  0
LINE
  8
0
 10
-157.028976
 20
63.025860
 11
-158.028961
 21
62.455868
  0
LINE
  8
0
 10
-117.028976
 20
63.025856
 11
-116.028984
 21
62.455864
  0
LINE
  8
0
 10
-117.028984
 20
83.875854
 11
-116.028992
 21
84.455849
  0
LINE
  8
0
 10
-117.028976
 20
63.025856
 11
-117.028976
 21
65.755859
  0
LINE
  8
0
 10
-117.528984
 20
68.955864
 11
-118.028984
 21
69.455864
  0
LINE
  8
0
 10
-117.028976
 20
68.955856
 11
-117.528976
 21
68.955856
  0
LINE
  8
0
 10
-117.528984
 20
65.755867
 11
-118.028984
 21
65.255867
  0
LINE
  8
0
 10
-117.028976
 20
65.755859
 11
-117.528976
 21
65.755859
  0
LINE
  8
0
 10
-116.028969
 20
28.455872
 11
-117.028976
 21
27.455870
  0
LINE
  8
0
 10
-116.028976
 20
98.005844
 11
-116.028976
 21
84.455856
  0
LINE
  8
0
 10
-116.328979
 20
102.605850
 11
-118.028976
 21
102.605850
  0
LINE
  8
0
 10
-116.328979
 20
98.305847
 11
-118.028976
 21
98.305847
  0
LINE
  8
0
 10
-156.028976
 20
97.805847
 11
-157.728973
 21
97.805847
  0
LINE
  8
0
 10
-156.028976
 20
103.105850
 11
-157.728973
 21
103.105850
  0
LINE
  8
0
 10
-117.028976
 20
77.955856
 11
-117.028976
 21
68.955856
  0
LINE
  8
0
 10
-117.028976
 20
83.875854
 11
-117.028976
 21
81.155853
  0
LINE
  8
0
 10
-116.028976
 20
117.455856
 11
-116.028976
 21
102.905853
  0
LINE
  8
0
 10
-117.528984
 20
77.955849
 11
-118.028984
 21
77.455849
  0
LINE
  8
0
 10
-117.028976
 20
77.955856
 11
-117.528976
 21
77.955856
  0
LINE
  8
0
 10
-117.528984
 20
81.155846
 11
-118.028984
 21
81.655846
  0
LINE
  8
0
 10
-117.028976
 20
81.155853
 11
-117.528976
 21
81.155853
  0
LINE
  8
0
 10
-156.028976
 20
119.455833
 11
-158.028976
 21
117.455841
  0
LINE
  8
0
 10
-156.028976
 20
27.455866
 11
-158.028976
 21
29.455868
  0
LINE
  8
0
 10
-118.028976
 20
119.455841
 11
-116.028969
 21
117.455833
  0
LINE
  8
0
 10
-158.028976
 20
97.505844
 11
-158.028976
 21
84.455856
  0
LINE
  8
0
 10
-116.028976
 20
62.455856
 11
-116.028976
 21
28.455856
  0
LINE
  8
0
  6
CENTER
 62
     2
 10
-113.198990
 20
73.455856
 11
-160.798965
 21
73.455856
  0
LINE
  8
0
 10
-118.028976
 20
119.455856
 11
-156.028976
 21
119.455856
  0
LINE
  8
0
 10
-117.028976
 20
27.455856
 11
-156.028976
 21
27.455856
  0
LINE
  8
0
 10
-158.028976
 20
117.455856
 11
-158.028976
 21
103.405853
  0
LINE
  8
0
  6
CENTER
 62
     2
 10
-137.028976
 20
123.325851
 11
-137.028976
 21
24.305862
  0
LINE
  8
0
  6
DASHED
 62
     2
 10
47.471012
 20
33.955856
 11
47.971016
 21
34.455856
  0
LINE
  8
0
  6
DASHED
 62
     2
 10
47.471012
 20
49.955849
 11
47.971012
 21
49.455849
  0
LINE
  8
0
  6
DASHED
 62
     2
 10
47.971020
 20
97.455872
 11
47.471016
 21
96.955856
  0
LINE
  8
0
  6
DASHED
 62
     2
 10
47.471012
 20
112.955856
 11
47.971012
 21
112.455849
  0
LINE
  8
0
  6
DASHED
 62
     2
 10
47.971024
 20
49.455856
 11
47.971024
 21
34.455856
  0
LINE
  8
0
  6
DASHED
 62
     2
 10
47.971024
 20
112.455856
 11
47.971024
 21
97.455856
  0
LINE
  8
0
 10
29.351013
 20
65.755859
 11
39.971024
 21
65.755859
  0
LINE
  8
0
 10
31.901016
 20
68.955856
 11
39.971024
 21
68.955856
  0
LINE
  8
0
 10
31.901016
 20
77.955856
 11
39.971024
 21
77.955856
  0
LINE
  8
0
 10
29.351013
 20
81.155853
 11
39.971024
 21
81.155853
  0
LINE
  8
0
  6
CENTER
 62
     2
 10
22.971024
 20
61.815857
 11
22.971024
 21
85.125854
  0
LINE
  8
0
  6
CENTER
 62
     2
 10
-8.198990
 20
89.955856
 11
4.231018
 21
89.955856
  0
LINE
  8
0
  6
CENTER
 62
     2
 10
-22.028976
 20
96.125854
 11
-22.028976
 21
83.695854
  0
LINE
  8
0
  6
CENTER
 62
     2
 10
-2.028976
 20
96.245850
 11
-2.028976
 21
83.695854
  0
LINE
  8
0
  6
CENTER
 62
     2
 10
18.971024
 20
25.545868
 11
18.971024
 21
31.745865
  0
LINE
  8
0
 10
-28.028980
 20
27.955862
 11
-27.528982
 21
27.455860
  0
LINE
  8
0
 10
39.971016
 20
27.955851
 11
39.471016
 21
27.455849
  0
LINE
  8
0
  6
CENTER
 62
     2
 10
-46.478977
 20
73.455856
 11
42.771011
 21
73.455856
  0
LINE
  8
0
  6
CENTER
 62
     2
 10
-21.608978
 20
44.455856
 11
-10.218979
 21
44.455856
  0
LINE
  8
0
  6
DASHED
 62
     2
 10
-11.288991
 20
30.275860
 11
-11.158991
 21
27.455856
  0
LINE
  8
0
  6
DASHED
 62
     2
 10
-11.738983
 20
30.275864
 11
-11.738983
 21
27.455856
  0
LINE
  8
0
  6
DASHED
 62
     2
 10
-20.758980
 20
30.275864
 11
-20.888981
 21
27.455860
  0
LINE
  8
0
  6
DASHED
 62
     2
 10
-20.308990
 20
30.275864
 11
-20.308990
 21
27.455856
  0
LINE
  8
0
  6
CENTER
 62
     2
 10
-16.028976
 20
26.655869
 11
-16.028976
 21
31.745865
  0
LINE
  8
0
  6
CENTER
 62
     2
 10
24.281021
 20
44.455856
 11
35.895844
 21
44.455856
  0
LINE
  8
0
 10
-28.028976
 20
28.455856
 11
39.971024
 21
28.455856
  0
LINE
  8
0
  6
DASHED
 62
     2
 10
23.711018
 20
30.275869
 11
23.841017
 21
27.455866
  0
LINE
  8
0
  6
DASHED
 62
     2
 10
23.261017
 20
30.275864
 11
23.261017
 21
27.455856
  0
LINE
  8
0
  6
DASHED
 62
     2
 10
14.241011
 20
30.275869
 11
14.111011
 21
27.455866
  0
LINE
  8
0
  6
DASHED
 62
     2
 10
14.691010
 20
30.275864
 11
14.691010
 21
27.455856
  0
LINE
  8
0
 10
-27.528976
 20
27.455856
 11
39.471024
 21
27.455856
  0
LINE
  8
0
 10
39.971024
 20
118.955856
 11
39.971024
 21
27.955856
  0
LINE
  8
0
  6
CENTER
 62
     2
 10
-8.188980
 20
56.955856
 11
3.971024
 21
56.955856
  0
LINE
  8
0
 10
-28.028976
 20
27.955856
 11
-28.028976
 21
118.955856
  0
LINE
  8
0
  6
CENTER
 62
     2
 10
29.971024
 20
38.542511
 11
29.971024
 21
50.205856
  0
LINE
  8
0
 10
-28.028976
 20
65.755859
 11
16.591019
 21
65.755859
  0
LINE
  8
0
 10
-28.028976
 20
68.955856
 11
14.041016
 21
68.955856
  0
LINE
  8
0
 10
-28.028976
 20
63.455856
 11
39.971024
 21
63.455856
  0
LINE
  8
0
 10
-28.028976
 20
62.455856
 11
39.971024
 21
62.455856
  0
LINE
  8
0
  6
CENTER
 62
     2
 10
-22.028976
 20
50.915863
 11
-22.028976
 21
62.905857
  0
LINE
  8
0
  6
CENTER
 62
     2
 10
-27.708984
 20
56.955856
 11
-16.218979
 21
56.955856
  0
LINE
  8
0
  6
CENTER
 62
     2
 10
-2.028976
 20
50.915863
 11
-2.028976
 21
63.655857
  0
LINE
  8
0
 10
-32.028976
 20
96.955856
 11
-28.028976
 21
96.955856
  0
LINE
  8
0
 10
-32.028976
 20
112.955856
 11
-28.028976
 21
112.955856
  0
LINE
  8
0
  6
DASHED
 62
     2
 10
39.971024
 20
96.955856
 11
47.471024
 21
96.955856
  0
LINE
  8
0
  6
DASHED
 62
     2
 10
39.971024
 20
112.955856
 11
47.471024
 21
112.955856
  0
LINE
  8
0
  6
DASHED
 62
     2
 10
39.971024
 20
33.955856
 11
47.471024
 21
33.955856
  0
LINE
  8
0
  6
DASHED
 62
     2
 10
39.971024
 20
49.955856
 11
47.471024
 21
49.955856
  0
LINE
  8
0
 10
-32.028976
 20
76.765854
 11
-30.528976
 21
76.765854
  0
LINE
  8
0
  6
CENTER
 62
     2
 10
-46.528976
 20
41.955856
 11
-25.198990
 21
41.955856
  0
LINE
  8
0
  6
CENTER
 62
     2
 10
-46.528976
 20
104.955856
 11
-25.198990
 21
104.955856
  0
LINE
  8
0
  6
CENTER
 62
     2
 10
-27.708984
 20
89.955856
 11
-16.218979
 21
89.955856
  0
LINE
  8
0
 10
-28.028976
 20
98.305847
 11
39.971024
 21
98.305847
  0
LINE
  8
0
 10
-28.028976
 20
102.605850
 11
39.971024
 21
102.605850
  0
LINE
  8
0
 10
-28.028976
 20
117.455856
 11
39.971024
 21
117.455856
  0
LINE
  8
0
 10
39.471016
 20
119.455856
 11
39.971012
 21
118.955864
  0
LINE
  8
0
 10
-27.528978
 20
119.455849
 11
-28.028978
 21
118.955849
  0
LINE
  8
0
 10
-28.028976
 20
84.455856
 11
39.971024
 21
84.455856
  0
LINE
  8
0
 10
-28.028976
 20
83.455856
 11
39.971024
 21
83.455856
  0
LINE
  8
0
 10
-28.028976
 20
81.155853
 11
16.591019
 21
81.155853
  0
LINE
  8
0
 10
-28.028976
 20
77.955856
 11
14.041016
 21
77.955856
  0
LINE
  8
0
 10
-27.528976
 20
119.455856
 11
39.471024
 21
119.455856
  0
LINE
  8
0
 10
-33.028976
 20
118.455849
 11
-32.028973
 21
117.455849
  0
LINE
  8
0
 10
-43.028976
 20
118.455841
 11
-44.028976
 21
117.455841
  0
LINE
  8
0
 10
-32.028976
 20
29.455864
 11
-33.028980
 21
28.455864
  0
LINE
  8
0
 10
-44.028976
 20
29.455873
 11
-43.028976
 21
28.455872
  0
LINE
  8
0
 10
-43.028976
 20
118.455856
 11
-33.028976
 21
118.455856
  0
LINE
  8
0
 10
-43.028976
 20
28.455856
 11
-33.028976
 21
28.455856
  0
LINE
  8
0
 10
-32.028976
 20
67.455856
 11
-28.028976
 21
67.455856
  0
LINE
  8
0
 62
     2
 10
-30.528976
 20
70.135857
 11
-32.028976
 21
75.105858
  0
LINE
  8
0
 62
     2
 10
-32.028976
 20
71.795845
 11
-30.528975
 21
76.765854
  0
LINE
  8
0
 10
-32.028976
 20
70.135857
 11
-30.528976
 21
70.135857
  0
LINE
  8
0
 10
-30.528976
 20
76.765854
 11
-30.528976
 21
70.135857
  0
LINE
  8
0
 10
-32.028976
 20
33.955856
 11
-28.028976
 21
33.955856
  0
LINE
  8
0
 10
-32.028976
 20
49.955856
 11
-28.028976
 21
49.955856
  0
LINE
  8
0
 10
-44.028976
 20
117.455856
 11
-44.028976
 21
29.455856
  0
LINE
  8
0
 10
-32.028976
 20
29.455856
 11
-32.028976
 21
117.455856
  0
LINE
  8
0
 10
-32.028976
 20
79.455856
 11
-28.028976
 21
79.455856
  0
LINE
  8
0
  6
CENTER
 62
     2
 10
-16.028976
 20
38.542511
 11
-16.028976
 21
50.555862
  0
LINE
  8
0
  6
PHANTOM
 62
     3
 10
-6.543625
 20
20.123169
 11
-6.543625
 21
51.807510
  0
LINE
  8
0
  6
PHANTOM
 62
     3
 10
-11.944351
 20
51.807510
 11
-6.543625
 21
51.807510
  0
LINE
  8
0
  6
PHANTOM
 62
     3
 10
-11.944351
 20
51.807510
 11
-11.944351
 21
136.527817
  0
LINE
  8
0
  6
PHANTOM
 62
     3
 10
7.858353
 20
20.123169
 11
7.858353
 21
129.578140
  0
LINE
  8
0
 10
-56.249985
 20
-145.000000
 11
-56.249985
 21
-185.000000
  0
LINE
  8
0
 10
-236.249817
 20
-168.999939
 11
-240.537003
 21
-152.999939
  0
LINE
  8
0
 10
-271.249756
 20
-184.999985
 11
-271.249756
 21
-144.999985
  0
LINE
  8
0
 10
-271.250000
 20
-145.000000
 11
-16.249985
 21
-145.000000
  0
LINE
  8
0
 10
-271.250000
 20
-153.000000
 11
-240.537186
 21
-153.000000
  0
LINE
  8
0
 10
-271.250000
 20
-169.000000
 11
-16.249985
 21
-169.000000
  0
LINE
  8
0
 10
-271.250000
 20
-185.000000
 11
-16.249985
 21
-185.000000
  0
LINE
  8
0
 10
-271.250000
 20
-177.000000
 11
-16.249985
 21
-177.000000
  0
LINE
  8
0
 10
-236.249985
 20
-145.000000
 11
-236.249985
 21
-185.000000
  0
LINE
  8
0
 10
-216.249985
 20
-145.000000
 11
-216.249985
 21
-185.000000
  0
LINE
  8
0
 10
-196.249985
 20
-145.000000
 11
-196.249985
 21
-185.000000
  0
LINE
  8
0
 10
-176.249985
 20
-145.000000
 11
-176.249985
 21
-185.000000
  0
LINE
  8
0
 10
-156.249985
 20
-145.000000
 11
-156.249985
 21
-185.000000
  0
LINE
  8
0
 10
-136.249985
 20
-145.000000
 11
-136.249985
 21
-185.000000
  0
LINE
  8
0
 10
-116.249985
 20
-145.000000
 11
-116.249985
 21
-185.000000
  0
LINE
  8
0
 10
-96.249985
 20
-145.000000
 11
-96.249985
 21
-185.000000
  0
LINE
  8
0
 10
-76.249985
 20
-145.000000
 11
-76.249985
 21
-185.000000
  0
LINE
  8
0
 10
-36.249985
 20
-145.000000
 11
-36.249985
 21
-185.000000
  0
LINE
  8
0
 10
-16.249985
 20
-145.000000
 11
-16.249985
 21
-185.000000
  0
LINE
  8
0
 10
-121.250000
 20
195.500000
 11
-121.250000
 21
175.500000
  0
LINE
  8
0
 10
282.099854
 20
195.500000
 11
282.099854
 21
-195.000000
  0
LINE
  8
0
 10
-281.250000
 20
195.500000
 11
282.099854
 21
195.500000
  0
LINE
  8
0
 10
-281.250000
 20
195.500000
 11
-281.250000
 21
-195.000000
  0
LINE
  8
0
 10
-281.250000
 20
-195.000000
 11
282.099854
 21
-195.000000
  0
LINE
  8
0
 10
162.099976
 20
-175.000000
 11
162.099976
 21
-195.000000
  0
LINE
  8
0
 10
162.099976
 20
-175.000000
 11
282.099854
 21
-175.000000
  0
LINE
  8
0
 10
162.099976
 20
175.500000
 11
282.099854
 21
175.500000
  0
LINE
  8
0
 10
-281.250000
 20
175.500000
 11
-121.250000
 21
175.500000
  0
LINE
  8
0
 10
162.099976
 20
195.500000
 11
162.099976
 21
175.500000
  0
CIRCLE
  8
0
 10
-12.978714
 20
-86.493881
 40
1.000000
  0
CIRCLE
  8
0
 10
-3.079224
 20
-76.594391
 40
1.000000
  0
CIRCLE
  8
0
 10
-8.028976
 20
-81.544128
 40
1.650000
  0
CIRCLE
  8
0
 62
     2
 10
-8.028976
 20
-81.544128
 40
9.500000
  0
CIRCLE
  8
0
 10
-8.028976
 20
-81.544128
 40
10.000000
  0
CIRCLE
  8
0
 10
-16.028976
 20
-110.544128
 40
4.283003
  0
CIRCLE
  8
0
 62
     2
 10
-16.028976
 20
-110.544128
 40
4.864004
  0
CIRCLE
  8
0
 10
29.971024
 20
-110.544128
 40
4.283003
  0
CIRCLE
  8
0
 62
     2
 10
29.971024
 20
-110.544128
 40
4.864004
  0
CIRCLE
  8
0
 10
-22.028976
 20
-98.044128
 40
4.750000
  0
CIRCLE
  8
0
  6
DASHED
 62
     2
 10
-22.028976
 20
-98.044128
 40
3.000000
  0
CIRCLE
  8
0
 10
-22.028976
 20
-98.044128
 40
2.599999
  0
CIRCLE
  8
0
 10
-2.028976
 20
-98.044128
 40
2.599999
  0
CIRCLE
  8
0
  6
DASHED
 62
     2
 10
-2.028976
 20
-98.044128
 40
3.000000
  0
CIRCLE
  8
0
 10
-2.028976
 20
-98.044128
 40
4.750000
  0
CIRCLE
  8
0
 10
-22.028976
 20
-65.044128
 40
2.599999
  0
CIRCLE
  8
0
  6
DASHED
 62
     2
 10
-22.028976
 20
-65.044128
 40
3.000000
  0
CIRCLE
  8
0
 10
-22.028976
 20
-65.044128
 40
4.750000
  0
CIRCLE
  8
0
  6
DASHED
 62
     2
 10
-2.028976
 20
-65.044128
 40
3.000000
  0
CIRCLE
  8
0
 10
-2.028976
 20
-65.044128
 40
2.599999
  0
CIRCLE
  8
0
 10
-2.028976
 20
-65.044128
 40
4.750000
  0
ARC
  8
0
 10
-35.528976
 20
-81.549126
 40
5.999105
 50
326.455627
 51
33.544388
  0
CIRCLE
  8
0
 10
151.001007
 20
41.955856
 40
8.000000
  0
CIRCLE
  8
0
 10
151.001007
 20
104.955856
 40
8.000000
  0
CIRCLE
  8
0
 10
166.001007
 20
33.455856
 40
2.500000
  0
CIRCLE
  8
0
 62
     2
 10
166.001007
 20
33.455856
 40
3.000000
  0
CIRCLE
  8
0
 10
136.001007
 20
113.455856
 40
2.500000
  0
CIRCLE
  8
0
 62
     2
 10
136.001007
 20
113.455856
 40
3.000000
  0
CIRCLE
  8
0
 10
136.501007
 20
44.455856
 40
1.000000
  0
ARC
  8
0
 10
171.701004
 20
49.405869
 40
0.299999
 50
270.000000
 51
0.000000
  0
ARC
  8
0
 10
171.701004
 20
43.505859
 40
0.300003
 50
0.000000
 51
90.000000
  0
ARC
  8
0
 10
130.301010
 20
98.005844
 40
0.300003
 50
90.000000
 51
180.000000
  0
ARC
  8
0
 10
130.301010
 20
102.905853
 40
0.300003
 50
180.000000
 51
270.000000
  0
ARC
  8
0
 10
171.701004
 20
97.505844
 40
0.300003
 50
0.000000
 51
90.000000
  0
ARC
  8
0
 10
171.701004
 20
103.405853
 40
0.300003
 50
270.000000
 51
0.000000
  0
CIRCLE
  8
0
 10
166.001007
 20
113.455856
 40
2.500000
  0
CIRCLE
  8
0
 62
     2
 10
166.001007
 20
113.455856
 40
3.000000
  0
CIRCLE
  8
0
 10
136.001007
 20
33.455856
 40
2.500000
  0
CIRCLE
  8
0
 62
     2
 10
136.001007
 20
33.455856
 40
3.000000
  0
CIRCLE
  8
0
 10
151.001007
 20
73.455856
 40
14.000001
  0
CIRCLE
  8
0
 10
151.001007
 20
41.955856
 40
9.000000
  0
CIRCLE
  8
0
 10
151.001007
 20
104.955856
 40
9.000000
  0
ARC
  8
0
 10
168.401001
 20
79.555855
 40
2.099998
 50
90.000000
 51
270.000000
  0
ARC
  8
0
 10
168.401001
 20
67.355858
 40
2.099998
 50
90.000000
 51
270.000000
  0
ARC
  8
0
 10
133.601013
 20
67.355858
 40
2.099998
 50
270.000000
 51
90.000000
  0
ARC
  8
0
 10
133.601013
 20
79.555855
 40
2.099998
 50
270.000000
 51
90.000000
  0
CIRCLE
  8
0
 10
-137.028976
 20
104.955856
 40
3.400000
  0
CIRCLE
  8
0
 10
-137.028976
 20
104.955856
 40
5.250000
  0
CIRCLE
  8
0
 10
-137.028976
 20
73.455856
 40
3.400000
  0
CIRCLE
  8
0
 10
-137.028976
 20
73.455856
 40
5.250000
  0
CIRCLE
  8
0
 10
-137.028976
 20
41.955856
 40
3.400000
  0
CIRCLE
  8
0
 10
-137.028976
 20
41.955856
 40
5.250000
  0
CIRCLE
  8
0
 62
     2
 10
-124.028976
 20
111.455856
 40
3.000000
  0
CIRCLE
  8
0
 10
-124.028976
 20
111.455856
 40
2.500000
  0
CIRCLE
  8
0
 62
     2
 10
-124.028976
 20
35.455856
 40
3.000000
  0
CIRCLE
  8
0
 10
-124.028976
 20
35.455856
 40
2.500000
  0
CIRCLE
  8
0
 62
     2
 10
-150.028976
 20
111.455856
 40
3.000000
  0
CIRCLE
  8
0
 10
-150.028976
 20
111.455856
 40
2.500000
  0
CIRCLE
  8
0
 10
-137.028976
 20
41.955856
 40
5.750000
  0
CIRCLE
  8
0
 10
-150.028976
 20
35.455856
 40
2.500000
  0
CIRCLE
  8
0
 62
     2
 10
-150.028976
 20
35.455856
 40
3.000000
  0
CIRCLE
  8
0
 10
-137.028976
 20
73.455856
 40
5.750000
  0
CIRCLE
  8
0
 10
-137.028976
 20
104.955856
 40
5.750000
  0
ARC
  8
0
 10
-116.328979
 20
98.005859
 40
0.299995
 50
359.998535
 51
90.001457
  0
ARC
  8
0
 10
-116.328979
 20
102.905838
 40
0.299995
 50
269.998535
 51
0.001457
  0
ARC
  8
0
 10
-157.728973
 20
43.505875
 40
0.299992
 50
89.997086
 51
180.001450
  0
ARC
  8
0
 10
-157.728973
 20
49.405853
 40
0.299988
 50
179.998550
 51
270.000000
  0
ARC
  8
0
 10
-157.728973
 20
97.505859
 40
0.299995
 50
89.997086
 51
180.001450
  0
ARC
  8
0
 10
-157.728973
 20
103.405838
 40
0.299988
 50
179.998550
 51
270.000000
  0
CIRCLE
  8
0
 10
27.920761
 20
68.506104
 40
1.000000
  0
CIRCLE
  8
0
 10
18.021271
 20
78.405594
 40
1.000000
  0
CIRCLE
  8
0
 10
22.971024
 20
73.455856
 40
1.650000
  0
CIRCLE
  8
0
 62
     2
 10
22.971024
 20
73.455856
 40
9.500000
  0
CIRCLE
  8
0
 10
22.971024
 20
73.455856
 40
10.000000
  0
CIRCLE
  8
0
 10
-16.028976
 20
44.455856
 40
4.283003
  0
CIRCLE
  8
0
 62
     2
 10
-16.028976
 20
44.455856
 40
4.864004
  0
CIRCLE
  8
0
 10
29.971024
 20
44.455856
 40
4.283003
  0
CIRCLE
  8
0
 62
     2
 10
29.971024
 20
44.455856
 40
4.864004
  0
CIRCLE
  8
0
 10
-22.028976
 20
56.955856
 40
4.750000
  0
CIRCLE
  8
0
  6
DASHED
 62
     2
 10
-22.028976
 20
56.955856
 40
3.000000
  0
CIRCLE
  8
0
 10
-22.028976
 20
56.955856
 40
2.599999
  0
CIRCLE
  8
0
 10
-2.028976
 20
56.955856
 40
2.599999
  0
CIRCLE
  8
0
  6
DASHED
 62
     2
 10
-2.028976
 20
56.955856
 40
3.000000
  0
CIRCLE
  8
0
 10
-2.028976
 20
56.955856
 40
4.750000
  0
CIRCLE
  8
0
 10
-22.028976
 20
89.955856
 40
2.599999
  0
CIRCLE
  8
0
  6
DASHED
 62
     2
 10
-22.028976
 20
89.955856
 40
3.000000
  0
CIRCLE
  8
0
 10
-22.028976
 20
89.955856
 40
4.750000
  0
CIRCLE
  8
0
  6
DASHED
 62
     2
 10
-2.028976
 20
89.955856
 40
3.000000
  0
CIRCLE
  8
0
 10
-2.028976
 20
89.955856
 40
2.599999
  0
CIRCLE
  8
0
 10
-2.028976
 20
89.955856
 40
4.750000
  0
ARC
  8
0
 10
-35.528976
 20
73.450859
 40
5.999105
 50
326.455627
 51
33.544388
  0
TEXT
  8
0
 10
-35.642658
 20
-145.050003
 40
4.500000
  1
（ｍｍ）
 50
0.000000
 41
0.833333
 51
0.000000
  7
STANDARD
  0
TEXT
  8
0
 10
-173.642654
 20
-143.050003
 40
4.500000
  1
STRETCH LIST
 50
0.000000
 41
1.052632
 51
0.000000
  7
STANDARD
  0
TEXT
  8
0
 10
-33.242187
 20
-184.050003
 40
4.500000
  1
100
 50
0.000000
 41
1.052632
 51
0.000000
  7
STANDARD
  0
TEXT
  8
0
 10
-30.992187
 20
-176.050003
 40
4.500000
  1
90
 50
0.000000
 41
1.052632
 51
0.000000
  7
STANDARD
  0
TEXT
  8
0
 10
-50.992187
 20
-184.050003
 40
4.500000
  1
75
 50
0.000000
 41
1.052632
 51
0.000000
  7
STANDARD
  0
TEXT
  8
0
 10
-50.992187
 20
-176.050003
 40
4.500000
  1
90
 50
0.000000
 41
1.052632
 51
0.000000
  7
STANDARD
  0
TEXT
  8
0
 10
-70.992187
 20
-184.050003
 40
4.500000
  1
50
 50
0.000000
 41
1.052632
 51
0.000000
  7
STANDARD
  0
TEXT
  8
0
 10
-70.992187
 20
-176.050003
 40
4.500000
  1
90
 50
0.000000
 41
1.052632
 51
0.000000
  7
STANDARD
  0
TEXT
  8
0
 10
-90.992187
 20
-184.050003
 40
4.500000
  1
25
 50
0.000000
 41
1.052632
 51
0.000000
  7
STANDARD
  0
TEXT
  8
0
 10
-90.992187
 20
-176.050003
 40
4.500000
  1
90
 50
0.000000
 41
1.052632
 51
0.000000
  7
STANDARD
  0
TEXT
  8
0
 10
-110.992187
 20
-184.050003
 40
4.500000
  1
50
 50
0.000000
 41
1.052632
 51
0.000000
  7
STANDARD
  0
TEXT
  8
0
 10
-110.992187
 20
-176.050003
 40
4.500000
  1
40
 50
0.000000
 41
1.052632
 51
0.000000
  7
STANDARD
  0
TEXT
  8
0
 10
-130.992187
 20
-184.050003
 40
4.500000
  1
25
 50
0.000000
 41
1.052632
 51
0.000000
  7
STANDARD
  0
TEXT
  8
0
 10
-130.992187
 20
-176.050003
 40
4.500000
  1
40
 50
0.000000
 41
1.052632
 51
0.000000
  7
STANDARD
  0
TEXT
  8
0
 10
-148.742187
 20
-184.050003
 40
4.500000
  1
0
 50
0.000000
 41
1.052632
 51
0.000000
  7
STANDARD
  0
TEXT
  8
0
 10
-150.992187
 20
-176.050003
 40
4.500000
  1
40
 50
0.000000
 41
1.052632
 51
0.000000
  7
STANDARD
  0
TEXT
  8
0
 10
-168.742187
 20
-184.050003
 40
4.500000
  1
0
 50
0.000000
 41
1.052632
 51
0.000000
  7
STANDARD
  0
TEXT
  8
0
 10
-170.992187
 20
-176.050003
 40
4.500000
  1
30
 50
0.000000
 41
1.052632
 51
0.000000
  7
STANDARD
  0
TEXT
  8
0
 10
-188.742187
 20
-184.050003
 40
4.500000
  1
0
 50
0.000000
 41
1.052632
 51
0.000000
  7
STANDARD
  0
TEXT
  8
0
 10
-190.992187
 20
-176.050003
 40
4.500000
  1
20
 50
0.000000
 41
1.052632
 51
0.000000
  7
STANDARD
  0
TEXT
  8
0
 10
-208.742187
 20
-184.050003
 40
4.500000
  1
0
 50
0.000000
 41
1.052632
 51
0.000000
  7
STANDARD
  0
TEXT
  8
0
 10
-210.992187
 20
-176.050003
 40
4.500000
  1
10
 50
0.000000
 41
1.052632
 51
0.000000
  7
STANDARD
  0
TEXT
  8
0
 10
-228.742187
 20
-184.050003
 40
4.500000
  1
0
 50
0.000000
 41
1.052632
 51
0.000000
  7
STANDARD
  0
TEXT
  8
0
 10
-228.742187
 20
-176.050003
 40
4.500000
  1
0
 50
0.000000
 41
1.052632
 51
0.000000
  7
STANDARD
  0
TEXT
  8
0
 10
-33.392658
 20
-160.050003
 40
4.500000
  1
200
 50
0.000000
 41
1.052632
 51
0.000000
  7
STANDARD
  0
TEXT
  8
0
 10
-53.392658
 20
-160.050003
 40
4.500000
  1
175
 50
0.000000
 41
1.052632
 51
0.000000
  7
STANDARD
  0
TEXT
  8
0
 10
-73.392654
 20
-160.050003
 40
4.500000
  1
150
 50
0.000000
 41
1.052632
 51
0.000000
  7
STANDARD
  0
TEXT
  8
0
 10
-93.392654
 20
-160.050003
 40
4.500000
  1
125
 50
0.000000
 41
1.052632
 51
0.000000
  7
STANDARD
  0
TEXT
  8
0
 10
-113.392654
 20
-160.050003
 40
4.500000
  1
100
 50
0.000000
 41
1.052632
 51
0.000000
  7
STANDARD
  0
TEXT
  8
0
 10
-131.142654
 20
-160.050003
 40
4.500000
  1
75
 50
0.000000
 41
1.052632
 51
0.000000
  7
STANDARD
  0
TEXT
  8
0
 10
-151.142654
 20
-160.050003
 40
4.500000
  1
50
 50
0.000000
 41
1.052632
 51
0.000000
  7
STANDARD
  0
TEXT
  8
0
 10
-171.142654
 20
-160.050003
 40
4.500000
  1
40
 50
0.000000
 41
1.052632
 51
0.000000
  7
STANDARD
  0
TEXT
  8
0
 10
-191.142654
 20
-160.050003
 40
4.500000
  1
30
 50
0.000000
 41
1.052632
 51
0.000000
  7
STANDARD
  0
TEXT
  8
0
 10
-211.142654
 20
-160.050003
 40
4.500000
  1
20
 50
0.000000
 41
1.052632
 51
0.000000
  7
STANDARD
  0
TEXT
  8
0
 10
-231.142654
 20
-160.050003
 40
4.500000
  1
10
 50
0.000000
 41
1.052632
 51
0.000000
  7
STANDARD
  0
TEXT
  8
0
 10
-267.642670
 20
-151.550003
 40
4.500000
  1
STROKE
 50
0.000000
 41
1.052632
 51
0.000000
  7
STANDARD
  0
TEXT
  8
0
 10
-271.892670
 20
-159.324997
 40
4.500000
  1
STRETCH
 50
0.000000
 41
1.052632
 51
0.000000
  7
STANDARD
  0
TEXT
  8
0
 10
-271.892670
 20
-166.074997
 40
4.500000
  1
  PLACE
 50
0.000000
 41
1.052632
 51
0.000000
  7
STANDARD
  0
TEXT
  8
0
 10
-256.392670
 20
-176.050003
 40
4.500000
  1
A
 50
0.000000
 41
1.052632
 51
0.000000
  7
STANDARD
  0
TEXT
  8
0
 10
-256.392670
 20
-184.050003
 40
4.500000
  1
B
 50
0.000000
 41
1.052632
 51
0.000000
  7
STANDARD
  0
TEXT
  8
0
 62
     3
 10
-35.013805
 20
-20.018187
 40
4.500000
  1
STRETCH LINE A
 50
0.000000
 41
1.052632
 51
0.000000
  7
STANDARD
  0
TEXT
  8
0
 62
     3
 10
0.534164
 20
-28.648344
 40
4.500000
  1
STRETCH LINE B
 50
0.000000
 41
1.052632
 51
0.000000
  7
STANDARD
  0
TEXT
  8
0
 62
     3
 10
-37.308006
 20
138.636032
 40
4.500000
  1
STRETCH LINE A
 50
0.000000
 41
1.052632
 51
0.000000
  7
STANDARD
  0
TEXT
  8
0
 62
     3
 10
-1.025163
 20
129.793274
 40
4.500000
  1
STRETCH LINE B
 50
0.000000
 41
1.052632
 51
0.000000
  7
STANDARD
  0
TEXT
  8
0
 10
-232.249710
 20
147.830002
 40
6.300000
  1
SGDAK25*ST(10)-RL
 50
0.000000
 41
1.052632
 51
0.000000
  7
STANDARD
  0
TEXT
  8
0
 10
196.250259
 20
180.830002
 40
6.300000
  1
Ｖｅｒ．　１．０
 50
0.000000
 41
0.833333
 51
0.000000
  7
STANDARD
  0
TEXT
  8
0
 10
167.564667
 20
-192.100006
 40
9.000000
  1
KOGANEI CORP.
 50
0.000000
 41
1.052632
 51
0.000000
  7
STANDARD
  0
TEXT
  8
0
 10
-274.349731
 20
180.830002
 40
6.300000
  1
JIG CYLINDER WITH GUIDE
 50
0.000000
 41
1.052632
 51
0.000000
  7
STANDARD
  0
TEXT
  8
0
 10
-270.049713
 20
155.830002
 40
6.300000
  1
MODEL:SGDAK25*ST(10)-HL
 50
0.000000
 41
1.052632
 51
0.000000
  7
STANDARD
  0
TEXT
  8
0
 62
     2
 10
58.907413
 20
8.566130
 40
3.200000
  1
STROKE:75-200
 50
0.000000
 41
1.052632
 51
0.000000
  7
STANDARD
  0
LINE
  8
0
 62
     2
 10
47.971008
 20
7.566130
 11
100.257416
 21
7.566130
  0
LINE
  8
0
 62
     2
 10
47.971008
 20
7.566130
 11
39.971008
 21
7.566130
  0
LINE
  8
0
 62
     2
 10
47.971008
 20
7.566130
 11
50.868786
 21
8.342587
  0
LINE
  8
0
 62
     2
 10
47.971008
 20
7.566130
 11
50.868786
 21
6.789672
  0
LINE
  8
0
 62
     2
 10
47.971008
 20
7.566130
 11
53.971008
 21
7.566130
  0
LINE
  8
0
 62
     2
 10
39.971008
 20
7.566130
 11
37.073231
 21
6.789672
  0
LINE
  8
0
 62
     2
 10
39.971008
 20
7.566130
 11
37.073231
 21
8.342587
  0
LINE
  8
0
 62
     2
 10
39.971008
 20
7.566130
 11
33.971008
 21
7.566130
  0
LINE
  8
0
 62
     2
 10
47.971008
 20
34.455872
 11
47.971008
 21
6.066130
  0
LINE
  8
0
 62
     2
 10
39.971008
 20
27.955872
 11
39.971008
 21
6.066130
  0
ENDSEC
  0
EOF
