  0
SECTION
  2
HEADER
  0
ENDSEC
  0
SECTION
  2
TABLES
  0
TABLE
  2
LTYPE
 70
     4
  0
LTYPE
  2
CONTINUOUS
 70
    64
  3
Solid line
 72
    65
 73
     0
 40
0.000000
  0
LTYPE
  2
DASHED
 70
    64
  3
__ __ __ __ __ __ __ __ __ __ __ __ __ __ __
 72
    65
 73
     2
 40
3.500000
 49
2.000000
 49
-1.500000
  0
LTYPE
  2
CENTER
 70
    64
  3
____ _ ____ _ ____ _ ____ _ ____ _ ____ _ ____
 72
    65
 73
     4
 40
17.500000
 49
13.000000
 49
-1.500000
 49
1.500000
 49
-1.500000
  0
LTYPE
  2
PHANTOM
 70
    64
  3
_____ _ _ _____ _ _ _____ _ _ _____ _ _ ____  
 72
    65
 73
     6
 40
15.500000
 49
8.000000
 49
-1.500000
 49
1.500000
 49
-1.500000
 49
1.500000
 49
-1.500000
  0
LTYPE
  2
DASHED1
 70
    64
  3
__ __ __ __ __ __ __ __ __ __ __ __ __ __ __
 72
    65
 73
     2
 40
1.500000
 49
1.000000
 49
-0.500000
  0
LTYPE
  2
DASHED2
 70
    64
  3
__ __ __ __ __ __ __ __ __ __ __ __ __ __ __
 72
    65
 73
     2
 40
3.500000
 49
2.500000
 49
-1.000000
  0
LTYPE
  2
DASHED3
 70
    64
  3
__ __ __ __ __ __ __ __ __ __ __ __ __ __ __
 72
    65
 73
     2
 40
6.000000
 49
4.000000
 49
-2.000000
  0
LTYPE
  2
DASHED4
 70
    64
  3
__ __ __ __ __ __ __ __ __ __ __ __ __ __ __
 72
    65
 73
     2
 40
12.000000
 49
10.000000
 49
-2.000000
  0
LTYPE
  2
DASHED5
 70
    64
  3
__ __ __ __ __ __ __ __ __ __ __ __ __ __ __
 72
    65
 73
     2
 40
17.000000
 49
15.000000
 49
-2.000000
  0
LTYPE
  2
DASHED6
 70
    64
  3
__ __ __ __ __ __ __ __ __ __ __ __ __ __ __
 72
    65
 73
     2
 40
29.000000
 49
27.000000
 49
-2.000000
  0
LTYPE
  2
PHANTOM1
 70
    64
  3
_____ _ _ _____ _ _ _____ _ _ _____ _ _ ____  
 72
    65
 73
     6
 40
31.000000
 49
25.000000
 49
-1.500000
 49
1.000000
 49
-1.000000
 49
1.000000
 49
-1.500000
  0
LTYPE
  2
PHANTOM2
 70
    64
  3
_____ _ _ _____ _ _ _____ _ _ _____ _ _ ____  
 72
    65
 73
     6
 40
36.000000
 49
27.000000
 49
-1.500000
 49
2.500000
 49
-1.000000
 49
2.500000
 49
-1.500000
  0
LTYPE
  2
PHANTOM3
 70
    64
  3
_____ _ _ _____ _ _ _____ _ _ _____ _ _ ____  
 72
    65
 73
     6
 40
78.000000
 49
64.000000
 49
-2.000000
 49
4.000000
 49
-2.000000
 49
4.000000
 49
-2.000000
  0
LTYPE
  2
CENTER1
 70
    64
  3
____ _ ____ _ ____ _ ____ _ ____ _ ____ _ ____
 72
    65
 73
     4
 40
19.000000
 49
14.000000
 49
-1.000000
 49
3.000000
 49
-1.000000
  0
LTYPE
  2
CENTER2
 70
    64
  3
____ _ ____ _ ____ _ ____ _ ____ _ ____ _ ____
 72
    65
 73
     4
 40
28.500000
 49
25.000000
 49
-1.000000
 49
1.500000
 49
-1.000000
  0
LTYPE
  2
CENTER3
 70
    64
  3
____ _ ____ _ ____ _ ____ _ ____ _ ____ _ ____
 72
    65
 73
     4
 40
31.500000
 49
27.000000
 49
-1.000000
 49
2.500000
 49
-1.000000
  0
LTYPE
  2
CENTER4
 70
    64
  3
____ _ ____ _ ____ _ ____ _ ____ _ ____ _ ____
 72
    65
 73
     4
 40
50.000000
 49
45.000000
 49
-1.000000
 49
3.000000
 49
-1.000000
  0
LTYPE
  2
CENTER5
 70
    64
  3
____ _ ____ _ ____ _ ____ _ ____ _ ____ _ ____
 72
    65
 73
     4
 40
100.000000
 49
92.000000
 49
-2.000000
 49
4.000000
 49
-2.000000
  0
LTYPE
  2
SBK1
 70
    64
  3
______ _ _ _ ______ _ _ _ ______ _ _ _ _____  
 72
    65
 73
     8
 40
60.500000
 49
45.000000
 49
-2.000000
 49
2.500000
 49
-2.000000
 49
2.500000
 49
-2.000000
 49
2.500000
 49
-2.000000
  0
LTYPE
  2
SBK2
 70
    64
  3
______ _ _ _ ______ _ _ _ ______ _ _ _ _____  
 72
    65
 73
     8
 40
84.000000
 49
64.000000
 49
-2.000000
 49
4.000000
 49
-2.000000
 49
4.000000
 49
-2.000000
 49
4.000000
 49
-2.000000
  0
LTYPE
  2
STCH
 70
    64
  3
__ __ __ __ __ __ __ __ __ __ __ __ __ __ __
 72
    65
 73
     2
 40
3.000000
 49
1.000000
 49
-2.000000
  0
LTYPE
  2
MTCH
 70
    64
  3
_____ _ _ _____ _ _ _____ _ _ _____ _ _ ____  
 72
    65
 73
     6
 40
80.000000
 49
66.000000
 49
-2.000000
 49
4.000000
 49
-2.000000
 49
4.000000
 49
-2.000000
  0
ENDTAB
  0
TABLE
  2
LAYER
 70
     1
  0
LAYER
  2
0
 70
     0
 62
     7
  6
CONTINUOUS
  0
ENDTAB
  0
TABLE
  2
STYLE
 70
     1
  0
STYLE
  2
STANDARD
 70
     0
 40
0.000000
 41
1.000000
 50
0.000000
 71
     0
 42
0.200000
  3
txt
  4
BIGFONT
  0
ENDTAB
  0
TABLE
  2
VIEW
 70
     0
  0
ENDTAB
  0
ENDSEC
  0
SECTION
  2
BLOCKS
  0
ENDSEC
  0
SECTION
  2
ENTITIES
  0
LINE
  8
0
 10
-35.999374
 20
-163.625198
 11
-31.999374
 21
-163.625198
  0
LINE
  8
0
 10
-35.999374
 20
-147.625198
 11
-31.999374
 21
-147.625198
  0
LINE
  8
0
 10
-35.999374
 20
-73.625198
 11
-31.999374
 21
-73.625198
  0
LINE
  8
0
 10
-35.999374
 20
-57.625198
 11
-31.999374
 21
-57.625198
  0
LINE
  8
0
 10
-15.427948
 20
-121.325195
 11
-31.999374
 21
-121.325195
  0
LINE
  8
0
 10
-19.356522
 20
-118.125198
 11
-31.999374
 21
-118.125198
  0
LINE
  8
0
 10
-15.427948
 20
-99.925201
 11
-31.999374
 21
-99.925201
  0
LINE
  8
0
 10
-19.356522
 20
-103.125198
 11
-31.999374
 21
-103.125198
  0
LINE
  8
0
 62
     2
 10
-9.999374
 20
-95.639481
 11
-9.999374
 21
-124.996628
  0
LINE
  8
0
  6
DASHED
 62
     2
 10
53.500610
 20
-57.625195
 11
54.000610
 21
-58.125195
  0
LINE
  8
0
  6
DASHED
 62
     2
 10
53.500618
 20
-73.625191
 11
54.000622
 21
-73.125191
  0
LINE
  8
0
  6
DASHED
 62
     2
 10
54.000607
 20
-163.125198
 11
53.500607
 21
-163.625198
  0
LINE
  8
0
  6
DASHED
 62
     2
 10
53.500618
 20
-147.625198
 11
54.000618
 21
-148.125198
  0
LINE
  8
0
  6
DASHED
 62
     2
 10
54.000626
 20
-58.125198
 11
54.000626
 21
-73.125198
  0
LINE
  8
0
  6
DASHED
 62
     2
 10
54.000626
 20
-148.125198
 11
54.000626
 21
-163.125198
  0
LINE
  8
0
 10
42.000626
 20
-49.125198
 11
42.000626
 21
-172.125198
  0
LINE
  8
0
  6
CENTER
 62
     2
 10
17.000626
 20
-167.068054
 11
17.000626
 21
-174.453766
  0
LINE
  8
0
  6
DASHED
 62
     2
 10
-12.785095
 20
-168.468048
 11
-12.427954
 21
-172.625198
  0
LINE
  8
0
  6
DASHED
 62
     2
 10
-13.899384
 20
-168.468048
 11
-13.899384
 21
-172.625198
  0
LINE
  8
0
  6
CENTER
 62
     2
 10
-23.999374
 20
-150.625198
 11
-11.999374
 21
-150.625198
  0
LINE
  8
0
  6
DASHED
 62
     2
 10
-22.099380
 20
-168.468048
 11
-22.099380
 21
-172.625198
  0
LINE
  8
0
  6
DASHED
 62
     2
 10
-23.199377
 20
-168.468048
 11
-23.556520
 21
-172.625198
  0
LINE
  8
0
 10
-31.999374
 20
-172.125183
 11
-31.499372
 21
-172.625183
  0
LINE
  8
0
 10
42.000607
 20
-172.125198
 11
41.500607
 21
-172.625198
  0
LINE
  8
0
  6
CENTER
 62
     2
 10
22.729187
 20
-150.625198
 11
43.343475
 21
-150.625198
  0
LINE
  8
0
  6
DASHED
 62
     2
 10
22.200619
 20
-168.468048
 11
22.557760
 21
-172.625198
  0
LINE
  8
0
  6
DASHED
 62
     2
 10
21.100616
 20
-168.468048
 11
21.100616
 21
-172.625198
  0
LINE
  8
0
  6
DASHED
 62
     2
 10
12.900620
 20
-168.468048
 11
12.900620
 21
-172.625198
  0
LINE
  8
0
  6
DASHED
 62
     2
 10
11.800625
 20
-168.468048
 11
11.443482
 21
-172.625183
  0
LINE
  8
0
  6
CENTER
 62
     2
 10
29.000626
 20
-144.439484
 11
29.000626
 21
-158.825195
  0
LINE
  8
0
  6
CENTER
 62
     2
 10
-17.999374
 20
-144.039474
 11
-17.999374
 21
-174.225189
  0
LINE
  8
0
  6
CENTER
 62
     2
 10
-32.499374
 20
-136.625198
 11
-17.499374
 21
-136.625198
  0
LINE
  8
0
  6
CENTER
 62
     2
 10
-24.999374
 20
-129.125198
 11
-24.999374
 21
-144.125198
  0
LINE
  8
0
  6
CENTER
 62
     2
 10
-11.856522
 20
-136.625198
 11
2.500626
 21
-136.625198
  0
LINE
  8
0
  6
CENTER
 62
     2
 10
-4.999374
 20
-129.125198
 11
-4.999374
 21
-144.125198
  0
LINE
  8
0
 10
42.000626
 20
-170.625198
 11
-31.999374
 21
-170.625198
  0
LINE
  8
0
 10
42.000626
 20
-127.625198
 11
-31.999374
 21
-127.625198
  0
LINE
  8
0
 10
42.000626
 20
-126.625198
 11
-31.999374
 21
-126.625198
  0
LINE
  8
0
 10
42.000626
 20
-121.325195
 11
-4.556519
 21
-121.325195
  0
LINE
  8
0
 10
42.000626
 20
-118.125198
 11
-0.627960
 21
-118.125198
  0
LINE
  8
0
 10
-31.499374
 20
-172.625198
 11
41.500626
 21
-172.625198
  0
LINE
  8
0
 10
-31.999374
 20
-49.125198
 11
-31.999374
 21
-172.125198
  0
LINE
  8
0
  6
CENTER
 62
     2
 10
-12.499374
 20
-84.625198
 11
2.500626
 21
-84.625198
  0
LINE
  8
0
  6
CENTER
 62
     2
 10
-4.999374
 20
-77.125198
 11
-4.999374
 21
-92.125198
  0
LINE
  8
0
  6
CENTER
 62
     2
 10
-32.499374
 20
-84.625198
 11
-17.499374
 21
-84.625198
  0
LINE
  8
0
  6
CENTER
 62
     2
 10
-24.999374
 20
-77.125198
 11
-24.999374
 21
-92.125198
  0
LINE
  8
0
  6
DASHED
 62
     2
 10
42.000626
 20
-73.625198
 11
53.500626
 21
-73.625198
  0
LINE
  8
0
  6
DASHED
 62
     2
 10
42.000626
 20
-57.625198
 11
53.500626
 21
-57.625198
  0
LINE
  8
0
  6
DASHED
 62
     2
 10
42.000626
 20
-163.625198
 11
53.500626
 21
-163.625198
  0
LINE
  8
0
  6
DASHED
 62
     2
 10
42.000626
 20
-147.625198
 11
53.500626
 21
-147.625198
  0
LINE
  8
0
 10
-35.999374
 20
-106.753769
 11
-34.499374
 21
-106.753769
  0
LINE
  8
0
 10
-35.999374
 20
-102.625198
 11
-31.999374
 21
-102.625198
  0
LINE
  8
0
 10
41.500607
 20
-48.625195
 11
42.000607
 21
-49.125195
  0
LINE
  8
0
 10
-31.499376
 20
-48.625210
 11
-31.999378
 21
-49.125210
  0
LINE
  8
0
 10
42.000626
 20
-103.125198
 11
-0.627960
 21
-103.125198
  0
LINE
  8
0
 10
42.000626
 20
-99.925201
 11
-4.556519
 21
-99.925201
  0
LINE
  8
0
 10
42.000626
 20
-94.625198
 11
-31.999374
 21
-94.625198
  0
LINE
  8
0
 10
42.000626
 20
-93.625198
 11
-31.999374
 21
-93.625198
  0
LINE
  8
0
 10
42.000626
 20
-72.282349
 11
-31.999374
 21
-72.282349
  0
LINE
  8
0
 10
42.000626
 20
-66.982346
 11
-31.999374
 21
-66.982346
  0
LINE
  8
0
 10
42.000626
 20
-50.625198
 11
-31.999374
 21
-50.625198
  0
LINE
  8
0
 10
-31.499374
 20
-48.625198
 11
41.500626
 21
-48.625198
  0
LINE
  8
0
 10
-36.999371
 20
-49.625206
 11
-35.999367
 21
-50.625210
  0
LINE
  8
0
 10
-49.999386
 20
-49.625210
 11
-50.999371
 21
-50.625195
  0
LINE
  8
0
 10
-36.999371
 20
-171.625183
 11
-35.999371
 21
-170.625183
  0
LINE
  8
0
 10
-50.999382
 20
-170.625198
 11
-49.999390
 21
-171.625183
  0
LINE
  8
0
 62
     2
 10
-34.499374
 20
-106.753769
 11
-35.999374
 21
-112.568054
  0
LINE
  8
0
 62
     2
 10
-34.499374
 20
-114.510910
 11
-35.999374
 21
-108.696617
  0
LINE
  8
0
 10
-34.499374
 20
-106.753769
 11
-34.499374
 21
-114.510910
  0
LINE
  8
0
 10
-35.999374
 20
-114.510910
 11
-34.499374
 21
-114.510910
  0
LINE
  8
0
 10
-50.999374
 20
-50.625198
 11
-50.999374
 21
-170.625198
  0
LINE
  8
0
 10
-35.999374
 20
-170.625198
 11
-35.999374
 21
-50.625198
  0
LINE
  8
0
 10
-49.999374
 20
-171.625198
 11
-36.999374
 21
-171.625198
  0
LINE
  8
0
 10
-49.999374
 20
-49.625198
 11
-36.999374
 21
-49.625198
  0
LINE
  8
0
  6
CENTER
 62
     2
 10
-53.456516
 20
-65.625198
 11
-29.642242
 21
-65.625198
  0
LINE
  8
0
  6
CENTER
 62
     2
 10
-53.713661
 20
-155.625198
 11
-29.685089
 21
-155.625198
  0
LINE
  8
0
 10
-35.999374
 20
-118.625198
 11
-31.999374
 21
-118.625198
  0
LINE
  8
0
  6
CENTER
 62
     2
 10
-56.357445
 20
-110.625198
 11
48.009659
 21
-110.625198
  0
LINE
  8
0
  6
PHANTOM
 62
     3
 10
-12.373917
 20
-124.560806
 11
-12.373917
 21
-179.628983
  0
LINE
  8
0
  6
PHANTOM
 62
     3
 10
-23.792023
 20
-97.115913
 11
-23.792023
 21
-124.560806
  0
LINE
  8
0
  6
PHANTOM
 62
     3
 10
12.849335
 20
-40.545135
 11
12.849335
 21
-179.628983
  0
LINE
  8
0
  6
PHANTOM
 62
     3
 10
-23.792023
 20
-97.115913
 11
-12.373917
 21
-97.115913
  0
LINE
  8
0
  6
PHANTOM
 62
     3
 10
-23.792023
 20
-124.560806
 11
-12.373917
 21
-124.560806
  0
LINE
  8
0
  6
PHANTOM
 62
     3
 10
-12.373917
 20
-24.677765
 11
-12.373917
 21
-97.115913
  0
LINE
  8
0
 10
191.572052
 20
125.374786
 11
191.572052
 21
93.374786
  0
LINE
  8
0
  6
CENTER
 62
     2
 10
199.572052
 20
52.846222
 11
199.572052
 21
44.874786
  0
LINE
  8
0
  6
CENTER
 62
     2
 10
232.829193
 20
68.374786
 11
245.603226
 21
68.374786
  0
LINE
  8
0
  6
CENTER
 62
     2
 10
233.043488
 20
150.374786
 11
245.620270
 21
150.374786
  0
LINE
  8
0
  6
CENTER
 62
     2
 10
189.596603
 20
150.374786
 11
200.572052
 21
150.374786
  0
LINE
  8
0
  6
CENTER
 62
     2
 10
196.572052
 20
69.374786
 11
202.557770
 21
69.374786
  0
LINE
  8
0
  6
CENTER
 62
     2
 10
199.572052
 20
72.460510
 11
199.572052
 21
66.417648
  0
LINE
  8
0
  6
CENTER
 62
     2
 10
242.572052
 20
56.374786
 11
232.572052
 21
56.374786
  0
LINE
  8
0
  6
CENTER
 62
     2
 10
237.572052
 20
51.374786
 11
237.572052
 21
61.374786
  0
LINE
  8
0
  6
CENTER
 62
     2
 10
192.572052
 20
56.374786
 11
202.572052
 21
56.374786
  0
LINE
  8
0
  6
CENTER
 62
     2
 10
197.572052
 20
51.374786
 11
197.572052
 21
61.374786
  0
LINE
  8
0
  6
CENTER
 62
     2
 10
242.572052
 20
162.374786
 11
232.572052
 21
162.374786
  0
LINE
  8
0
  6
CENTER
 62
     2
 10
237.572052
 20
167.374786
 11
237.572052
 21
157.374786
  0
LINE
  8
0
  6
CENTER
 62
     2
 10
217.572052
 20
174.174774
 11
217.572052
 21
44.203369
  0
LINE
  8
0
  6
CENTER
 62
     2
 10
186.199142
 20
109.374786
 11
248.819122
 21
109.374786
  0
LINE
  8
0
  6
DASHED
 62
     2
 10
194.357773
 20
51.531937
 11
194.000626
 21
47.374794
  0
LINE
  8
0
  6
DASHED
 62
     2
 10
195.472061
 20
51.531937
 11
195.472061
 21
47.374786
  0
LINE
  8
0
  6
DASHED
 62
     2
 10
203.672058
 20
51.531937
 11
203.672058
 21
47.374786
  0
LINE
  8
0
  6
DASHED
 62
     2
 10
204.772049
 20
51.531940
 11
205.129196
 21
47.374798
  0
LINE
  8
0
 10
244.572052
 20
147.217636
 11
244.572052
 21
126.374786
  0
LINE
  8
0
 10
241.572052
 20
147.217636
 11
244.572052
 21
147.217636
  0
LINE
  8
0
 10
241.572052
 20
145.217636
 11
241.572052
 21
147.217636
  0
LINE
  8
0
 10
236.072052
 20
145.217636
 11
241.572052
 21
145.217636
  0
LINE
  8
0
 10
236.072052
 20
145.217636
 11
236.072052
 21
155.517639
  0
LINE
  8
0
 10
236.072052
 20
155.517639
 11
241.572052
 21
155.517639
  0
LINE
  8
0
 10
241.572052
 20
153.517639
 11
241.572052
 21
155.517639
  0
LINE
  8
0
 10
241.572052
 20
153.517639
 11
244.572052
 21
153.517639
  0
LINE
  8
0
 10
244.572052
 20
169.374786
 11
244.572052
 21
153.517639
  0
LINE
  8
0
 10
190.572052
 20
147.717636
 11
190.572052
 21
126.374786
  0
LINE
  8
0
 10
190.572052
 20
147.717636
 11
193.572052
 21
147.717636
  0
LINE
  8
0
 10
193.572052
 20
147.717636
 11
193.572052
 21
146.374786
  0
LINE
  8
0
 10
193.572052
 20
146.374786
 11
198.072052
 21
146.374786
  0
LINE
  8
0
 10
198.072052
 20
154.374786
 11
198.072052
 21
146.374786
  0
LINE
  8
0
 10
190.572052
 20
169.374786
 11
190.572052
 21
153.017639
  0
LINE
  8
0
 10
190.572052
 20
153.017639
 11
193.572052
 21
153.017639
  0
LINE
  8
0
 10
193.572052
 20
154.374786
 11
193.572052
 21
153.017639
  0
LINE
  8
0
 10
193.572052
 20
154.374786
 11
198.072052
 21
154.374786
  0
LINE
  8
0
 10
242.572052
 20
120.574783
 11
242.572052
 21
116.374786
  0
LINE
  8
0
 10
242.572052
 20
71.531937
 11
242.572052
 21
65.231934
  0
LINE
  8
0
 10
242.572052
 20
102.374786
 11
242.572052
 21
98.174789
  0
LINE
  8
0
 10
192.572052
 20
102.374786
 11
192.572052
 21
98.174789
  0
LINE
  8
0
 10
192.572052
 20
120.574783
 11
192.572052
 21
116.374786
  0
LINE
  8
0
 10
242.572052
 20
153.517639
 11
242.572052
 21
147.217636
  0
LINE
  8
0
 10
192.572052
 20
153.017639
 11
192.572052
 21
147.717636
  0
LINE
  8
0
 10
216.072052
 20
47.374786
 11
216.072052
 21
52.974792
  0
LINE
  8
0
 10
219.072052
 20
47.374786
 11
219.072052
 21
52.974792
  0
LINE
  8
0
 10
219.072052
 20
171.374786
 11
219.072052
 21
165.774780
  0
LINE
  8
0
 10
216.072052
 20
171.374786
 11
216.072052
 21
165.774780
  0
LINE
  8
0
  6
CENTER
 62
     2
 10
192.572052
 20
162.374786
 11
202.572052
 21
162.374786
  0
LINE
  8
0
  6
CENTER
 62
     2
 10
197.572052
 20
167.374786
 11
197.572052
 21
157.374786
  0
LINE
  8
0
 10
190.572067
 20
126.374779
 11
191.572067
 21
125.374779
  0
LINE
  8
0
 10
241.572052
 20
65.231934
 11
241.572052
 21
63.231934
  0
LINE
  8
0
 10
244.572052
 20
65.231934
 11
244.572052
 21
49.374786
  0
LINE
  8
0
 10
241.572052
 20
73.531937
 11
241.572052
 21
71.531937
  0
LINE
  8
0
 10
236.072052
 20
73.531937
 11
236.072052
 21
63.231934
  0
LINE
  8
0
 10
236.072052
 20
63.231934
 11
241.572052
 21
63.231934
  0
LINE
  8
0
 10
236.072052
 20
73.531937
 11
241.572052
 21
73.531937
  0
LINE
  8
0
 10
241.572052
 20
65.231934
 11
244.572052
 21
65.231934
  0
LINE
  8
0
 10
241.572052
 20
71.531937
 11
244.572052
 21
71.531937
  0
LINE
  8
0
 10
242.572052
 20
171.374771
 11
244.572052
 21
169.374771
  0
LINE
  8
0
 10
190.572052
 20
169.374771
 11
192.572052
 21
171.374771
  0
LINE
  8
0
 10
242.572052
 20
47.374805
 11
244.572052
 21
49.374809
  0
LINE
  8
0
 10
190.572052
 20
49.374790
 11
192.572052
 21
47.374786
  0
LINE
  8
0
 10
244.572052
 20
92.374786
 11
244.572052
 21
71.531937
  0
LINE
  8
0
 10
190.572052
 20
92.374786
 11
190.572052
 21
49.374786
  0
LINE
  8
0
 10
244.572037
 20
92.374786
 11
243.572037
 21
93.374786
  0
LINE
  8
0
 10
243.572052
 20
101.874786
 11
243.572052
 21
109.374786
  0
LINE
  8
0
 10
243.572052
 20
93.374786
 11
243.572052
 21
98.674789
  0
LINE
  8
0
 10
243.572052
 20
98.674789
 11
243.072052
 21
98.674789
  0
LINE
  8
0
 10
243.072052
 20
98.674782
 11
242.572052
 21
98.174782
  0
LINE
  8
0
 10
242.572052
 20
98.174789
 11
240.972046
 21
98.174789
  0
LINE
  8
0
 10
242.572052
 20
102.374786
 11
240.972046
 21
102.374786
  0
LINE
  8
0
 10
243.072052
 20
101.874786
 11
242.572052
 21
102.374794
  0
LINE
  8
0
 10
243.572052
 20
101.874786
 11
243.072052
 21
101.874786
  0
LINE
  8
0
 10
244.572037
 20
126.374779
 11
243.572037
 21
125.374779
  0
LINE
  8
0
 10
243.572052
 20
116.874786
 11
243.572052
 21
109.374786
  0
LINE
  8
0
 10
243.572052
 20
125.374786
 11
243.572052
 21
120.074783
  0
LINE
  8
0
 10
243.572052
 20
120.074783
 11
243.072052
 21
120.074783
  0
LINE
  8
0
 10
243.072052
 20
120.074783
 11
242.572052
 21
120.574783
  0
LINE
  8
0
 10
242.572052
 20
120.574783
 11
240.972046
 21
120.574783
  0
LINE
  8
0
 10
242.572052
 20
116.374786
 11
240.972046
 21
116.374786
  0
LINE
  8
0
 10
243.072067
 20
116.874794
 11
242.572067
 21
116.374786
  0
LINE
  8
0
 10
243.572052
 20
116.874786
 11
243.072052
 21
116.874786
  0
LINE
  8
0
 10
190.572067
 20
92.374786
 11
191.572067
 21
93.374786
  0
LINE
  8
0
 10
191.572052
 20
98.674789
 11
192.072052
 21
98.674789
  0
LINE
  8
0
 10
192.072052
 20
98.674789
 11
192.572052
 21
98.174789
  0
LINE
  8
0
 10
192.572052
 20
98.174789
 11
194.172058
 21
98.174789
  0
LINE
  8
0
 10
192.572052
 20
102.374786
 11
194.172058
 21
102.374786
  0
LINE
  8
0
 10
192.072052
 20
101.874786
 11
192.572052
 21
102.374794
  0
LINE
  8
0
 10
191.572052
 20
101.874786
 11
192.072052
 21
101.874786
  0
LINE
  8
0
  6
CENTER
 62
     2
 10
202.714905
 20
64.374786
 11
232.014908
 21
64.374786
  0
LINE
  8
0
  6
CENTER
 62
     2
 10
202.686340
 20
154.374786
 11
232.243484
 21
154.374786
  0
LINE
  8
0
 10
192.572052
 20
171.374786
 11
242.572052
 21
171.374786
  0
LINE
  8
0
 10
192.572052
 20
47.374786
 11
242.572052
 21
47.374786
  0
LINE
  8
0
 10
191.572052
 20
120.074783
 11
192.072052
 21
120.074783
  0
LINE
  8
0
 10
192.072052
 20
120.074783
 11
192.572052
 21
120.574783
  0
LINE
  8
0
 10
192.572052
 20
120.574783
 11
194.172058
 21
120.574783
  0
LINE
  8
0
 10
192.572052
 20
116.374786
 11
194.172058
 21
116.374786
  0
LINE
  8
0
 10
192.072067
 20
116.874794
 11
192.572067
 21
116.374786
  0
LINE
  8
0
 10
191.572052
 20
116.874786
 11
192.072052
 21
116.874786
  0
LINE
  8
0
  6
CENTER
 62
     2
 10
-210.999374
 20
175.786362
 11
-210.999374
 21
42.089081
  0
LINE
  8
0
  6
CENTER
 62
     2
 10
-193.999374
 20
167.531921
 11
-193.999374
 21
156.803345
  0
LINE
  8
0
  6
CENTER
 62
     2
 10
-227.999374
 20
167.531921
 11
-227.999374
 21
156.989059
  0
LINE
  8
0
  6
CENTER
 62
     2
 10
-220.585083
 20
64.374786
 11
-201.585083
 21
64.374786
  0
LINE
  8
0
  6
CENTER
 62
     2
 10
-220.585083
 20
154.374786
 11
-201.585083
 21
154.374786
  0
LINE
  8
0
  6
CENTER
 62
     2
 10
-222.570801
 20
162.374786
 11
-233.370789
 21
162.374786
  0
LINE
  8
0
  6
CENTER
 62
     2
 10
-222.570801
 20
56.374786
 11
-233.370789
 21
56.374786
  0
LINE
  8
0
 10
-210.999359
 20
112.260498
 11
-208.499359
 21
110.817642
  0
LINE
  8
0
 10
-208.499374
 20
110.817642
 11
-208.499374
 21
107.931931
  0
LINE
  8
0
 10
-208.499374
 20
107.931923
 11
-210.999374
 21
106.474777
  0
LINE
  8
0
 10
-210.999374
 20
106.474785
 11
-213.499374
 21
107.931931
  0
LINE
  8
0
 10
-213.499374
 20
110.817642
 11
-213.499374
 21
107.931931
  0
LINE
  8
0
 10
-210.999374
 20
112.260490
 11
-213.499374
 21
110.817635
  0
LINE
  8
0
 10
-210.999359
 20
157.260498
 11
-208.499374
 21
155.817642
  0
LINE
  8
0
 10
-208.499374
 20
155.817642
 11
-208.499374
 21
152.931915
  0
LINE
  8
0
 10
-208.499374
 20
152.931900
 11
-210.999374
 21
151.474762
  0
LINE
  8
0
 10
-210.999359
 20
151.474777
 11
-213.499374
 21
152.931915
  0
LINE
  8
0
 10
-213.499374
 20
155.817642
 11
-213.499374
 21
152.931915
  0
LINE
  8
0
 10
-210.999374
 20
157.260498
 11
-213.499374
 21
155.817627
  0
LINE
  8
0
 10
-210.999374
 20
67.274803
 11
-208.499374
 21
65.817657
  0
LINE
  8
0
 10
-208.499374
 20
65.817657
 11
-208.499374
 21
62.931931
  0
LINE
  8
0
 10
-208.499374
 20
62.931927
 11
-210.999359
 21
61.489071
  0
LINE
  8
0
 10
-210.999374
 20
61.489082
 11
-213.499374
 21
62.931934
  0
LINE
  8
0
 10
-213.499374
 20
65.817657
 11
-213.499374
 21
62.931931
  0
LINE
  8
0
 10
-210.999374
 20
67.274803
 11
-213.499374
 21
65.817657
  0
LINE
  8
0
 10
-235.999374
 20
169.374786
 11
-235.999374
 21
49.374786
  0
LINE
  8
0
 10
-185.999374
 20
169.374786
 11
-185.999374
 21
49.374786
  0
LINE
  8
0
  6
CENTER
 62
     2
 10
-188.570816
 20
56.374786
 11
-199.370804
 21
56.374786
  0
LINE
  8
0
  6
CENTER
 62
     2
 10
-227.999374
 20
50.803360
 11
-227.999374
 21
62.274796
  0
LINE
  8
0
  6
CENTER
 62
     2
 10
-188.570816
 20
162.374786
 11
-199.370804
 21
162.374786
  0
LINE
  8
0
  6
CENTER
 62
     2
 10
-193.999374
 20
50.803360
 11
-193.999374
 21
62.274796
  0
LINE
  8
0
 10
-185.999374
 20
49.374802
 11
-186.999374
 21
48.374802
  0
LINE
  8
0
 10
-235.999359
 20
49.374798
 11
-234.999359
 21
48.374794
  0
LINE
  8
0
 10
-186.999374
 20
170.374756
 11
-185.999374
 21
169.374771
  0
LINE
  8
0
 10
-234.999374
 20
170.374786
 11
-235.999374
 21
169.374771
  0
LINE
  8
0
 10
-234.999374
 20
48.374786
 11
-186.999374
 21
48.374786
  0
LINE
  8
0
 10
-234.999374
 20
170.374786
 11
-186.999374
 21
170.374786
  0
LINE
  8
0
 10
-183.999374
 20
147.717636
 11
-183.999374
 21
126.374786
  0
LINE
  8
0
 10
-183.999390
 20
126.374779
 11
-184.999390
 21
125.374779
  0
LINE
  8
0
 10
-184.999374
 20
125.374786
 11
-184.999374
 21
98.674789
  0
LINE
  8
0
 10
-237.999374
 20
147.217636
 11
-237.999374
 21
126.374786
  0
LINE
  8
0
 10
-235.999374
 20
153.517639
 11
-237.999374
 21
153.517639
  0
LINE
  8
0
 10
-235.999374
 20
147.217636
 11
-237.999374
 21
147.217636
  0
LINE
  8
0
 10
-237.999374
 20
65.231934
 11
-237.999374
 21
49.374786
  0
LINE
  8
0
 10
-235.999374
 20
65.231934
 11
-237.999374
 21
65.231934
  0
LINE
  8
0
 10
-235.999374
 20
71.531937
 11
-237.999374
 21
71.531937
  0
LINE
  8
0
 10
-183.999374
 20
153.017639
 11
-185.999374
 21
153.017639
  0
LINE
  8
0
 10
-183.999374
 20
147.717636
 11
-185.999374
 21
147.717636
  0
LINE
  8
0
 10
-235.999359
 20
171.374756
 11
-237.999359
 21
169.374756
  0
LINE
  8
0
 10
-183.999374
 20
169.374771
 11
-185.999359
 21
171.374771
  0
LINE
  8
0
 10
-235.999390
 20
47.374798
 11
-237.999390
 21
49.374802
  0
LINE
  8
0
 10
-183.999390
 20
49.374798
 11
-185.999390
 21
47.374794
  0
LINE
  8
0
 10
-237.999374
 20
92.374786
 11
-237.999374
 21
71.531937
  0
LINE
  8
0
 10
-183.999374
 20
92.374786
 11
-183.999374
 21
49.374786
  0
LINE
  8
0
 10
-237.999359
 20
92.374794
 11
-236.999359
 21
93.374786
  0
LINE
  8
0
 10
-236.999374
 20
101.874786
 11
-236.999374
 21
109.374786
  0
LINE
  8
0
 10
-236.999374
 20
93.374786
 11
-236.999374
 21
98.674789
  0
LINE
  8
0
 10
-236.999374
 20
98.674789
 11
-236.499374
 21
98.674789
  0
LINE
  8
0
 10
-236.499359
 20
98.674789
 11
-235.999359
 21
98.174789
  0
LINE
  8
0
 10
-236.499374
 20
101.874794
 11
-235.999390
 21
102.374802
  0
LINE
  8
0
 10
-236.999374
 20
101.874786
 11
-236.499374
 21
101.874786
  0
LINE
  8
0
 10
-237.999359
 20
126.374779
 11
-236.999359
 21
125.374779
  0
LINE
  8
0
 10
-236.999374
 20
116.874786
 11
-236.999374
 21
109.374786
  0
LINE
  8
0
 10
-236.999374
 20
125.374786
 11
-236.999374
 21
120.074783
  0
LINE
  8
0
 10
-236.999374
 20
120.074783
 11
-236.499374
 21
120.074783
  0
LINE
  8
0
 10
-236.499359
 20
120.074783
 11
-235.999359
 21
120.574783
  0
LINE
  8
0
 10
-236.499374
 20
116.874786
 11
-235.999390
 21
116.374786
  0
LINE
  8
0
 10
-236.999374
 20
116.874786
 11
-236.499374
 21
116.874786
  0
LINE
  8
0
 10
-183.999390
 20
92.374786
 11
-184.999390
 21
93.374786
  0
LINE
  8
0
 10
-184.999374
 20
93.374786
 11
-184.999374
 21
98.674789
  0
LINE
  8
0
 10
-184.999374
 20
98.674789
 11
-185.499374
 21
98.674789
  0
LINE
  8
0
 10
-185.499374
 20
98.674789
 11
-185.999374
 21
98.174789
  0
LINE
  8
0
 10
-185.499374
 20
101.874786
 11
-185.999374
 21
102.374794
  0
LINE
  8
0
 10
-184.999374
 20
101.874786
 11
-185.499374
 21
101.874786
  0
LINE
  8
0
 10
-183.999374
 20
169.374786
 11
-183.999374
 21
153.017639
  0
LINE
  8
0
 10
-237.999374
 20
169.374786
 11
-237.999374
 21
153.517639
  0
LINE
  8
0
 10
-185.999374
 20
171.374786
 11
-235.999374
 21
171.374786
  0
LINE
  8
0
 10
-185.999374
 20
47.374786
 11
-235.999374
 21
47.374786
  0
LINE
  8
0
 10
-184.999374
 20
120.074783
 11
-185.499374
 21
120.074783
  0
LINE
  8
0
 10
-185.499374
 20
120.074783
 11
-185.999374
 21
120.574783
  0
LINE
  8
0
 10
-185.499374
 20
116.874786
 11
-185.999374
 21
116.374779
  0
LINE
  8
0
 10
-184.999374
 20
116.874786
 11
-185.499374
 21
116.874786
  0
LINE
  8
0
  6
CENTER
 62
     2
 10
-180.656525
 20
109.374786
 11
-241.013657
 21
109.374786
  0
LINE
  8
0
  6
DASHED
 62
     2
 10
42.000626
 20
72.374786
 11
53.500626
 21
72.374786
  0
LINE
  8
0
  6
DASHED
 62
     2
 10
42.000626
 20
56.374786
 11
53.500626
 21
56.374786
  0
LINE
  8
0
  6
DASHED
 62
     2
 10
54.000626
 20
71.874786
 11
54.000626
 21
56.874786
  0
LINE
  8
0
  6
DASHED
 62
     2
 10
53.500618
 20
72.374779
 11
54.000622
 21
71.874779
  0
LINE
  8
0
  6
DASHED
 62
     2
 10
54.000610
 20
56.874783
 11
53.500607
 21
56.374783
  0
LINE
  8
0
  6
CENTER
 62
     2
 10
22.729187
 20
69.374786
 11
35.914459
 21
69.374786
  0
LINE
  8
0
  6
DASHED
 62
     2
 10
42.000626
 20
162.374786
 11
53.500626
 21
162.374786
  0
LINE
  8
0
  6
DASHED
 62
     2
 10
42.000626
 20
146.374786
 11
53.500626
 21
146.374786
  0
LINE
  8
0
  6
DASHED
 62
     2
 10
54.000626
 20
161.874786
 11
54.000626
 21
146.874786
  0
LINE
  8
0
  6
DASHED
 62
     2
 10
53.500618
 20
146.374786
 11
54.000618
 21
146.874786
  0
LINE
  8
0
  6
DASHED
 62
     2
 10
53.500614
 20
162.374786
 11
54.000607
 21
161.874786
  0
LINE
  8
0
 10
42.000626
 20
170.874786
 11
42.000626
 21
47.874786
  0
LINE
  8
0
 10
-35.999374
 20
72.374786
 11
-31.999374
 21
72.374786
  0
LINE
  8
0
 10
-35.999374
 20
56.374786
 11
-31.999374
 21
56.374786
  0
LINE
  8
0
  6
CENTER
 62
     2
 10
-53.713661
 20
64.374786
 11
-29.685089
 21
64.374786
  0
LINE
  8
0
 10
-35.999374
 20
162.374786
 11
-31.999374
 21
162.374786
  0
LINE
  8
0
 10
-35.999374
 20
146.374786
 11
-31.999374
 21
146.374786
  0
LINE
  8
0
 10
-31.999374
 20
170.874786
 11
-31.999374
 21
47.874786
  0
LINE
  8
0
 10
-35.999374
 20
49.374786
 11
-35.999374
 21
169.374786
  0
LINE
  8
0
 10
-50.999374
 20
169.374786
 11
-50.999374
 21
49.374786
  0
LINE
  8
0
  6
CENTER
 62
     2
 10
-53.456516
 20
154.374786
 11
-29.642242
 21
154.374786
  0
LINE
  8
0
 10
15.557755
 20
98.674789
 11
-31.999374
 21
98.674789
  0
LINE
  8
0
 10
11.629196
 20
101.874786
 11
-31.999374
 21
101.874786
  0
LINE
  8
0
 10
11.629196
 20
116.874786
 11
-31.999374
 21
116.874786
  0
LINE
  8
0
 10
15.557755
 20
120.074783
 11
-31.999374
 21
120.074783
  0
LINE
  8
0
  6
CENTER
 62
     2
 10
21.000626
 20
123.503357
 11
21.000626
 21
95.117645
  0
LINE
  8
0
  6
CENTER
 62
     2
 10
17.000626
 20
52.931931
 11
17.000626
 21
45.546219
  0
LINE
  8
0
  6
DASHED
 62
     2
 10
-12.785094
 20
51.531925
 11
-12.427952
 21
47.374790
  0
LINE
  8
0
  6
DASHED
 62
     2
 10
-13.899384
 20
51.531937
 11
-13.899384
 21
47.374786
  0
LINE
  8
0
  6
CENTER
 62
     2
 10
-23.999374
 20
69.374786
 11
-11.999374
 21
69.374786
  0
LINE
  8
0
  6
DASHED
 62
     2
 10
-22.099380
 20
51.531937
 11
-22.099380
 21
47.374786
  0
LINE
  8
0
  6
DASHED
 62
     2
 10
-23.199377
 20
51.531929
 11
-23.556520
 21
47.374790
  0
LINE
  8
0
 10
-31.999376
 20
47.874794
 11
-31.499374
 21
47.374794
  0
LINE
  8
0
 10
42.000607
 20
47.874786
 11
41.500618
 21
47.374790
  0
LINE
  8
0
  6
DASHED
 62
     2
 10
22.200619
 20
51.531929
 11
22.557760
 21
47.374786
  0
LINE
  8
0
  6
DASHED
 62
     2
 10
21.100616
 20
51.531937
 11
21.100616
 21
47.374786
  0
LINE
  8
0
  6
DASHED
 62
     2
 10
12.900620
 20
51.531937
 11
12.900620
 21
47.374786
  0
LINE
  8
0
  6
DASHED
 62
     2
 10
11.786337
 20
51.531952
 11
11.429193
 21
47.374790
  0
LINE
  8
0
  6
CENTER
 62
     2
 10
29.000626
 20
75.560501
 11
29.000626
 21
61.174789
  0
LINE
  8
0
  6
CENTER
 62
     2
 10
-17.999374
 20
75.960510
 11
-17.999374
 21
45.774796
  0
LINE
  8
0
  6
CENTER
 62
     2
 10
-32.499374
 20
83.374786
 11
-17.499374
 21
83.374786
  0
LINE
  8
0
  6
CENTER
 62
     2
 10
-24.999374
 20
90.874786
 11
-24.999374
 21
75.874786
  0
LINE
  8
0
  6
CENTER
 62
     2
 10
-11.856522
 20
83.374786
 11
2.500626
 21
83.374786
  0
LINE
  8
0
  6
CENTER
 62
     2
 10
-4.999374
 20
90.874786
 11
-4.999374
 21
75.874786
  0
LINE
  8
0
 10
42.000626
 20
49.374786
 11
-31.999374
 21
49.374786
  0
LINE
  8
0
 10
42.000626
 20
92.374786
 11
-31.999374
 21
92.374786
  0
LINE
  8
0
 10
42.000626
 20
93.374786
 11
-31.999374
 21
93.374786
  0
LINE
  8
0
 10
42.000626
 20
98.674789
 11
26.429184
 21
98.674789
  0
LINE
  8
0
 10
42.000626
 20
101.874786
 11
30.357758
 21
101.874786
  0
LINE
  8
0
 10
-31.499374
 20
47.374786
 11
41.500626
 21
47.374786
  0
LINE
  8
0
  6
CENTER
 62
     2
 10
45.868683
 20
109.374786
 11
-55.143318
 21
109.374786
  0
LINE
  8
0
 62
     2
 10
-12.499374
 20
135.374786
 11
2.500626
 21
135.374786
  0
LINE
  8
0
 62
     2
 10
-4.999374
 20
142.874786
 11
-4.999374
 21
127.874786
  0
LINE
  8
0
 62
     2
 10
-32.499374
 20
135.374786
 11
-17.499374
 21
135.374786
  0
LINE
  8
0
 62
     2
 10
-24.999374
 20
142.874786
 11
-24.999374
 21
127.874786
  0
LINE
  8
0
 10
-35.999374
 20
113.246216
 11
-34.499374
 21
113.246216
  0
LINE
  8
0
 10
-35.999374
 20
117.374786
 11
-31.999374
 21
117.374786
  0
LINE
  8
0
 10
41.500626
 20
171.374771
 11
42.000610
 21
170.874786
  0
LINE
  8
0
 10
-31.499374
 20
171.374771
 11
-31.999376
 21
170.874771
  0
LINE
  8
0
 10
42.000626
 20
116.874786
 11
30.357758
 21
116.874786
  0
LINE
  8
0
 10
42.000626
 20
120.074783
 11
26.429184
 21
120.074783
  0
LINE
  8
0
 10
42.000626
 20
125.374786
 11
-31.999374
 21
125.374786
  0
LINE
  8
0
 10
42.000626
 20
126.374786
 11
-31.999374
 21
126.374786
  0
LINE
  8
0
 10
42.000626
 20
147.717636
 11
-31.999374
 21
147.717636
  0
LINE
  8
0
 10
42.000626
 20
153.017639
 11
-31.999374
 21
153.017639
  0
LINE
  8
0
 10
42.000626
 20
169.374786
 11
-31.999374
 21
169.374786
  0
LINE
  8
0
 10
-31.499374
 20
171.374786
 11
41.500626
 21
171.374786
  0
LINE
  8
0
 10
-36.999371
 20
170.374771
 11
-35.999371
 21
169.374771
  0
LINE
  8
0
 10
-49.999386
 20
170.374771
 11
-50.999374
 21
169.374786
  0
LINE
  8
0
 10
-36.999371
 20
48.374798
 11
-35.999371
 21
49.374798
  0
LINE
  8
0
 10
-50.999374
 20
49.374786
 11
-49.999382
 21
48.374794
  0
LINE
  8
0
 62
     2
 10
-34.499374
 20
113.246208
 11
-35.999371
 21
107.431931
  0
LINE
  8
0
 62
     2
 10
-34.499374
 20
105.489067
 11
-35.999374
 21
111.303360
  0
LINE
  8
0
 10
-34.499374
 20
113.246216
 11
-34.499374
 21
105.489075
  0
LINE
  8
0
 10
-35.999374
 20
105.489075
 11
-34.499374
 21
105.489075
  0
LINE
  8
0
 10
-49.999374
 20
48.374786
 11
-36.999374
 21
48.374786
  0
LINE
  8
0
 10
-49.999374
 20
170.374786
 11
-36.999374
 21
170.374786
  0
LINE
  8
0
 10
-35.999374
 20
101.374786
 11
-31.999374
 21
101.374786
  0
LINE
  8
0
  6
PHANTOM
 62
     3
 10
-15.238586
 20
78.486588
 11
-11.060211
 21
78.486588
  0
LINE
  8
0
  6
PHANTOM
 62
     3
 10
-11.060211
 20
78.486588
 11
-11.060211
 21
40.284348
  0
LINE
  8
0
  6
PHANTOM
 62
     3
 10
4.160995
 20
180.558212
 11
4.160995
 21
40.284348
  0
LINE
  8
0
  6
PHANTOM
 62
     3
 10
-15.238586
 20
192.174225
 11
-15.238586
 21
78.486588
  0
LINE
  8
0
 10
-63.975098
 20
-267.000000
 11
-63.975098
 21
-216.999985
  0
LINE
  8
0
 10
-88.975098
 20
-267.000000
 11
-88.975098
 21
-216.999985
  0
LINE
  8
0
 10
-113.975098
 20
-267.000000
 11
-113.975098
 21
-216.999985
  0
LINE
  8
0
 10
-138.975098
 20
-267.000000
 11
-138.975098
 21
-216.999985
  0
LINE
  8
0
 10
-163.975098
 20
-267.000000
 11
-163.975098
 21
-216.999985
  0
LINE
  8
0
 10
-188.975098
 20
-267.000000
 11
-188.975098
 21
-216.999985
  0
LINE
  8
0
 10
-213.975098
 20
-267.000000
 11
-213.975098
 21
-216.999985
  0
LINE
  8
0
 10
-238.975098
 20
-267.000000
 11
-238.975098
 21
-216.999985
  0
LINE
  8
0
 10
-263.975098
 20
-267.000000
 11
-263.975098
 21
-216.999985
  0
LINE
  8
0
 10
-288.975098
 20
-267.000000
 11
-288.975098
 21
-216.999985
  0
LINE
  8
0
 10
-313.975098
 20
-267.000000
 11
-313.975098
 21
-216.999985
  0
LINE
  8
0
 10
-338.975037
 20
-246.999969
 11
-344.334015
 21
-226.999985
  0
LINE
  8
0
 10
-338.975098
 20
-267.000000
 11
-338.975098
 21
-216.999985
  0
LINE
  8
0
 10
-388.975098
 20
-267.000000
 11
-388.975098
 21
-216.999985
  0
LINE
  8
0
 10
-388.975098
 20
-216.999985
 11
-63.975098
 21
-216.999985
  0
LINE
  8
0
 10
-388.975098
 20
-226.999985
 11
-344.333984
 21
-226.999985
  0
LINE
  8
0
 10
-388.975098
 20
-246.999985
 11
-63.975098
 21
-246.999985
  0
LINE
  8
0
 10
-388.975098
 20
-256.999756
 11
-63.975098
 21
-256.999756
  0
LINE
  8
0
 10
-388.975098
 20
-266.999756
 11
-63.975098
 21
-266.999756
  0
LINE
  8
0
 10
-199.250000
 20
276.250000
 11
-199.250000
 21
251.250000
  0
LINE
  8
0
 10
399.799805
 20
276.250000
 11
399.799805
 21
-276.750000
  0
LINE
  8
0
 10
-399.250000
 20
276.250000
 11
-399.250000
 21
-276.750000
  0
LINE
  8
0
 10
-399.250000
 20
276.250000
 11
399.799805
 21
276.250000
  0
LINE
  8
0
 10
-399.250000
 20
-276.750000
 11
399.799805
 21
-276.750000
  0
LINE
  8
0
 10
239.799988
 20
-251.750000
 11
399.799805
 21
-251.750000
  0
LINE
  8
0
 10
239.799988
 20
251.250000
 11
399.799805
 21
251.250000
  0
LINE
  8
0
 10
-399.250000
 20
251.250000
 11
-199.250000
 21
251.250000
  0
LINE
  8
0
 10
239.799988
 20
-251.750000
 11
239.799988
 21
-276.750000
  0
LINE
  8
0
 10
239.799988
 20
251.250000
 11
239.799988
 21
276.250000
  0
CIRCLE
  8
0
 10
-18.999374
 20
-110.625198
 40
1.099999
  0
CIRCLE
  8
0
 10
-0.999374
 20
-110.625198
 40
1.099999
  0
CIRCLE
  8
0
 10
-9.999359
 20
-110.625198
 40
1.650000
  0
CIRCLE
  8
0
 10
-9.999359
 20
-110.625198
 40
11.500000
  0
CIRCLE
  8
0
 10
-9.999359
 20
-110.625198
 40
11.999999
  0
CIRCLE
  8
0
 10
-17.999390
 20
-150.625214
 40
4.099999
  0
CIRCLE
  8
0
 62
     2
 10
-17.999390
 20
-150.625214
 40
5.000000
  0
CIRCLE
  8
0
 62
     2
 10
29.000626
 20
-150.625214
 40
5.000000
  0
CIRCLE
  8
0
 10
29.000626
 20
-150.625214
 40
4.099999
  0
CIRCLE
  8
0
  6
DASHED
 62
     2
 10
-4.999390
 20
-136.625214
 40
3.999998
  0
CIRCLE
  8
0
  6
DASHED
 62
     2
 10
-24.999390
 20
-136.625214
 40
3.999998
  0
CIRCLE
  8
0
 10
-24.999390
 20
-136.625214
 40
5.499999
  0
CIRCLE
  8
0
 10
-4.999390
 20
-136.625214
 40
5.499999
  0
CIRCLE
  8
0
 10
-4.999390
 20
-136.625214
 40
3.299999
  0
CIRCLE
  8
0
 10
-24.999390
 20
-136.625214
 40
3.299999
  0
CIRCLE
  8
0
  6
DASHED
 62
     2
 10
-24.999359
 20
-84.625214
 40
3.999998
  0
CIRCLE
  8
0
  6
DASHED
 62
     2
 10
-4.999344
 20
-84.625214
 40
3.999998
  0
CIRCLE
  8
0
 10
-4.999344
 20
-84.625214
 40
5.499999
  0
CIRCLE
  8
0
 10
-24.999359
 20
-84.625214
 40
5.499999
  0
CIRCLE
  8
0
 10
-24.999359
 20
-84.625214
 40
3.299999
  0
CIRCLE
  8
0
 10
-4.999344
 20
-84.625214
 40
3.299999
  0
ARC
  8
0
 10
-41.499367
 20
-110.632339
 40
8.002696
 50
331.009949
 51
28.990067
  0
CIRCLE
  8
0
 10
217.572052
 20
64.374786
 40
8.000000
  0
CIRCLE
  8
0
 10
217.572052
 20
154.374786
 40
8.000000
  0
CIRCLE
  8
0
 10
199.572052
 20
69.374786
 40
1.499998
  0
CIRCLE
  8
0
 10
237.572052
 20
56.374802
 40
3.374998
  0
CIRCLE
  8
0
 62
     2
 10
237.572052
 20
56.374802
 40
3.999998
  0
CIRCLE
  8
0
 10
197.572052
 20
56.374802
 40
3.374998
  0
CIRCLE
  8
0
 62
     2
 10
197.572052
 20
56.374802
 40
3.999998
  0
CIRCLE
  8
0
 10
237.572052
 20
162.374771
 40
3.374998
  0
CIRCLE
  8
0
 62
     2
 10
237.572052
 20
162.374771
 40
3.999998
  0
CIRCLE
  8
0
 10
217.572052
 20
109.374786
 40
14.499999
  0
CIRCLE
  8
0
 10
197.572052
 20
162.374771
 40
3.374998
  0
CIRCLE
  8
0
 10
217.572052
 20
64.374786
 40
11.500001
  0
CIRCLE
  8
0
 10
217.572052
 20
154.374786
 40
11.500001
  0
CIRCLE
  8
0
 62
     2
 10
197.572052
 20
162.374771
 40
3.999998
  0
CIRCLE
  8
0
 10
217.572052
 20
109.374786
 40
21.000000
  0
ARC
  8
0
 10
240.972046
 20
100.274788
 40
2.099998
 50
90.000000
 51
270.000000
  0
ARC
  8
0
 10
240.972046
 20
118.474785
 40
2.099998
 50
90.000000
 51
270.000000
  0
ARC
  8
0
 10
194.172058
 20
100.274788
 40
2.099998
 50
270.000000
 51
90.000000
  0
ARC
  8
0
 10
194.172058
 20
118.474785
 40
2.099998
 50
270.000000
 51
90.000000
  0
CIRCLE
  8
0
 10
-210.999374
 20
109.374786
 40
4.599998
  0
CIRCLE
  8
0
 10
-210.999374
 20
109.374786
 40
6.999999
  0
CIRCLE
  8
0
 10
-210.999374
 20
154.374786
 40
4.599998
  0
CIRCLE
  8
0
 10
-210.999374
 20
154.374786
 40
6.999999
  0
CIRCLE
  8
0
 10
-210.999374
 20
64.374786
 40
4.599998
  0
CIRCLE
  8
0
 10
-210.999374
 20
64.374786
 40
6.999999
  0
CIRCLE
  8
0
 10
-227.999359
 20
56.374802
 40
3.374998
  0
CIRCLE
  8
0
 62
     2
 10
-227.999359
 20
56.374802
 40
3.999998
  0
CIRCLE
  8
0
 10
-227.999359
 20
162.374771
 40
3.374998
  0
CIRCLE
  8
0
 62
     2
 10
-227.999359
 20
162.374771
 40
3.999998
  0
CIRCLE
  8
0
 10
-193.999374
 20
56.374802
 40
3.374998
  0
CIRCLE
  8
0
 62
     2
 10
-193.999374
 20
56.374802
 40
3.999998
  0
CIRCLE
  8
0
 10
-193.999374
 20
162.374771
 40
3.374998
  0
CIRCLE
  8
0
 62
     2
 10
-193.999374
 20
162.374771
 40
3.999998
  0
CIRCLE
  8
0
 10
-210.999374
 20
154.374786
 40
7.500000
  0
CIRCLE
  8
0
 10
-210.999374
 20
64.374786
 40
7.500000
  0
CIRCLE
  8
0
 10
-210.999374
 20
109.374786
 40
7.500000
  0
CIRCLE
  8
0
 10
12.000610
 20
109.374786
 40
1.099999
  0
CIRCLE
  8
0
 10
30.000595
 20
109.374786
 40
1.099999
  0
CIRCLE
  8
0
 10
21.000610
 20
109.374786
 40
1.650000
  0
CIRCLE
  8
0
 10
21.000610
 20
109.374786
 40
11.999999
  0
CIRCLE
  8
0
 10
21.000610
 20
109.374786
 40
11.500000
  0
CIRCLE
  8
0
 10
-17.999390
 20
69.374771
 40
4.099999
  0
CIRCLE
  8
0
 62
     2
 10
-17.999390
 20
69.374771
 40
5.000000
  0
CIRCLE
  8
0
 62
     2
 10
29.000626
 20
69.374771
 40
5.000000
  0
CIRCLE
  8
0
 10
29.000626
 20
69.374771
 40
4.099999
  0
CIRCLE
  8
0
  6
DASHED
 62
     2
 10
-4.999390
 20
83.374771
 40
3.999998
  0
CIRCLE
  8
0
  6
DASHED
 62
     2
 10
-24.999390
 20
83.374771
 40
3.999998
  0
CIRCLE
  8
0
 10
-24.999390
 20
83.374771
 40
5.499999
  0
CIRCLE
  8
0
 10
-4.999390
 20
83.374771
 40
5.499999
  0
CIRCLE
  8
0
 10
-4.999390
 20
83.374771
 40
3.299999
  0
CIRCLE
  8
0
 10
-24.999390
 20
83.374771
 40
3.299999
  0
CIRCLE
  8
0
  6
DASHED
 62
     2
 10
-24.999359
 20
135.374771
 40
3.999998
  0
CIRCLE
  8
0
  6
DASHED
 62
     2
 10
-4.999359
 20
135.374771
 40
3.999998
  0
CIRCLE
  8
0
 10
-4.999359
 20
135.374771
 40
5.499999
  0
CIRCLE
  8
0
 10
-24.999359
 20
135.374771
 40
5.499999
  0
CIRCLE
  8
0
 10
-24.999359
 20
135.374771
 40
3.299999
  0
CIRCLE
  8
0
 10
-4.999359
 20
135.374771
 40
3.299999
  0
ARC
  8
0
 10
-41.499367
 20
109.367645
 40
8.002696
 50
331.009949
 51
28.990067
  0
TEXT
  8
0
 62
     3
 10
-6.212844
 20
-34.111988
 40
6.300000
  1
STRETCH LINE B
 50
0.000000
 41
1.052632
 51
0.000000
  7
STANDARD
  0
TEXT
  8
0
 62
     3
 10
-59.300838
 20
-18.278738
 40
6.300000
  1
STRETCH LINE A
 50
0.000000
 41
1.052632
 51
0.000000
  7
STANDARD
  0
TEXT
  8
0
 62
     3
 10
-6.212844
 20
185.888000
 40
6.300000
  1
STRETCH LINE B
 50
0.000000
 41
1.052632
 51
0.000000
  7
STANDARD
  0
TEXT
  8
0
 62
     3
 10
-59.300838
 20
201.721268
 40
6.300000
  1
STRETCH LINE A
 50
0.000000
 41
1.052632
 51
0.000000
  7
STANDARD
  0
TEXT
  8
0
 10
-264.714172
 20
-216.669998
 40
6.300000
  1
STRETCH LIST
 50
0.000000
 41
1.052632
 51
0.000000
  7
STANDARD
  0
TEXT
  8
0
 10
-86.364159
 20
-266.670013
 40
6.300000
  1
100
 50
0.000000
 41
1.052632
 51
0.000000
  7
STANDARD
  0
TEXT
  8
0
 10
-83.214157
 20
-256.670013
 40
6.300000
  1
90
 50
0.000000
 41
1.052632
 51
0.000000
  7
STANDARD
  0
TEXT
  8
0
 10
-86.364159
 20
-236.669998
 40
6.300000
  1
200
 50
0.000000
 41
1.052632
 51
0.000000
  7
STANDARD
  0
TEXT
  8
0
 10
-108.214157
 20
-266.670013
 40
6.300000
  1
75
 50
0.000000
 41
1.052632
 51
0.000000
  7
STANDARD
  0
TEXT
  8
0
 10
-108.214157
 20
-256.670013
 40
6.300000
  1
90
 50
0.000000
 41
1.052632
 51
0.000000
  7
STANDARD
  0
TEXT
  8
0
 10
-111.364159
 20
-236.669998
 40
6.300000
  1
175
 50
0.000000
 41
1.052632
 51
0.000000
  7
STANDARD
  0
TEXT
  8
0
 10
-133.214157
 20
-266.670013
 40
6.300000
  1
50
 50
0.000000
 41
1.052632
 51
0.000000
  7
STANDARD
  0
TEXT
  8
0
 10
-133.214157
 20
-256.670013
 40
6.300000
  1
90
 50
0.000000
 41
1.052632
 51
0.000000
  7
STANDARD
  0
TEXT
  8
0
 10
-136.364166
 20
-236.669998
 40
6.300000
  1
150
 50
0.000000
 41
1.052632
 51
0.000000
  7
STANDARD
  0
TEXT
  8
0
 10
-158.214157
 20
-266.670013
 40
6.300000
  1
25
 50
0.000000
 41
1.052632
 51
0.000000
  7
STANDARD
  0
TEXT
  8
0
 10
-158.214157
 20
-256.670013
 40
6.300000
  1
90
 50
0.000000
 41
1.052632
 51
0.000000
  7
STANDARD
  0
TEXT
  8
0
 10
-161.364166
 20
-236.669998
 40
6.300000
  1
125
 50
0.000000
 41
1.052632
 51
0.000000
  7
STANDARD
  0
TEXT
  8
0
 10
-183.214157
 20
-266.670013
 40
6.300000
  1
50
 50
0.000000
 41
1.052632
 51
0.000000
  7
STANDARD
  0
TEXT
  8
0
 10
-183.214157
 20
-256.670013
 40
6.300000
  1
40
 50
0.000000
 41
1.052632
 51
0.000000
  7
STANDARD
  0
TEXT
  8
0
 10
-186.364166
 20
-236.669998
 40
6.300000
  1
100
 50
0.000000
 41
1.052632
 51
0.000000
  7
STANDARD
  0
TEXT
  8
0
 10
-208.214157
 20
-266.670013
 40
6.300000
  1
25
 50
0.000000
 41
1.052632
 51
0.000000
  7
STANDARD
  0
TEXT
  8
0
 10
-208.214157
 20
-256.670013
 40
6.300000
  1
40
 50
0.000000
 41
1.052632
 51
0.000000
  7
STANDARD
  0
TEXT
  8
0
 10
-208.214157
 20
-236.669998
 40
6.300000
  1
75
 50
0.000000
 41
1.052632
 51
0.000000
  7
STANDARD
  0
TEXT
  8
0
 10
-230.064163
 20
-266.670013
 40
6.300000
  1
0
 50
0.000000
 41
1.052632
 51
0.000000
  7
STANDARD
  0
TEXT
  8
0
 10
-233.214157
 20
-256.670013
 40
6.300000
  1
40
 50
0.000000
 41
1.052632
 51
0.000000
  7
STANDARD
  0
TEXT
  8
0
 10
-233.214157
 20
-236.669998
 40
6.300000
  1
50
 50
0.000000
 41
1.052632
 51
0.000000
  7
STANDARD
  0
TEXT
  8
0
 10
-255.064163
 20
-266.670013
 40
6.300000
  1
0
 50
0.000000
 41
1.052632
 51
0.000000
  7
STANDARD
  0
TEXT
  8
0
 10
-258.214172
 20
-256.670013
 40
6.300000
  1
30
 50
0.000000
 41
1.052632
 51
0.000000
  7
STANDARD
  0
TEXT
  8
0
 10
-258.214172
 20
-236.669998
 40
6.300000
  1
40
 50
0.000000
 41
1.052632
 51
0.000000
  7
STANDARD
  0
TEXT
  8
0
 10
-280.064148
 20
-266.670013
 40
6.300000
  1
0
 50
0.000000
 41
1.052632
 51
0.000000
  7
STANDARD
  0
TEXT
  8
0
 10
-283.214172
 20
-256.670013
 40
6.300000
  1
20
 50
0.000000
 41
1.052632
 51
0.000000
  7
STANDARD
  0
TEXT
  8
0
 10
-283.214172
 20
-236.669998
 40
6.300000
  1
30
 50
0.000000
 41
1.052632
 51
0.000000
  7
STANDARD
  0
TEXT
  8
0
 10
-305.064148
 20
-266.670013
 40
6.300000
  1
0
 50
0.000000
 41
1.052632
 51
0.000000
  7
STANDARD
  0
TEXT
  8
0
 10
-308.214172
 20
-256.670013
 40
6.300000
  1
10
 50
0.000000
 41
1.052632
 51
0.000000
  7
STANDARD
  0
TEXT
  8
0
 10
-308.214172
 20
-236.669998
 40
6.300000
  1
20
 50
0.000000
 41
1.052632
 51
0.000000
  7
STANDARD
  0
TEXT
  8
0
 10
-330.064148
 20
-266.670013
 40
6.300000
  1
0
 50
0.000000
 41
1.052632
 51
0.000000
  7
STANDARD
  0
TEXT
  8
0
 10
-330.064148
 20
-256.670013
 40
6.300000
  1
0
 50
0.000000
 41
1.052632
 51
0.000000
  7
STANDARD
  0
TEXT
  8
0
 10
-333.214172
 20
-236.669998
 40
6.300000
  1
10
 50
0.000000
 41
1.052632
 51
0.000000
  7
STANDARD
  0
TEXT
  8
0
 10
-388.464172
 20
-234.976242
 40
6.300000
  1
STRETCH
 50
0.000000
 41
1.052632
 51
0.000000
  7
STANDARD
  0
TEXT
  8
0
 10
-388.464172
 20
-245.213745
 40
6.300000
  1
  PLACE
 50
0.000000
 41
1.052632
 51
0.000000
  7
STANDARD
  0
TEXT
  8
0
 10
-383.314148
 20
-226.669998
 40
6.300000
  1
STROKE
 50
0.000000
 41
1.052632
 51
0.000000
  7
STANDARD
  0
TEXT
  8
0
 10
-367.564148
 20
-266.670013
 40
6.300000
  1
B
 50
0.000000
 41
1.052632
 51
0.000000
  7
STANDARD
  0
TEXT
  8
0
 10
-367.564148
 20
-256.670013
 40
6.300000
  1
A
 50
0.000000
 41
1.052632
 51
0.000000
  7
STANDARD
  0
TEXT
  8
0
 10
-89.514160
 20
-216.669998
 40
6.300000
  1
（ｍｍ）
 50
0.000000
 41
0.833333
 51
0.000000
  7
STANDARD
  0
TEXT
  8
0
 10
242.014633
 20
-274.500000
 40
12.500000
  1
KOGANEI CORP.
 50
0.000000
 41
1.052632
 51
0.000000
  7
STANDARD
  0
TEXT
  8
0
 10
282.764496
 20
256.649994
 40
9.000000
  1
Ｖｅｒ．　１．０
 50
0.000000
 41
0.833333
 51
0.000000
  7
STANDARD
  0
TEXT
  8
0
 10
-392.354553
 20
256.649994
 40
9.000000
  1
JIG CYLINDER WITH GUIDE
 50
0.000000
 41
0.937799
 51
0.000000
  7
STANDARD
  0
TEXT
  8
0
 10
-330.785309
 20
212.149994
 40
9.000000
  1
SGDAKQ40*ST(10)-RL
 50
0.000000
 41
1.052632
 51
0.000000
  7
STANDARD
  0
TEXT
  8
0
 10
-384.785309
 20
224.149994
 40
9.000000
  1
MODEL:SGDAKQ40*ST(10)-HL
 50
0.000000
 41
1.052632
 51
0.000000
  7
STANDARD
  0
TEXT
  8
0
 62
     2
 10
75.736328
 20
25.193192
 40
3.200000
  1
STROKE:75-200
 50
0.000000
 41
1.052632
 51
0.000000
  7
STANDARD
  0
LINE
  8
0
 62
     2
 10
54.000626
 20
24.193192
 11
117.086334
 21
24.193192
  0
LINE
  8
0
 62
     2
 10
54.000626
 20
24.193192
 11
42.000626
 21
24.193192
  0
LINE
  8
0
 62
     2
 10
54.000626
 20
24.193192
 11
51.102848
 21
23.416735
  0
LINE
  8
0
 62
     2
 10
54.000626
 20
24.193192
 11
51.102848
 21
24.969648
  0
LINE
  8
0
 62
     2
 10
42.000626
 20
24.193192
 11
44.898403
 21
24.969648
  0
LINE
  8
0
 62
     2
 10
42.000626
 20
24.193192
 11
44.898403
 21
23.416735
  0
LINE
  8
0
 62
     2
 10
54.000626
 20
56.874786
 11
54.000626
 21
22.693192
  0
LINE
  8
0
 62
     2
 10
42.000626
 20
47.874786
 11
42.000626
 21
22.693192
  0
ENDSEC
  0
EOF
