  0
SECTION
  2
HEADER
  0
ENDSEC
  0
SECTION
  2
TABLES
  0
TABLE
  2
LTYPE
 70
     4
  0
LTYPE
  2
CONTINUOUS
 70
    64
  3
Solid line
 72
    65
 73
     0
 40
0.000000
  0
LTYPE
  2
DASHED
 70
    64
  3
__ __ __ __ __ __ __ __ __ __ __ __ __ __ __
 72
    65
 73
     2
 40
3.500000
 49
2.000000
 49
-1.500000
  0
LTYPE
  2
CENTER
 70
    64
  3
____ _ ____ _ ____ _ ____ _ ____ _ ____ _ ____
 72
    65
 73
     4
 40
17.500000
 49
13.000000
 49
-1.500000
 49
1.500000
 49
-1.500000
  0
LTYPE
  2
PHANTOM
 70
    64
  3
_____ _ _ _____ _ _ _____ _ _ _____ _ _ ____  
 72
    65
 73
     6
 40
15.500000
 49
8.000000
 49
-1.500000
 49
1.500000
 49
-1.500000
 49
1.500000
 49
-1.500000
  0
LTYPE
  2
DASHED1
 70
    64
  3
__ __ __ __ __ __ __ __ __ __ __ __ __ __ __
 72
    65
 73
     2
 40
1.500000
 49
1.000000
 49
-0.500000
  0
LTYPE
  2
DASHED2
 70
    64
  3
__ __ __ __ __ __ __ __ __ __ __ __ __ __ __
 72
    65
 73
     2
 40
3.500000
 49
2.500000
 49
-1.000000
  0
LTYPE
  2
DASHED3
 70
    64
  3
__ __ __ __ __ __ __ __ __ __ __ __ __ __ __
 72
    65
 73
     2
 40
6.000000
 49
4.000000
 49
-2.000000
  0
LTYPE
  2
DASHED4
 70
    64
  3
__ __ __ __ __ __ __ __ __ __ __ __ __ __ __
 72
    65
 73
     2
 40
12.000000
 49
10.000000
 49
-2.000000
  0
LTYPE
  2
DASHED5
 70
    64
  3
__ __ __ __ __ __ __ __ __ __ __ __ __ __ __
 72
    65
 73
     2
 40
17.000000
 49
15.000000
 49
-2.000000
  0
LTYPE
  2
DASHED6
 70
    64
  3
__ __ __ __ __ __ __ __ __ __ __ __ __ __ __
 72
    65
 73
     2
 40
29.000000
 49
27.000000
 49
-2.000000
  0
LTYPE
  2
PHANTOM1
 70
    64
  3
_____ _ _ _____ _ _ _____ _ _ _____ _ _ ____  
 72
    65
 73
     6
 40
31.000000
 49
25.000000
 49
-1.500000
 49
1.000000
 49
-1.000000
 49
1.000000
 49
-1.500000
  0
LTYPE
  2
PHANTOM2
 70
    64
  3
_____ _ _ _____ _ _ _____ _ _ _____ _ _ ____  
 72
    65
 73
     6
 40
36.000000
 49
27.000000
 49
-1.500000
 49
2.500000
 49
-1.000000
 49
2.500000
 49
-1.500000
  0
LTYPE
  2
PHANTOM3
 70
    64
  3
_____ _ _ _____ _ _ _____ _ _ _____ _ _ ____  
 72
    65
 73
     6
 40
78.000000
 49
64.000000
 49
-2.000000
 49
4.000000
 49
-2.000000
 49
4.000000
 49
-2.000000
  0
LTYPE
  2
CENTER1
 70
    64
  3
____ _ ____ _ ____ _ ____ _ ____ _ ____ _ ____
 72
    65
 73
     4
 40
19.000000
 49
14.000000
 49
-1.000000
 49
3.000000
 49
-1.000000
  0
LTYPE
  2
CENTER2
 70
    64
  3
____ _ ____ _ ____ _ ____ _ ____ _ ____ _ ____
 72
    65
 73
     4
 40
28.500000
 49
25.000000
 49
-1.000000
 49
1.500000
 49
-1.000000
  0
LTYPE
  2
CENTER3
 70
    64
  3
____ _ ____ _ ____ _ ____ _ ____ _ ____ _ ____
 72
    65
 73
     4
 40
31.500000
 49
27.000000
 49
-1.000000
 49
2.500000
 49
-1.000000
  0
LTYPE
  2
CENTER4
 70
    64
  3
____ _ ____ _ ____ _ ____ _ ____ _ ____ _ ____
 72
    65
 73
     4
 40
50.000000
 49
45.000000
 49
-1.000000
 49
3.000000
 49
-1.000000
  0
LTYPE
  2
CENTER5
 70
    64
  3
____ _ ____ _ ____ _ ____ _ ____ _ ____ _ ____
 72
    65
 73
     4
 40
100.000000
 49
92.000000
 49
-2.000000
 49
4.000000
 49
-2.000000
  0
LTYPE
  2
SBK1
 70
    64
  3
______ _ _ _ ______ _ _ _ ______ _ _ _ _____  
 72
    65
 73
     8
 40
60.500000
 49
45.000000
 49
-2.000000
 49
2.500000
 49
-2.000000
 49
2.500000
 49
-2.000000
 49
2.500000
 49
-2.000000
  0
LTYPE
  2
SBK2
 70
    64
  3
______ _ _ _ ______ _ _ _ ______ _ _ _ _____  
 72
    65
 73
     8
 40
84.000000
 49
64.000000
 49
-2.000000
 49
4.000000
 49
-2.000000
 49
4.000000
 49
-2.000000
 49
4.000000
 49
-2.000000
  0
LTYPE
  2
STCH
 70
    64
  3
__ __ __ __ __ __ __ __ __ __ __ __ __ __ __
 72
    65
 73
     2
 40
3.000000
 49
1.000000
 49
-2.000000
  0
LTYPE
  2
MTCH
 70
    64
  3
_____ _ _ _____ _ _ _____ _ _ _____ _ _ ____  
 72
    65
 73
     6
 40
80.000000
 49
66.000000
 49
-2.000000
 49
4.000000
 49
-2.000000
 49
4.000000
 49
-2.000000
  0
ENDTAB
  0
TABLE
  2
LAYER
 70
     1
  0
LAYER
  2
0
 70
     0
 62
     7
  6
CONTINUOUS
  0
ENDTAB
  0
TABLE
  2
STYLE
 70
     1
  0
STYLE
  2
STANDARD
 70
     0
 40
0.000000
 41
1.000000
 50
0.000000
 71
     0
 42
0.200000
  3
txt
  4
BIGFONT
  0
ENDTAB
  0
TABLE
  2
VIEW
 70
     0
  0
ENDTAB
  0
ENDSEC
  0
SECTION
  2
BLOCKS
  0
ENDSEC
  0
SECTION
  2
ENTITIES
  0
LINE
  8
0
 10
-42.646332
 20
-201.834457
 11
-37.646332
 21
-201.834457
  0
LINE
  8
0
 10
-42.646332
 20
-181.834457
 11
-37.646332
 21
-181.834457
  0
LINE
  8
0
 10
-42.646332
 20
-79.834457
 11
-37.646332
 21
-79.834457
  0
LINE
  8
0
 10
-42.646332
 20
-59.834457
 11
-37.646332
 21
-59.834457
  0
LINE
  8
0
 10
-0.874908
 20
-142.634460
 11
49.353668
 21
-142.634460
  0
LINE
  8
0
 10
-0.874908
 20
-119.034454
 11
49.353668
 21
-119.034454
  0
LINE
  8
0
  6
CENTER
 62
     2
 10
-10.146332
 20
-113.677322
 11
-10.146332
 21
-147.863022
  0
LINE
  8
0
  6
DASHED
 62
     2
 10
57.853664
 20
-201.834442
 11
58.353664
 21
-201.334442
  0
LINE
  8
0
  6
DASHED
 62
     2
 10
57.853664
 20
-181.834442
 11
58.353664
 21
-182.334442
  0
LINE
  8
0
  6
DASHED
 62
     2
 10
57.853668
 20
-79.834457
 11
58.353668
 21
-79.334457
  0
LINE
  8
0
  6
DASHED
 62
     2
 10
57.853668
 20
-59.834457
 11
58.353668
 21
-60.334457
  0
LINE
  8
0
  6
DASHED
 62
     2
 10
58.353668
 20
-182.334457
 11
58.353668
 21
-201.334457
  0
LINE
  8
0
  6
DASHED
 62
     2
 10
58.353668
 20
-60.334457
 11
58.353668
 21
-79.334457
  0
LINE
  8
0
  6
DASHED
 62
     2
 10
24.767952
 20
-206.448730
 11
24.910809
 21
-211.834457
  0
LINE
  8
0
  6
DASHED
 62
     2
 10
24.053665
 20
-206.448730
 11
24.053665
 21
-210.834457
  0
LINE
  8
0
  6
CENTER
 62
     2
 10
-27.646332
 20
-205.220169
 11
-27.646332
 21
-213.920166
  0
LINE
  8
0
 10
-37.646332
 20
-155.334457
 11
49.353668
 21
-155.334457
  0
LINE
  8
0
 10
-37.646332
 20
-154.834457
 11
49.353668
 21
-154.834457
  0
LINE
  8
0
 10
-37.646332
 20
-145.834457
 11
49.353668
 21
-145.834457
  0
LINE
  8
0
 10
-37.646332
 20
-142.634460
 11
-19.403488
 21
-142.634460
  0
LINE
  8
0
  6
CENTER
 62
     2
 10
-12.946335
 20
-190.834457
 11
-28.360626
 21
-190.834457
  0
LINE
  8
0
 10
-37.646324
 20
-211.334427
 11
-37.146324
 21
-211.834427
  0
LINE
  8
0
 10
49.353664
 20
-211.334442
 11
48.853664
 21
-211.834442
  0
LINE
  8
0
  6
CENTER
 62
     2
 10
35.353668
 20
-182.491592
 11
35.353668
 21
-199.418457
  0
LINE
  8
0
  6
DASHED
 62
     2
 10
11.953665
 20
-206.448730
 11
11.810807
 21
-211.677307
  0
LINE
  8
0
  6
DASHED
 62
     2
 10
12.653656
 20
-206.448730
 11
12.653656
 21
-210.834457
  0
LINE
  8
0
  6
DASHED
 62
     2
 10
24.053665
 20
-210.834457
 11
12.653656
 21
-210.834457
  0
LINE
  8
0
  6
DASHED
 62
     2
 10
11.653666
 20
-211.834457
 11
12.653667
 21
-210.834457
  0
LINE
  8
0
  6
DASHED
 62
     2
 10
24.053671
 20
-210.834457
 11
25.053673
 21
-211.834457
  0
LINE
  8
0
  6
CENTER
 62
     2
 10
18.353668
 20
-205.420166
 11
18.353668
 21
-214.020172
  0
LINE
  8
0
  6
DASHED
 62
     2
 10
-21.232048
 20
-206.448730
 11
-21.089191
 21
-211.834442
  0
LINE
  8
0
  6
DASHED
 62
     2
 10
-21.946335
 20
-206.448730
 11
-21.946335
 21
-210.834457
  0
LINE
  8
0
  6
DASHED
 62
     2
 10
-34.046345
 20
-206.448730
 11
-34.189201
 21
-211.677307
  0
LINE
  8
0
  6
DASHED
 62
     2
 10
-33.346344
 20
-206.448730
 11
-33.346344
 21
-210.834457
  0
LINE
  8
0
  6
DASHED
 62
     2
 10
-21.946335
 20
-210.834457
 11
-33.346344
 21
-210.834457
  0
LINE
  8
0
  6
DASHED
 62
     2
 10
-34.346333
 20
-211.834457
 11
-33.346329
 21
-210.834457
  0
LINE
  8
0
  6
DASHED
 62
     2
 10
-21.946335
 20
-210.834427
 11
-20.946333
 21
-211.834427
  0
LINE
  8
0
  6
CENTER
 62
     2
 10
-20.646332
 20
-182.291595
 11
-20.646332
 21
-199.418457
  0
LINE
  8
0
  6
CENTER
 62
     2
 10
43.823898
 20
-190.834457
 11
26.735947
 21
-190.834457
  0
LINE
  8
0
  6
CENTER
 62
     2
 10
-9.646332
 20
-161.234451
 11
-9.646332
 21
-178.877304
  0
LINE
  8
0
  6
CENTER
 62
     2
 10
-29.646332
 20
-161.234451
 11
-29.646332
 21
-178.548737
  0
LINE
  8
0
  6
CENTER
 62
     2
 10
-38.589203
 20
-169.834457
 11
-20.946335
 21
-169.834457
  0
LINE
  8
0
 10
49.353668
 20
-50.334457
 11
49.353668
 21
-211.334457
  0
LINE
  8
0
  6
CENTER
 62
     2
 10
-18.732056
 20
-169.834457
 11
-1.017761
 21
-169.834457
  0
LINE
  8
0
 10
-37.646332
 20
-208.834457
 11
49.353668
 21
-208.834457
  0
LINE
  8
0
 10
-37.146332
 20
-211.834457
 11
48.853668
 21
-211.834457
  0
LINE
  8
0
 10
-37.646332
 20
-50.334457
 11
-37.646332
 21
-211.334457
  0
LINE
  8
0
  6
CENTER
 62
     2
 10
-18.360626
 20
-91.834457
 11
-1.060623
 21
-91.834457
  0
LINE
  8
0
  6
CENTER
 62
     2
 10
-9.646332
 20
-83.148743
 11
-9.646332
 21
-100.034470
  0
LINE
  8
0
  6
CENTER
 62
     2
 10
-29.646332
 20
-83.248749
 11
-29.646332
 21
-100.548752
  0
LINE
  8
0
  6
DASHED
 62
     2
 10
49.353668
 20
-79.834457
 11
57.853668
 21
-79.834457
  0
LINE
  8
0
  6
DASHED
 62
     2
 10
49.353668
 20
-59.834457
 11
57.853668
 21
-59.834457
  0
LINE
  8
0
  6
DASHED
 62
     2
 10
49.353668
 20
-201.834457
 11
57.853668
 21
-201.834457
  0
LINE
  8
0
  6
DASHED
 62
     2
 10
49.353668
 20
-181.834457
 11
57.853668
 21
-181.834457
  0
LINE
  8
0
 10
-42.646332
 20
-126.477318
 11
-40.646332
 21
-126.477318
  0
LINE
  8
0
 10
-37.646332
 20
-119.034454
 11
-19.403488
 21
-119.034454
  0
LINE
  8
0
 10
-37.646332
 20
-115.834457
 11
49.353668
 21
-115.834457
  0
LINE
  8
0
 10
-37.646332
 20
-106.834457
 11
49.353668
 21
-106.834457
  0
LINE
  8
0
 10
-37.646332
 20
-106.334457
 11
49.353668
 21
-106.334457
  0
LINE
  8
0
 10
-37.646332
 20
-73.491608
 11
49.353668
 21
-73.491608
  0
LINE
  8
0
 10
-37.646332
 20
-68.191605
 11
49.353668
 21
-68.191605
  0
LINE
  8
0
 10
-37.146328
 20
-49.834469
 11
-37.646328
 21
-50.334469
  0
LINE
  8
0
 10
48.853668
 20
-49.834457
 11
49.353668
 21
-50.334457
  0
LINE
  8
0
  6
CENTER
 62
     2
 10
-37.732056
 20
-91.834457
 11
-20.932053
 21
-91.834457
  0
LINE
  8
0
 10
-37.646332
 20
-52.834457
 11
49.353668
 21
-52.834457
  0
LINE
  8
0
 10
-37.146332
 20
-49.834457
 11
48.853668
 21
-49.834457
  0
LINE
  8
0
 10
-40.646332
 20
-126.477318
 11
-40.646332
 21
-135.205887
  0
LINE
  8
0
 10
-59.217758
 20
-50.834469
 11
-60.646328
 21
-52.263039
  0
LINE
  8
0
 10
-44.074905
 20
-50.834465
 11
-42.646332
 21
-52.263039
  0
LINE
  8
0
 10
-43.646320
 20
-210.834427
 11
-42.646332
 21
-209.834442
  0
LINE
  8
0
 10
-60.646332
 20
-209.834457
 11
-59.646332
 21
-210.834457
  0
LINE
  8
0
 10
-42.646332
 20
-135.205887
 11
-40.646332
 21
-135.205887
  0
LINE
  8
0
 62
     2
 10
-40.646339
 20
-126.477310
 11
-42.646339
 21
-132.291595
  0
LINE
  8
0
 62
     2
 10
-42.646347
 20
-129.391602
 11
-40.646347
 21
-135.205887
  0
LINE
  8
0
 10
-60.646332
 20
-209.834457
 11
-60.646332
 21
-52.263031
  0
LINE
  8
0
 10
-59.217762
 20
-50.834457
 11
-44.074905
 21
-50.834457
  0
LINE
  8
0
  6
CENTER
 62
     2
 10
-63.489189
 20
-69.834457
 11
-35.117767
 21
-69.834457
  0
LINE
  8
0
 10
-42.646332
 20
-209.834457
 11
-42.646332
 21
-52.263031
  0
LINE
  8
0
 10
-59.646332
 20
-210.834457
 11
-43.646332
 21
-210.834457
  0
LINE
  8
0
  6
CENTER
 62
     2
 10
-63.489189
 20
-191.834457
 11
-34.946335
 21
-191.834457
  0
LINE
  8
0
 10
-42.646332
 20
-120.834457
 11
-37.646332
 21
-120.834457
  0
LINE
  8
0
 10
-42.646332
 20
-140.834457
 11
-37.646332
 21
-140.834457
  0
LINE
  8
0
  6
PHANTOM
 62
     3
 10
-29.646332
 20
-160.211578
 11
-20.646332
 21
-160.211578
  0
LINE
  8
0
  6
PHANTOM
 62
     3
 10
-29.646332
 20
-160.211578
 11
-29.646332
 21
-101.457336
  0
LINE
  8
0
  6
PHANTOM
 62
     3
 10
-29.646332
 20
-101.457336
 11
-20.646332
 21
-101.457336
  0
LINE
  8
0
  6
PHANTOM
 62
     3
 10
-20.646332
 20
-160.211578
 11
-20.646332
 21
-179.946487
  0
LINE
  8
0
  6
PHANTOM
 62
     3
 10
-20.646332
 20
-179.946487
 11
-11.600296
 21
-179.946487
  0
LINE
  8
0
  6
PHANTOM
 62
     3
 10
-11.600296
 20
-179.946487
 11
-11.600296
 21
-224.841049
  0
LINE
  8
0
  6
PHANTOM
 62
     3
 10
-20.646332
 20
-101.457336
 11
-20.646332
 21
-24.931259
  0
LINE
  8
0
  6
PHANTOM
 62
     3
 10
8.185379
 20
-224.841049
 11
8.185379
 21
-37.454254
  0
LINE
  8
0
  6
CENTER
 62
     2
 10
-64.789185
 20
-130.834457
 11
52.539383
 21
-130.834457
  0
LINE
  8
0
  6
CENTER
 62
     2
 10
195.353653
 20
48.079819
 11
195.353653
 21
32.694107
  0
LINE
  8
0
  6
CENTER
 62
     2
 10
242.282211
 20
55.808380
 11
260.201965
 21
55.808380
  0
LINE
  8
0
  6
CENTER
 62
     2
 10
178.297592
 20
175.808380
 11
191.725082
 21
175.808380
  0
LINE
  8
0
  6
CENTER
 62
     2
 10
243.010788
 20
175.808380
 11
260.201965
 21
175.808380
  0
LINE
  8
0
  6
CENTER
 62
     2
 10
195.353653
 20
58.965530
 11
195.353653
 21
52.636963
  0
LINE
  8
0
  6
CENTER
 62
     2
 10
198.825089
 20
55.808380
 11
192.153656
 21
55.808380
  0
LINE
  8
0
  6
CENTER
 62
     2
 10
219.353653
 20
202.594086
 11
219.353653
 21
31.551239
  0
LINE
  8
0
  6
CENTER
 62
     2
 10
175.053665
 20
115.808380
 11
259.382202
 21
115.808380
  0
LINE
  8
0
  6
DASHED
 62
     2
 10
201.053665
 20
40.194107
 11
201.053665
 21
35.808380
  0
LINE
  8
0
  6
DASHED
 62
     2
 10
201.753647
 20
40.194096
 11
201.896500
 21
34.808388
  0
LINE
  8
0
  6
DASHED
 62
     2
 10
201.053650
 20
35.808388
 11
202.053650
 21
34.808392
  0
LINE
  8
0
  6
DASHED
 62
     2
 10
188.653641
 20
34.808392
 11
189.653641
 21
35.808392
  0
LINE
  8
0
  6
DASHED
 62
     2
 10
188.939392
 20
40.194107
 11
188.796539
 21
34.965527
  0
LINE
  8
0
  6
DASHED
 62
     2
 10
201.053665
 20
35.808380
 11
189.653656
 21
35.808380
  0
LINE
  8
0
  6
DASHED
 62
     2
 10
189.653656
 20
40.194107
 11
189.653656
 21
35.808380
  0
LINE
  8
0
  6
CENTER
 62
     2
 10
234.010803
 20
187.808380
 11
248.882217
 21
187.808380
  0
LINE
  8
0
  6
CENTER
 62
     2
 10
234.853653
 20
43.808380
 11
247.782211
 21
43.808380
  0
LINE
  8
0
  6
CENTER
 62
     2
 10
241.353653
 20
194.994095
 11
241.353653
 21
180.322662
  0
LINE
  8
0
  6
CENTER
 62
     2
 10
197.353653
 20
195.194092
 11
197.353653
 21
180.322662
  0
LINE
  8
0
 10
257.353638
 20
179.951233
 11
257.353638
 21
193.808380
  0
LINE
  8
0
 10
252.853653
 20
179.951233
 11
252.853653
 21
182.451233
  0
LINE
  8
0
 10
252.853653
 20
179.951233
 11
257.353638
 21
179.951233
  0
LINE
  8
0
 10
257.353638
 20
140.308380
 11
257.353638
 21
171.651230
  0
LINE
  8
0
 10
252.853653
 20
171.651230
 11
257.353638
 21
171.651230
  0
LINE
  8
0
 10
252.853653
 20
169.151230
 11
252.853653
 21
171.651230
  0
LINE
  8
0
 10
245.853653
 20
169.151230
 11
252.853653
 21
169.151230
  0
LINE
  8
0
 10
245.853653
 20
169.151230
 11
245.853653
 21
182.451233
  0
LINE
  8
0
 10
245.853653
 20
182.451233
 11
252.853653
 21
182.451233
  0
LINE
  8
0
 10
181.353653
 20
173.151230
 11
181.353653
 21
140.308380
  0
LINE
  8
0
 10
181.353653
 20
173.151230
 11
184.353653
 21
173.151230
  0
LINE
  8
0
 10
184.353653
 20
172.965515
 11
184.353653
 21
171.808380
  0
LINE
  8
0
 10
184.353653
 20
171.808380
 11
188.853653
 21
171.808380
  0
LINE
  8
0
 10
188.853653
 20
179.808380
 11
188.853653
 21
171.808380
  0
LINE
  8
0
 10
184.353653
 20
179.808380
 11
188.853653
 21
179.808380
  0
LINE
  8
0
 10
184.353653
 20
179.808380
 11
184.353653
 21
178.451233
  0
LINE
  8
0
 10
181.353653
 20
178.451233
 11
184.353653
 21
178.451233
  0
LINE
  8
0
 10
181.353653
 20
193.808380
 11
181.353653
 21
178.451233
  0
LINE
  8
0
 10
255.353653
 20
131.308380
 11
255.353653
 21
127.108383
  0
LINE
  8
0
 10
255.353653
 20
104.508377
 11
255.353653
 21
100.308380
  0
LINE
  8
0
 10
255.353653
 20
59.965530
 11
255.353653
 21
51.665527
  0
LINE
  8
0
 10
255.353653
 20
179.951233
 11
255.353653
 21
171.651230
  0
LINE
  8
0
 10
183.353653
 20
178.451233
 11
183.353653
 21
173.151230
  0
LINE
  8
0
 10
217.853653
 20
196.808380
 11
217.853653
 21
190.722656
  0
LINE
  8
0
 10
220.853653
 20
196.808380
 11
220.853653
 21
190.722656
  0
LINE
  8
0
 10
217.853653
 20
34.808380
 11
217.853653
 21
40.894104
  0
LINE
  8
0
 10
220.853653
 20
34.808380
 11
220.853653
 21
40.894104
  0
LINE
  8
0
  6
CENTER
 62
     2
 10
241.353653
 20
50.808380
 11
241.353653
 21
36.808380
  0
LINE
  8
0
  6
CENTER
 62
     2
 10
197.353653
 20
50.808380
 11
197.353653
 21
36.808380
  0
LINE
  8
0
  6
CENTER
 62
     2
 10
190.210800
 20
43.808380
 11
204.639374
 21
43.808380
  0
LINE
  8
0
  6
CENTER
 62
     2
 10
190.210800
 20
187.808380
 11
204.639374
 21
187.808380
  0
LINE
  8
0
 10
252.853653
 20
51.665527
 11
257.353638
 21
51.665527
  0
LINE
  8
0
 10
252.853653
 20
59.965530
 11
257.353638
 21
59.965530
  0
LINE
  8
0
 10
245.853653
 20
62.465530
 11
252.853653
 21
62.465530
  0
LINE
  8
0
 10
245.853653
 20
49.165527
 11
252.853653
 21
49.165527
  0
LINE
  8
0
 10
252.853653
 20
62.465530
 11
252.853653
 21
59.965530
  0
LINE
  8
0
 10
245.853653
 20
62.465530
 11
245.853653
 21
49.165527
  0
LINE
  8
0
 10
252.853653
 20
51.665527
 11
252.853653
 21
49.165527
  0
LINE
  8
0
 10
257.353638
 20
51.665527
 11
257.353638
 21
37.808380
  0
LINE
  8
0
 10
256.853638
 20
91.808380
 11
256.853638
 21
100.808380
  0
LINE
  8
0
 10
256.853638
 20
100.808380
 11
256.353638
 21
100.808380
  0
LINE
  8
0
 10
256.353638
 20
100.808395
 11
255.853638
 21
100.308388
  0
LINE
  8
0
 10
255.853653
 20
100.308380
 11
254.253647
 21
100.308380
  0
LINE
  8
0
 10
255.853653
 20
104.508377
 11
254.253647
 21
104.508377
  0
LINE
  8
0
 10
256.353638
 20
104.008377
 11
255.853638
 21
104.508377
  0
LINE
  8
0
 10
256.853638
 20
104.008377
 11
256.353638
 21
104.008377
  0
LINE
  8
0
 10
256.853638
 20
139.808365
 11
257.353638
 21
140.308380
  0
LINE
  8
0
 10
256.853638
 20
91.808380
 11
257.353638
 21
91.308380
  0
LINE
  8
0
 10
256.853638
 20
127.608383
 11
256.853638
 21
104.008377
  0
LINE
  8
0
 10
256.853638
 20
139.808380
 11
256.853638
 21
130.808380
  0
LINE
  8
0
 10
256.853638
 20
130.808380
 11
256.353638
 21
130.808380
  0
LINE
  8
0
 10
256.353638
 20
130.808380
 11
255.853638
 21
131.308380
  0
LINE
  8
0
 10
255.853653
 20
131.308380
 11
254.253647
 21
131.308380
  0
LINE
  8
0
 10
255.853653
 20
127.108383
 11
254.253647
 21
127.108383
  0
LINE
  8
0
 10
256.353638
 20
127.608368
 11
255.853638
 21
127.108383
  0
LINE
  8
0
 10
256.853638
 20
127.608383
 11
256.353638
 21
127.608383
  0
LINE
  8
0
 10
181.853653
 20
91.808388
 11
181.353653
 21
91.308388
  0
LINE
  8
0
 10
181.853653
 20
91.808380
 11
181.853653
 21
100.808380
  0
LINE
  8
0
 10
181.853653
 20
100.808380
 11
182.353653
 21
100.808380
  0
LINE
  8
0
 10
182.353653
 20
100.808388
 11
182.853653
 21
100.308388
  0
LINE
  8
0
 10
182.853653
 20
100.308380
 11
184.453659
 21
100.308380
  0
LINE
  8
0
 10
182.853653
 20
104.508377
 11
184.453659
 21
104.508377
  0
LINE
  8
0
 10
182.353668
 20
104.008369
 11
182.853668
 21
104.508369
  0
LINE
  8
0
 10
181.853653
 20
104.008377
 11
182.353653
 21
104.008377
  0
LINE
  8
0
 10
181.853653
 20
139.808380
 11
181.353653
 21
140.308380
  0
LINE
  8
0
 10
181.853653
 20
127.608383
 11
181.853653
 21
104.008377
  0
LINE
  8
0
 10
181.853653
 20
139.808380
 11
181.853653
 21
100.808380
  0
LINE
  8
0
 10
181.853653
 20
130.808380
 11
182.353653
 21
130.808380
  0
LINE
  8
0
 10
182.353653
 20
130.808380
 11
182.853653
 21
131.308380
  0
LINE
  8
0
 10
182.853653
 20
131.308380
 11
184.453659
 21
131.308380
  0
LINE
  8
0
 10
182.853653
 20
127.108383
 11
184.453659
 21
127.108383
  0
LINE
  8
0
 10
182.353668
 20
127.608383
 11
182.853668
 21
127.108383
  0
LINE
  8
0
 10
181.853653
 20
127.608383
 11
182.353653
 21
127.608383
  0
LINE
  8
0
 10
181.353653
 20
37.808388
 11
184.353653
 21
34.808395
  0
LINE
  8
0
 10
257.353638
 20
91.308380
 11
257.353638
 21
59.965530
  0
LINE
  8
0
 10
181.353653
 20
91.308380
 11
181.353653
 21
37.808380
  0
LINE
  8
0
 10
257.353638
 20
37.808388
 11
254.353653
 21
34.808392
  0
LINE
  8
0
 10
254.353638
 20
196.808350
 11
257.353638
 21
193.808365
  0
LINE
  8
0
 10
184.353638
 20
196.808365
 11
181.353653
 21
193.808380
  0
LINE
  8
0
  6
CENTER
 62
     2
 10
202.810806
 20
54.808380
 11
236.253647
 21
54.808380
  0
LINE
  8
0
  6
CENTER
 62
     2
 10
199.910797
 20
176.808380
 11
238.396500
 21
176.808380
  0
LINE
  8
0
 10
184.353653
 20
34.808380
 11
254.353653
 21
34.808380
  0
LINE
  8
0
 10
184.353653
 20
196.808380
 11
254.353653
 21
196.808380
  0
LINE
  8
0
  6
CENTER
 62
     2
 10
-241.403488
 20
54.808380
 11
-217.560638
 21
54.808380
  0
LINE
  8
0
  6
CENTER
 62
     2
 10
-241.403488
 20
176.808380
 11
-217.560638
 21
176.808380
  0
LINE
  8
0
  6
CENTER
 62
     2
 10
-203.217773
 20
189.179810
 11
-203.217773
 21
174.479797
  0
LINE
  8
0
  6
CENTER
 62
     2
 10
-211.060638
 20
181.808380
 11
-195.803497
 21
181.808380
  0
LINE
  8
0
  6
CENTER
 62
     2
 10
-210.774918
 20
49.808380
 11
-195.803497
 21
49.808380
  0
LINE
  8
0
  6
CENTER
 62
     2
 10
-255.217773
 20
188.894089
 11
-255.217773
 21
174.479797
  0
LINE
  8
0
  6
CENTER
 62
     2
 10
-229.217773
 20
201.022659
 11
-229.217773
 21
30.151245
  0
LINE
  8
0
 10
-226.217773
 20
117.536949
 11
-226.217773
 21
114.065521
  0
LINE
  8
0
 10
-226.217773
 20
114.065521
 11
-229.217773
 21
112.336952
  0
LINE
  8
0
 10
-229.217773
 20
112.336952
 11
-232.217758
 21
114.065521
  0
LINE
  8
0
 10
-232.217773
 20
117.536949
 11
-232.217773
 21
114.065521
  0
LINE
  8
0
 10
-229.217773
 20
119.265526
 11
-232.217773
 21
117.536949
  0
LINE
  8
0
 10
-229.217758
 20
119.265518
 11
-226.217773
 21
117.536949
  0
LINE
  8
0
 10
-226.217773
 20
56.551239
 11
-226.217773
 21
53.079819
  0
LINE
  8
0
 10
-226.217758
 20
53.079815
 11
-229.217773
 21
51.351242
  0
LINE
  8
0
 10
-229.217773
 20
51.351242
 11
-232.217789
 21
53.079815
  0
LINE
  8
0
 10
-232.217773
 20
56.551239
 11
-232.217773
 21
53.079819
  0
LINE
  8
0
 10
-229.217773
 20
58.279823
 11
-232.217773
 21
56.551254
  0
LINE
  8
0
 10
-229.217773
 20
58.279823
 11
-226.217773
 21
56.551250
  0
LINE
  8
0
 10
-229.217789
 20
180.265518
 11
-226.217758
 21
178.536942
  0
LINE
  8
0
 10
-226.217773
 20
178.536942
 11
-226.217773
 21
175.065521
  0
LINE
  8
0
 10
-226.217773
 20
175.065506
 11
-229.217773
 21
173.336945
  0
LINE
  8
0
 10
-229.217758
 20
173.336945
 11
-232.217773
 21
175.065506
  0
LINE
  8
0
 10
-232.217773
 20
178.536942
 11
-232.217773
 21
175.065521
  0
LINE
  8
0
 10
-229.217758
 20
180.265518
 11
-232.217773
 21
178.536942
  0
LINE
  8
0
 10
-265.217773
 20
194.808380
 11
-265.217773
 21
36.808380
  0
LINE
  8
0
 10
-193.217773
 20
194.808380
 11
-193.217773
 21
36.808380
  0
LINE
  8
0
  6
CENTER
 62
     2
 10
-203.217773
 20
42.522675
 11
-203.217773
 21
57.079819
  0
LINE
  8
0
  6
CENTER
 62
     2
 10
-247.032059
 20
181.808380
 11
-262.460632
 21
181.808380
  0
LINE
  8
0
  6
CENTER
 62
     2
 10
-247.517761
 20
49.808380
 11
-262.460632
 21
49.808380
  0
LINE
  8
0
  6
CENTER
 62
     2
 10
-255.217773
 20
42.708389
 11
-255.217773
 21
57.079819
  0
LINE
  8
0
 10
-194.217773
 20
195.808365
 11
-193.217773
 21
194.808365
  0
LINE
  8
0
 10
-193.217773
 20
36.808388
 11
-194.217773
 21
35.808392
  0
LINE
  8
0
 10
-265.217773
 20
36.808384
 11
-264.217773
 21
35.808392
  0
LINE
  8
0
 10
-264.217773
 20
195.808365
 11
-265.217773
 21
194.808365
  0
LINE
  8
0
 10
-264.217773
 20
195.808380
 11
-194.217773
 21
195.808380
  0
LINE
  8
0
 10
-264.217773
 20
35.808380
 11
-194.217773
 21
35.808380
  0
LINE
  8
0
 10
-265.217773
 20
51.665527
 11
-267.217773
 21
51.665527
  0
LINE
  8
0
 10
-265.217773
 20
59.965530
 11
-267.217773
 21
59.965530
  0
LINE
  8
0
 10
-267.217773
 20
51.665527
 11
-267.217773
 21
37.808380
  0
LINE
  8
0
 10
-266.717773
 20
91.808380
 11
-266.717773
 21
100.808380
  0
LINE
  8
0
 10
-266.717773
 20
100.808380
 11
-266.217773
 21
100.808380
  0
LINE
  8
0
 10
-266.217743
 20
100.808372
 11
-265.717773
 21
100.308388
  0
LINE
  8
0
 10
-265.717773
 20
100.308380
 11
-265.217773
 21
100.308380
  0
LINE
  8
0
 10
-265.717773
 20
104.508377
 11
-265.217773
 21
104.508377
  0
LINE
  8
0
 10
-266.217773
 20
104.008377
 11
-265.717773
 21
104.508385
  0
LINE
  8
0
 10
-266.717773
 20
104.008377
 11
-266.217773
 21
104.008377
  0
LINE
  8
0
 10
-266.717773
 20
139.808380
 11
-267.217773
 21
140.308380
  0
LINE
  8
0
 10
-266.717773
 20
91.808388
 11
-267.217773
 21
91.308388
  0
LINE
  8
0
 10
-266.717773
 20
127.608383
 11
-266.717773
 21
104.008377
  0
LINE
  8
0
 10
-266.717773
 20
139.808380
 11
-266.717773
 21
130.808380
  0
LINE
  8
0
 10
-266.717773
 20
130.808380
 11
-266.217773
 21
130.808380
  0
LINE
  8
0
 10
-266.217773
 20
130.808380
 11
-265.717773
 21
131.308380
  0
LINE
  8
0
 10
-265.717773
 20
131.308380
 11
-265.217773
 21
131.308380
  0
LINE
  8
0
 10
-265.717773
 20
127.108383
 11
-265.217773
 21
127.108383
  0
LINE
  8
0
 10
-266.217773
 20
127.608376
 11
-265.717773
 21
127.108383
  0
LINE
  8
0
 10
-266.717773
 20
127.608383
 11
-266.217773
 21
127.608383
  0
LINE
  8
0
 10
-191.717773
 20
91.808388
 11
-191.217773
 21
91.308388
  0
LINE
  8
0
 10
-191.717773
 20
91.808380
 11
-191.717773
 21
100.808380
  0
LINE
  8
0
 10
-191.717773
 20
100.808380
 11
-192.217773
 21
100.808380
  0
LINE
  8
0
 10
-192.217773
 20
100.808388
 11
-192.717773
 21
100.308395
  0
LINE
  8
0
 10
-192.717773
 20
100.308380
 11
-193.217773
 21
100.308380
  0
LINE
  8
0
 10
-192.717773
 20
104.508377
 11
-193.217773
 21
104.508377
  0
LINE
  8
0
 10
-192.217789
 20
104.008377
 11
-192.717789
 21
104.508377
  0
LINE
  8
0
 10
-191.717773
 20
104.008377
 11
-192.217773
 21
104.008377
  0
LINE
  8
0
 10
-191.717773
 20
139.808380
 11
-191.217773
 21
140.308380
  0
LINE
  8
0
 10
-191.217773
 20
173.151230
 11
-191.217773
 21
140.308380
  0
LINE
  8
0
 10
-191.217773
 20
173.151230
 11
-193.217773
 21
173.151230
  0
LINE
  8
0
 10
-191.217773
 20
178.451233
 11
-193.217773
 21
178.451233
  0
LINE
  8
0
 10
-265.217773
 20
179.951233
 11
-267.217773
 21
179.951233
  0
LINE
  8
0
 10
-265.217773
 20
171.651230
 11
-267.217773
 21
171.651230
  0
LINE
  8
0
 10
-191.717773
 20
127.608383
 11
-191.717773
 21
104.008377
  0
LINE
  8
0
 10
-191.717773
 20
139.808380
 11
-191.717773
 21
100.808380
  0
LINE
  8
0
 10
-191.717773
 20
130.808380
 11
-192.217773
 21
130.808380
  0
LINE
  8
0
 10
-192.217773
 20
130.808380
 11
-192.717773
 21
131.308380
  0
LINE
  8
0
 10
-192.717773
 20
131.308380
 11
-193.217773
 21
131.308380
  0
LINE
  8
0
 10
-192.717773
 20
127.108383
 11
-193.217773
 21
127.108383
  0
LINE
  8
0
 10
-192.217789
 20
127.608383
 11
-192.717789
 21
127.108383
  0
LINE
  8
0
 10
-191.717773
 20
127.608383
 11
-192.217773
 21
127.608383
  0
LINE
  8
0
 10
-267.217773
 20
140.308380
 11
-267.217773
 21
171.651230
  0
LINE
  8
0
 10
-267.217773
 20
179.951233
 11
-267.217773
 21
193.808380
  0
LINE
  8
0
 10
-191.217773
 20
37.808384
 11
-194.217773
 21
34.808395
  0
LINE
  8
0
 10
-267.217773
 20
91.308380
 11
-267.217773
 21
59.965530
  0
LINE
  8
0
  6
CENTER
 62
     2
 10
-270.760620
 20
115.808380
 11
-188.289215
 21
115.808380
  0
LINE
  8
0
 10
-191.217773
 20
91.308380
 11
-191.217773
 21
37.808380
  0
LINE
  8
0
 10
-267.217773
 20
37.808380
 11
-264.217773
 21
34.808392
  0
LINE
  8
0
 10
-264.217773
 20
196.808365
 11
-267.217773
 21
193.808380
  0
LINE
  8
0
 10
-194.217758
 20
196.808365
 11
-191.217773
 21
193.808380
  0
LINE
  8
0
 10
-191.217773
 20
193.808380
 11
-191.217773
 21
178.451233
  0
LINE
  8
0
 10
-194.217773
 20
34.808380
 11
-264.217773
 21
34.808380
  0
LINE
  8
0
 10
-194.217773
 20
196.808380
 11
-264.217773
 21
196.808380
  0
LINE
  8
0
 10
-42.646332
 20
44.808380
 11
-37.646332
 21
44.808380
  0
LINE
  8
0
 10
-42.646332
 20
64.808380
 11
-37.646332
 21
64.808380
  0
LINE
  8
0
 10
-42.646332
 20
166.808380
 11
-37.646332
 21
166.808380
  0
LINE
  8
0
 10
-42.646332
 20
186.808380
 11
-37.646332
 21
186.808380
  0
LINE
  8
0
 10
32.610809
 20
104.008377
 11
49.353668
 21
104.008377
  0
LINE
  8
0
 10
32.610809
 20
127.608383
 11
49.353668
 21
127.608383
  0
LINE
  8
0
  6
CENTER
 62
     2
 10
23.353668
 20
134.227676
 11
23.353668
 21
98.779816
  0
LINE
  8
0
  6
DASHED
 62
     2
 10
57.853668
 20
44.808380
 11
58.353668
 21
45.308380
  0
LINE
  8
0
  6
DASHED
 62
     2
 10
57.853668
 20
64.808380
 11
58.353668
 21
64.308380
  0
LINE
  8
0
  6
DASHED
 62
     2
 10
57.853668
 20
166.808380
 11
58.353668
 21
167.308380
  0
LINE
  8
0
  6
DASHED
 62
     2
 10
57.853668
 20
186.808380
 11
58.353668
 21
186.308380
  0
LINE
  8
0
  6
DASHED
 62
     2
 10
58.353668
 20
64.308380
 11
58.353668
 21
45.308380
  0
LINE
  8
0
  6
DASHED
 62
     2
 10
58.353668
 20
186.308380
 11
58.353668
 21
167.308380
  0
LINE
  8
0
  6
DASHED
 62
     2
 10
24.767952
 20
40.194103
 11
24.910809
 21
34.808380
  0
LINE
  8
0
  6
DASHED
 62
     2
 10
24.053665
 20
40.194107
 11
24.053665
 21
35.808380
  0
LINE
  8
0
  6
CENTER
 62
     2
 10
-27.646332
 20
41.422668
 11
-27.646332
 21
32.722672
  0
LINE
  8
0
 10
-37.646332
 20
91.308380
 11
49.353668
 21
91.308380
  0
LINE
  8
0
 10
-37.646332
 20
91.808380
 11
49.353668
 21
91.808380
  0
LINE
  8
0
 10
-37.646332
 20
100.808380
 11
49.353668
 21
100.808380
  0
LINE
  8
0
 10
-37.646332
 20
104.008377
 11
14.096512
 21
104.008377
  0
LINE
  8
0
  6
CENTER
 62
     2
 10
-11.747086
 20
55.808380
 11
-29.954285
 21
55.808380
  0
LINE
  8
0
 10
-37.646328
 20
35.308392
 11
-37.146328
 21
34.808392
  0
LINE
  8
0
 10
49.353668
 20
35.308380
 11
48.853668
 21
34.808380
  0
LINE
  8
0
  6
CENTER
 62
     2
 10
35.353668
 20
64.151245
 11
35.353668
 21
46.833130
  0
LINE
  8
0
  6
DASHED
 62
     2
 10
11.953666
 20
40.194096
 11
11.810808
 21
34.965530
  0
LINE
  8
0
  6
DASHED
 62
     2
 10
12.653656
 20
40.194107
 11
12.653656
 21
35.808380
  0
LINE
  8
0
  6
DASHED
 62
     2
 10
24.053665
 20
35.808380
 11
12.653656
 21
35.808380
  0
LINE
  8
0
  6
DASHED
 62
     2
 10
11.653662
 20
34.808388
 11
12.653663
 21
35.808388
  0
LINE
  8
0
  6
DASHED
 62
     2
 10
24.053663
 20
35.808384
 11
25.053663
 21
34.808384
  0
LINE
  8
0
  6
CENTER
 62
     2
 10
18.353668
 20
41.222672
 11
18.353668
 21
32.622665
  0
LINE
  8
0
  6
DASHED
 62
     2
 10
-21.232048
 20
40.194099
 11
-21.089191
 21
34.808392
  0
LINE
  8
0
  6
DASHED
 62
     2
 10
-21.946335
 20
40.194107
 11
-21.946335
 21
35.808380
  0
LINE
  8
0
  6
DASHED
 62
     2
 10
-34.046345
 20
40.194096
 11
-34.189201
 21
34.965530
  0
LINE
  8
0
  6
DASHED
 62
     2
 10
-33.346344
 20
40.194107
 11
-33.346344
 21
35.808380
  0
LINE
  8
0
  6
DASHED
 62
     2
 10
-21.946335
 20
35.808380
 11
-33.346344
 21
35.808380
  0
LINE
  8
0
  6
DASHED
 62
     2
 10
-34.346333
 20
34.808380
 11
-33.346329
 21
35.808380
  0
LINE
  8
0
  6
DASHED
 62
     2
 10
-21.946337
 20
35.808392
 11
-20.946335
 21
34.808392
  0
LINE
  8
0
  6
CENTER
 62
     2
 10
-20.646332
 20
64.351242
 11
-20.646332
 21
46.833130
  0
LINE
  8
0
  6
CENTER
 62
     2
 10
44.555191
 20
55.808380
 11
26.628098
 21
55.808380
  0
LINE
  8
0
  6
CENTER
 62
     2
 10
-9.646332
 20
85.408386
 11
-9.646332
 21
67.765533
  0
LINE
  8
0
  6
CENTER
 62
     2
 10
-29.646332
 20
85.408386
 11
-29.646332
 21
68.094101
  0
LINE
  8
0
  6
CENTER
 62
     2
 10
-38.589203
 20
76.808380
 11
-20.946335
 21
76.808380
  0
LINE
  8
0
 10
49.353668
 20
196.308380
 11
49.353668
 21
35.308380
  0
LINE
  8
0
  6
CENTER
 62
     2
 10
-18.732056
 20
76.808380
 11
-1.017761
 21
76.808380
  0
LINE
  8
0
 10
-37.646332
 20
37.808380
 11
49.353668
 21
37.808380
  0
LINE
  8
0
 10
-37.146332
 20
34.808380
 11
48.853668
 21
34.808380
  0
LINE
  8
0
 10
-37.646332
 20
196.308380
 11
-37.646332
 21
35.308380
  0
LINE
  8
0
  6
CENTER
 62
     2
 10
-64.789185
 20
115.808380
 11
52.539383
 21
115.808380
  0
LINE
  8
0
  6
CENTER
 62
     2
 10
-18.360626
 20
154.808380
 11
-1.060623
 21
154.808380
  0
LINE
  8
0
  6
CENTER
 62
     2
 10
-9.646332
 20
163.494095
 11
-9.646332
 21
146.608368
  0
LINE
  8
0
  6
CENTER
 62
     2
 10
-29.646332
 20
163.394089
 11
-29.646332
 21
146.094086
  0
LINE
  8
0
  6
DASHED
 62
     2
 10
49.353668
 20
166.808380
 11
57.853668
 21
166.808380
  0
LINE
  8
0
  6
DASHED
 62
     2
 10
49.353668
 20
186.808380
 11
57.853668
 21
186.808380
  0
LINE
  8
0
  6
DASHED
 62
     2
 10
49.353668
 20
44.808380
 11
57.853668
 21
44.808380
  0
LINE
  8
0
  6
DASHED
 62
     2
 10
49.353668
 20
64.808380
 11
57.853668
 21
64.808380
  0
LINE
  8
0
 10
-42.646332
 20
120.165520
 11
-40.646332
 21
120.165520
  0
LINE
  8
0
 10
-37.646332
 20
127.608383
 11
14.096512
 21
127.608383
  0
LINE
  8
0
 10
-37.646332
 20
130.808380
 11
49.353668
 21
130.808380
  0
LINE
  8
0
 10
-37.646332
 20
139.808380
 11
49.353668
 21
139.808380
  0
LINE
  8
0
 10
-37.646332
 20
140.308380
 11
49.353668
 21
140.308380
  0
LINE
  8
0
 10
-37.646332
 20
173.151230
 11
49.353668
 21
173.151230
  0
LINE
  8
0
 10
-37.646332
 20
178.451233
 11
49.353668
 21
178.451233
  0
LINE
  8
0
 10
-37.146332
 20
196.808365
 11
-37.646332
 21
196.308365
  0
LINE
  8
0
 10
48.853668
 20
196.808380
 11
49.353672
 21
196.308380
  0
LINE
  8
0
  6
CENTER
 62
     2
 10
-37.732056
 20
154.808380
 11
-20.932053
 21
154.808380
  0
LINE
  8
0
 10
-37.646332
 20
193.808380
 11
49.353668
 21
193.808380
  0
LINE
  8
0
 10
-37.146332
 20
196.808380
 11
48.853668
 21
196.808380
  0
LINE
  8
0
 10
-40.646332
 20
120.165520
 11
-40.646332
 21
111.436951
  0
LINE
  8
0
 10
-59.217758
 20
195.808365
 11
-60.646332
 21
194.379791
  0
LINE
  8
0
 10
-44.074909
 20
195.808365
 11
-42.646336
 21
194.379791
  0
LINE
  8
0
 10
-43.646324
 20
35.808392
 11
-42.646324
 21
36.808392
  0
LINE
  8
0
 10
-60.646332
 20
36.808380
 11
-59.646332
 21
35.808380
  0
LINE
  8
0
 10
-42.646332
 20
111.436951
 11
-40.646332
 21
111.436951
  0
LINE
  8
0
 62
     2
 10
-40.646336
 20
120.165527
 11
-42.646336
 21
114.351242
  0
LINE
  8
0
 62
     2
 10
-42.646347
 20
117.251228
 11
-40.646347
 21
111.436943
  0
LINE
  8
0
 10
-60.646332
 20
36.808380
 11
-60.646332
 21
194.379807
  0
LINE
  8
0
 10
-59.217762
 20
195.808380
 11
-44.074905
 21
195.808380
  0
LINE
  8
0
  6
CENTER
 62
     2
 10
-63.489189
 20
176.808380
 11
-35.117767
 21
176.808380
  0
LINE
  8
0
 10
-42.646332
 20
36.808380
 11
-42.646332
 21
194.379807
  0
LINE
  8
0
 10
-59.646332
 20
35.808380
 11
-43.646332
 21
35.808380
  0
LINE
  8
0
  6
CENTER
 62
     2
 10
-63.489189
 20
54.808380
 11
-34.946335
 21
54.808380
  0
LINE
  8
0
 10
-42.646332
 20
125.808380
 11
-37.646332
 21
125.808380
  0
LINE
  8
0
 10
-42.646332
 20
105.808380
 11
-37.646332
 21
105.808380
  0
LINE
  8
0
  6
PHANTOM
 62
     3
 10
-1.017761
 20
20.414642
 11
-1.017761
 21
66.984375
  0
LINE
  8
0
  6
PHANTOM
 62
     3
 10
-20.646332
 20
66.984375
 11
-1.017761
 21
66.984375
  0
LINE
  8
0
  6
PHANTOM
 62
     3
 10
5.185379
 20
20.414642
 11
5.185379
 21
209.821350
  0
LINE
  8
0
  6
PHANTOM
 62
     3
 10
-20.646332
 20
66.984375
 11
-20.646332
 21
222.400925
  0
LINE
  8
0
 10
-63.975098
 20
-267.000000
 11
-63.975098
 21
-216.999985
  0
LINE
  8
0
 10
-88.975098
 20
-267.000000
 11
-88.975098
 21
-216.999985
  0
LINE
  8
0
 10
-113.975098
 20
-267.000000
 11
-113.975098
 21
-216.999985
  0
LINE
  8
0
 10
-138.975098
 20
-267.000000
 11
-138.975098
 21
-216.999985
  0
LINE
  8
0
 10
-163.975098
 20
-267.000000
 11
-163.975098
 21
-216.999985
  0
LINE
  8
0
 10
-188.975098
 20
-267.000000
 11
-188.975098
 21
-216.999985
  0
LINE
  8
0
 10
-213.975098
 20
-267.000000
 11
-213.975098
 21
-216.999985
  0
LINE
  8
0
 10
-238.975098
 20
-267.000000
 11
-238.975098
 21
-216.999985
  0
LINE
  8
0
 10
-263.975098
 20
-267.000000
 11
-263.975098
 21
-216.999985
  0
LINE
  8
0
 10
-288.975098
 20
-267.000000
 11
-288.975098
 21
-216.999985
  0
LINE
  8
0
 10
-313.975098
 20
-267.000000
 11
-313.975098
 21
-216.999985
  0
LINE
  8
0
 10
-338.975037
 20
-246.999969
 11
-344.334015
 21
-226.999985
  0
LINE
  8
0
 10
-338.975098
 20
-267.000000
 11
-338.975098
 21
-216.999985
  0
LINE
  8
0
 10
-388.975098
 20
-267.000000
 11
-388.975098
 21
-216.999985
  0
LINE
  8
0
 10
-388.975098
 20
-216.999985
 11
-63.975098
 21
-216.999985
  0
LINE
  8
0
 10
-388.975098
 20
-226.999985
 11
-344.333984
 21
-226.999985
  0
LINE
  8
0
 10
-388.975098
 20
-246.999985
 11
-63.975098
 21
-246.999985
  0
LINE
  8
0
 10
-388.975098
 20
-256.999756
 11
-63.975098
 21
-256.999756
  0
LINE
  8
0
 10
-388.975098
 20
-266.999756
 11
-63.975098
 21
-266.999756
  0
LINE
  8
0
 10
-199.250000
 20
276.250000
 11
-199.250000
 21
251.250000
  0
LINE
  8
0
 10
399.799805
 20
276.250000
 11
399.799805
 21
-276.750000
  0
LINE
  8
0
 10
-399.250000
 20
276.250000
 11
-399.250000
 21
-276.750000
  0
LINE
  8
0
 10
-399.250000
 20
276.250000
 11
399.799805
 21
276.250000
  0
LINE
  8
0
 10
-399.250000
 20
-276.750000
 11
399.799805
 21
-276.750000
  0
LINE
  8
0
 10
239.799988
 20
-251.750000
 11
399.799805
 21
-251.750000
  0
LINE
  8
0
 10
239.799988
 20
251.250000
 11
399.799805
 21
251.250000
  0
LINE
  8
0
 10
-399.250000
 20
251.250000
 11
-199.250000
 21
251.250000
  0
LINE
  8
0
 10
239.799988
 20
-251.750000
 11
239.799988
 21
-276.750000
  0
LINE
  8
0
 10
239.799988
 20
251.250000
 11
239.799988
 21
276.250000
  0
CIRCLE
  8
0
 10
-10.146301
 20
-130.834457
 40
1.650000
  0
CIRCLE
  8
0
 10
-19.146317
 20
-130.834457
 40
1.099999
  0
CIRCLE
  8
0
 10
-1.146332
 20
-130.834457
 40
1.099999
  0
CIRCLE
  8
0
 10
-10.146301
 20
-130.834457
 40
15.000000
  0
CIRCLE
  8
0
 10
-10.146301
 20
-130.834457
 40
14.499999
  0
CIRCLE
  8
0
 10
-20.646317
 20
-190.834457
 40
5.749999
  0
CIRCLE
  8
0
 62
     2
 10
-20.646317
 20
-190.834457
 40
6.749999
  0
CIRCLE
  8
0
 10
35.353668
 20
-190.834457
 40
5.749999
  0
CIRCLE
  8
0
 62
     2
 10
35.353668
 20
-190.834457
 40
6.749999
  0
CIRCLE
  8
0
  6
DASHED
 62
     2
 10
-9.646317
 20
-169.834457
 40
5.000000
  0
CIRCLE
  8
0
 10
-9.646317
 20
-169.834457
 40
6.999999
  0
CIRCLE
  8
0
  6
DASHED
 62
     2
 10
-29.646317
 20
-169.834457
 40
5.000000
  0
CIRCLE
  8
0
 10
-29.646317
 20
-169.834457
 40
4.299998
  0
CIRCLE
  8
0
 10
-29.646317
 20
-169.834457
 40
6.999999
  0
CIRCLE
  8
0
 10
-9.646317
 20
-169.834457
 40
4.299998
  0
CIRCLE
  8
0
  6
DASHED
 62
     2
 10
-9.646317
 20
-91.834457
 40
5.000000
  0
CIRCLE
  8
0
 10
-9.646317
 20
-91.834457
 40
4.299998
  0
CIRCLE
  8
0
 10
-9.646317
 20
-91.834457
 40
6.999999
  0
CIRCLE
  8
0
 10
-29.646317
 20
-91.834457
 40
4.299998
  0
CIRCLE
  8
0
  6
DASHED
 62
     2
 10
-29.646317
 20
-91.834457
 40
5.000000
  0
CIRCLE
  8
0
 10
-29.646317
 20
-91.834457
 40
6.999999
  0
ARC
  8
0
 10
-49.646317
 20
-130.841599
 40
10.002337
 50
334.130249
 51
25.869755
  0
CIRCLE
  8
0
 10
219.353653
 20
54.808380
 40
10.000000
  0
CIRCLE
  8
0
 10
219.353653
 20
176.808380
 40
10.000000
  0
CIRCLE
  8
0
 10
195.353653
 20
55.808380
 40
1.499998
  0
CIRCLE
  8
0
 10
195.353653
 20
55.808380
 40
1.749999
  0
CIRCLE
  8
0
 10
219.353653
 20
115.808380
 40
20.000000
  0
CIRCLE
  8
0
 10
219.353653
 20
115.808380
 40
32.500000
  0
CIRCLE
  8
0
 62
     2
 10
241.353638
 20
43.808411
 40
5.000000
  0
CIRCLE
  8
0
 10
241.353638
 20
43.808411
 40
4.249999
  0
CIRCLE
  8
0
 62
     2
 10
241.353638
 20
187.808365
 40
5.000000
  0
CIRCLE
  8
0
 10
241.353638
 20
187.808365
 40
4.249999
  0
CIRCLE
  8
0
 62
     2
 10
197.353668
 20
43.808411
 40
5.000000
  0
CIRCLE
  8
0
 10
197.353668
 20
43.808411
 40
4.249999
  0
CIRCLE
  8
0
 62
     2
 10
197.353668
 20
187.808365
 40
5.000000
  0
CIRCLE
  8
0
 10
197.353668
 20
187.808365
 40
4.249999
  0
ARC
  8
0
 10
254.253647
 20
129.208374
 40
2.100006
 50
90.000000
 51
270.000000
  0
ARC
  8
0
 10
184.453659
 20
102.408379
 40
2.099998
 50
270.000000
 51
90.000000
  0
ARC
  8
0
 10
184.453659
 20
129.208374
 40
2.099998
 50
270.000000
 51
90.000000
  0
CIRCLE
  8
0
 10
219.353653
 20
176.808365
 40
14.000000
  0
CIRCLE
  8
0
 10
219.353653
 20
54.808395
 40
14.000000
  0
ARC
  8
0
 10
254.253647
 20
102.408379
 40
2.099998
 50
90.000000
 51
270.000000
  0
CIRCLE
  8
0
 10
-229.217773
 20
115.808380
 40
5.599998
  0
CIRCLE
  8
0
 10
-229.217773
 20
115.808380
 40
8.750000
  0
CIRCLE
  8
0
 10
-229.217773
 20
54.808380
 40
5.599998
  0
CIRCLE
  8
0
 10
-229.217773
 20
54.808380
 40
8.750000
  0
CIRCLE
  8
0
 10
-229.217773
 20
176.808365
 40
8.750000
  0
CIRCLE
  8
0
 10
-229.217773
 20
176.808365
 40
5.599998
  0
CIRCLE
  8
0
 62
     2
 10
-203.217758
 20
181.808365
 40
5.000000
  0
CIRCLE
  8
0
 10
-203.217758
 20
181.808365
 40
4.249999
  0
CIRCLE
  8
0
 62
     2
 10
-203.217758
 20
49.808395
 40
5.000000
  0
CIRCLE
  8
0
 10
-203.217758
 20
49.808395
 40
4.249999
  0
CIRCLE
  8
0
 62
     2
 10
-255.217758
 20
181.808365
 40
5.000000
  0
CIRCLE
  8
0
 10
-255.217758
 20
181.808365
 40
4.249999
  0
CIRCLE
  8
0
 10
-255.217758
 20
49.808395
 40
4.249999
  0
CIRCLE
  8
0
 62
     2
 10
-255.217758
 20
49.808395
 40
5.000000
  0
CIRCLE
  8
0
 10
-229.217773
 20
176.808365
 40
10.000000
  0
CIRCLE
  8
0
 10
-229.217773
 20
54.808380
 40
10.000000
  0
CIRCLE
  8
0
 10
-229.217773
 20
115.808380
 40
10.000000
  0
CIRCLE
  8
0
 10
14.353668
 20
115.808380
 40
1.099999
  0
CIRCLE
  8
0
 10
32.353668
 20
115.808380
 40
1.099999
  0
CIRCLE
  8
0
 10
23.353668
 20
115.808380
 40
15.000000
  0
CIRCLE
  8
0
 10
23.353668
 20
115.808380
 40
14.499999
  0
CIRCLE
  8
0
 10
-20.646317
 20
55.808380
 40
5.749999
  0
CIRCLE
  8
0
 62
     2
 10
-20.646317
 20
55.808380
 40
6.749999
  0
CIRCLE
  8
0
 10
35.353668
 20
55.808380
 40
5.749999
  0
CIRCLE
  8
0
 62
     2
 10
35.353668
 20
55.808380
 40
6.749999
  0
CIRCLE
  8
0
  6
DASHED
 62
     2
 10
-9.646317
 20
76.808380
 40
5.000000
  0
CIRCLE
  8
0
 10
-9.646317
 20
76.808380
 40
6.999999
  0
CIRCLE
  8
0
  6
DASHED
 62
     2
 10
-29.646317
 20
76.808380
 40
5.000000
  0
CIRCLE
  8
0
 10
-29.646317
 20
76.808380
 40
4.299998
  0
CIRCLE
  8
0
 10
-29.646317
 20
76.808380
 40
6.999999
  0
CIRCLE
  8
0
 10
-9.646317
 20
76.808380
 40
4.299998
  0
CIRCLE
  8
0
  6
DASHED
 62
     2
 10
-9.646317
 20
154.808380
 40
5.000000
  0
CIRCLE
  8
0
 10
-9.646317
 20
154.808380
 40
4.299998
  0
CIRCLE
  8
0
 10
-9.646317
 20
154.808380
 40
6.999999
  0
CIRCLE
  8
0
 10
-29.646317
 20
154.808380
 40
4.299998
  0
CIRCLE
  8
0
  6
DASHED
 62
     2
 10
-29.646317
 20
154.808380
 40
5.000000
  0
CIRCLE
  8
0
 10
-29.646317
 20
154.808380
 40
6.999999
  0
ARC
  8
0
 10
-49.646317
 20
115.801239
 40
10.002337
 50
334.130249
 51
25.869755
  0
TEXT
  8
0
 62
     3
 10
-9.938323
 20
-34.269047
 40
6.300000
  1
STRETCH LINE B
 50
0.000000
 41
1.052632
 51
0.000000
  7
STANDARD
  0
TEXT
  8
0
 62
     3
 10
-60.232208
 20
-18.435789
 40
6.300000
  1
STRETCH LINE A
 50
0.000000
 41
1.052632
 51
0.000000
  7
STANDARD
  0
TEXT
  8
0
 62
     3
 10
-9.938323
 20
217.730942
 40
6.300000
  1
STRETCH LINE B
 50
0.000000
 41
1.052632
 51
0.000000
  7
STANDARD
  0
TEXT
  8
0
 62
     3
 10
-60.232208
 20
233.564209
 40
6.300000
  1
STRETCH LINE A
 50
0.000000
 41
1.052632
 51
0.000000
  7
STANDARD
  0
TEXT
  8
0
 10
-264.714172
 20
-216.669998
 40
6.300000
  1
STRETCH LIST
 50
0.000000
 41
1.052632
 51
0.000000
  7
STANDARD
  0
TEXT
  8
0
 10
-86.364159
 20
-266.670013
 40
6.300000
  1
100
 50
0.000000
 41
1.052632
 51
0.000000
  7
STANDARD
  0
TEXT
  8
0
 10
-83.214157
 20
-256.670013
 40
6.300000
  1
90
 50
0.000000
 41
1.052632
 51
0.000000
  7
STANDARD
  0
TEXT
  8
0
 10
-86.364159
 20
-236.669998
 40
6.300000
  1
200
 50
0.000000
 41
1.052632
 51
0.000000
  7
STANDARD
  0
TEXT
  8
0
 10
-108.214157
 20
-266.670013
 40
6.300000
  1
75
 50
0.000000
 41
1.052632
 51
0.000000
  7
STANDARD
  0
TEXT
  8
0
 10
-108.214157
 20
-256.670013
 40
6.300000
  1
90
 50
0.000000
 41
1.052632
 51
0.000000
  7
STANDARD
  0
TEXT
  8
0
 10
-111.364159
 20
-236.669998
 40
6.300000
  1
175
 50
0.000000
 41
1.052632
 51
0.000000
  7
STANDARD
  0
TEXT
  8
0
 10
-133.214157
 20
-266.670013
 40
6.300000
  1
50
 50
0.000000
 41
1.052632
 51
0.000000
  7
STANDARD
  0
TEXT
  8
0
 10
-133.214157
 20
-256.670013
 40
6.300000
  1
90
 50
0.000000
 41
1.052632
 51
0.000000
  7
STANDARD
  0
TEXT
  8
0
 10
-136.364166
 20
-236.669998
 40
6.300000
  1
150
 50
0.000000
 41
1.052632
 51
0.000000
  7
STANDARD
  0
TEXT
  8
0
 10
-158.214157
 20
-266.670013
 40
6.300000
  1
25
 50
0.000000
 41
1.052632
 51
0.000000
  7
STANDARD
  0
TEXT
  8
0
 10
-158.214157
 20
-256.670013
 40
6.300000
  1
90
 50
0.000000
 41
1.052632
 51
0.000000
  7
STANDARD
  0
TEXT
  8
0
 10
-161.364166
 20
-236.669998
 40
6.300000
  1
125
 50
0.000000
 41
1.052632
 51
0.000000
  7
STANDARD
  0
TEXT
  8
0
 10
-183.214157
 20
-266.670013
 40
6.300000
  1
50
 50
0.000000
 41
1.052632
 51
0.000000
  7
STANDARD
  0
TEXT
  8
0
 10
-183.214157
 20
-256.670013
 40
6.300000
  1
40
 50
0.000000
 41
1.052632
 51
0.000000
  7
STANDARD
  0
TEXT
  8
0
 10
-186.364166
 20
-236.669998
 40
6.300000
  1
100
 50
0.000000
 41
1.052632
 51
0.000000
  7
STANDARD
  0
TEXT
  8
0
 10
-208.214157
 20
-266.670013
 40
6.300000
  1
25
 50
0.000000
 41
1.052632
 51
0.000000
  7
STANDARD
  0
TEXT
  8
0
 10
-208.214157
 20
-256.670013
 40
6.300000
  1
40
 50
0.000000
 41
1.052632
 51
0.000000
  7
STANDARD
  0
TEXT
  8
0
 10
-208.214157
 20
-236.669998
 40
6.300000
  1
75
 50
0.000000
 41
1.052632
 51
0.000000
  7
STANDARD
  0
TEXT
  8
0
 10
-230.064163
 20
-266.670013
 40
6.300000
  1
0
 50
0.000000
 41
1.052632
 51
0.000000
  7
STANDARD
  0
TEXT
  8
0
 10
-233.214157
 20
-256.670013
 40
6.300000
  1
40
 50
0.000000
 41
1.052632
 51
0.000000
  7
STANDARD
  0
TEXT
  8
0
 10
-233.214157
 20
-236.669998
 40
6.300000
  1
50
 50
0.000000
 41
1.052632
 51
0.000000
  7
STANDARD
  0
TEXT
  8
0
 10
-255.064163
 20
-266.670013
 40
6.300000
  1
0
 50
0.000000
 41
1.052632
 51
0.000000
  7
STANDARD
  0
TEXT
  8
0
 10
-258.214172
 20
-256.670013
 40
6.300000
  1
30
 50
0.000000
 41
1.052632
 51
0.000000
  7
STANDARD
  0
TEXT
  8
0
 10
-258.214172
 20
-236.669998
 40
6.300000
  1
40
 50
0.000000
 41
1.052632
 51
0.000000
  7
STANDARD
  0
TEXT
  8
0
 10
-280.064148
 20
-266.670013
 40
6.300000
  1
0
 50
0.000000
 41
1.052632
 51
0.000000
  7
STANDARD
  0
TEXT
  8
0
 10
-283.214172
 20
-256.670013
 40
6.300000
  1
20
 50
0.000000
 41
1.052632
 51
0.000000
  7
STANDARD
  0
TEXT
  8
0
 10
-283.214172
 20
-236.669998
 40
6.300000
  1
30
 50
0.000000
 41
1.052632
 51
0.000000
  7
STANDARD
  0
TEXT
  8
0
 10
-305.064148
 20
-266.670013
 40
6.300000
  1
0
 50
0.000000
 41
1.052632
 51
0.000000
  7
STANDARD
  0
TEXT
  8
0
 10
-308.214172
 20
-256.670013
 40
6.300000
  1
10
 50
0.000000
 41
1.052632
 51
0.000000
  7
STANDARD
  0
TEXT
  8
0
 10
-308.214172
 20
-236.669998
 40
6.300000
  1
20
 50
0.000000
 41
1.052632
 51
0.000000
  7
STANDARD
  0
TEXT
  8
0
 10
-330.064148
 20
-266.670013
 40
6.300000
  1
0
 50
0.000000
 41
1.052632
 51
0.000000
  7
STANDARD
  0
TEXT
  8
0
 10
-330.064148
 20
-256.670013
 40
6.300000
  1
0
 50
0.000000
 41
1.052632
 51
0.000000
  7
STANDARD
  0
TEXT
  8
0
 10
-333.214172
 20
-236.669998
 40
6.300000
  1
10
 50
0.000000
 41
1.052632
 51
0.000000
  7
STANDARD
  0
TEXT
  8
0
 10
-388.464172
 20
-234.976242
 40
6.300000
  1
STRETCH
 50
0.000000
 41
1.052632
 51
0.000000
  7
STANDARD
  0
TEXT
  8
0
 10
-388.464172
 20
-245.213745
 40
6.300000
  1
  PLACE
 50
0.000000
 41
1.052632
 51
0.000000
  7
STANDARD
  0
TEXT
  8
0
 10
-383.314148
 20
-226.669998
 40
6.300000
  1
STROKE
 50
0.000000
 41
1.052632
 51
0.000000
  7
STANDARD
  0
TEXT
  8
0
 10
-367.564148
 20
-266.670013
 40
6.300000
  1
B
 50
0.000000
 41
1.052632
 51
0.000000
  7
STANDARD
  0
TEXT
  8
0
 10
-367.564148
 20
-256.670013
 40
6.300000
  1
A
 50
0.000000
 41
1.052632
 51
0.000000
  7
STANDARD
  0
TEXT
  8
0
 10
-89.514160
 20
-216.669998
 40
6.300000
  1
（ｍｍ）
 50
0.000000
 41
0.833333
 51
0.000000
  7
STANDARD
  0
TEXT
  8
0
 10
242.014633
 20
-274.500000
 40
12.500000
  1
KOGANEI CORP.
 50
0.000000
 41
1.052632
 51
0.000000
  7
STANDARD
  0
TEXT
  8
0
 10
282.764496
 20
256.649994
 40
9.000000
  1
Ｖｅｒ．　１．０
 50
0.000000
 41
0.833333
 51
0.000000
  7
STANDARD
  0
TEXT
  8
0
 10
-392.354553
 20
256.649994
 40
9.000000
  1
JIG CYLINDER WITH GUIDE
 50
0.000000
 41
0.937799
 51
0.000000
  7
STANDARD
  0
TEXT
  8
0
 10
-330.785309
 20
212.149994
 40
9.000000
  1
SGDAKQ63*ST(10)-RL
 50
0.000000
 41
1.052632
 51
0.000000
  7
STANDARD
  0
TEXT
  8
0
 10
-384.785309
 20
224.149994
 40
9.000000
  1
MODEL:SGDAKQ63*ST(10)-HL
 50
0.000000
 41
1.052632
 51
0.000000
  7
STANDARD
  0
TEXT
  8
0
 62
     2
 10
82.235687
 20
8.381574
 40
3.200000
  1
STROKE:75-200
 50
0.000000
 41
1.052632
 51
0.000000
  7
STANDARD
  0
LINE
  8
0
 62
     2
 10
58.353653
 20
7.381574
 11
123.585693
 21
7.381574
  0
LINE
  8
0
 62
     2
 10
58.353653
 20
7.381574
 11
49.353653
 21
7.381574
  0
LINE
  8
0
 62
     2
 10
58.353653
 20
7.381574
 11
61.251431
 21
8.158031
  0
LINE
  8
0
 62
     2
 10
58.353653
 20
7.381574
 11
61.251431
 21
6.605116
  0
LINE
  8
0
 62
     2
 10
58.353653
 20
7.381574
 11
64.353653
 21
7.381574
  0
LINE
  8
0
 62
     2
 10
49.353653
 20
7.381574
 11
46.455875
 21
6.605116
  0
LINE
  8
0
 62
     2
 10
49.353653
 20
7.381574
 11
46.455875
 21
8.158031
  0
LINE
  8
0
 62
     2
 10
49.353653
 20
7.381574
 11
43.353653
 21
7.381574
  0
LINE
  8
0
 62
     2
 10
58.353653
 20
45.308380
 11
58.353653
 21
5.881574
  0
LINE
  8
0
 62
     2
 10
49.353653
 20
35.308380
 11
49.353653
 21
5.881574
  0
ENDSEC
  0
EOF
