  0
SECTION
  2
HEADER
  0
ENDSEC
  0
SECTION
  2
TABLES
  0
TABLE
  2
LTYPE
 70
     4
  0
LTYPE
  2
CONTINUOUS
 70
    64
  3
Solid line
 72
    65
 73
     0
 40
0.000000
  0
LTYPE
  2
DASHED
 70
    64
  3
__ __ __ __ __ __ __ __ __ __ __ __ __ __ __
 72
    65
 73
     2
 40
3.500000
 49
2.000000
 49
-1.500000
  0
LTYPE
  2
CENTER
 70
    64
  3
____ _ ____ _ ____ _ ____ _ ____ _ ____ _ ____
 72
    65
 73
     4
 40
17.500000
 49
13.000000
 49
-1.500000
 49
1.500000
 49
-1.500000
  0
LTYPE
  2
PHANTOM
 70
    64
  3
_____ _ _ _____ _ _ _____ _ _ _____ _ _ ____  
 72
    65
 73
     6
 40
15.500000
 49
8.000000
 49
-1.500000
 49
1.500000
 49
-1.500000
 49
1.500000
 49
-1.500000
  0
LTYPE
  2
DASHED1
 70
    64
  3
__ __ __ __ __ __ __ __ __ __ __ __ __ __ __
 72
    65
 73
     2
 40
1.500000
 49
1.000000
 49
-0.500000
  0
LTYPE
  2
DASHED2
 70
    64
  3
__ __ __ __ __ __ __ __ __ __ __ __ __ __ __
 72
    65
 73
     2
 40
3.500000
 49
2.500000
 49
-1.000000
  0
LTYPE
  2
DASHED3
 70
    64
  3
__ __ __ __ __ __ __ __ __ __ __ __ __ __ __
 72
    65
 73
     2
 40
6.000000
 49
4.000000
 49
-2.000000
  0
LTYPE
  2
DASHED4
 70
    64
  3
__ __ __ __ __ __ __ __ __ __ __ __ __ __ __
 72
    65
 73
     2
 40
12.000000
 49
10.000000
 49
-2.000000
  0
LTYPE
  2
DASHED5
 70
    64
  3
__ __ __ __ __ __ __ __ __ __ __ __ __ __ __
 72
    65
 73
     2
 40
17.000000
 49
15.000000
 49
-2.000000
  0
LTYPE
  2
DASHED6
 70
    64
  3
__ __ __ __ __ __ __ __ __ __ __ __ __ __ __
 72
    65
 73
     2
 40
29.000000
 49
27.000000
 49
-2.000000
  0
LTYPE
  2
PHANTOM1
 70
    64
  3
_____ _ _ _____ _ _ _____ _ _ _____ _ _ ____  
 72
    65
 73
     6
 40
31.000000
 49
25.000000
 49
-1.500000
 49
1.000000
 49
-1.000000
 49
1.000000
 49
-1.500000
  0
LTYPE
  2
PHANTOM2
 70
    64
  3
_____ _ _ _____ _ _ _____ _ _ _____ _ _ ____  
 72
    65
 73
     6
 40
36.000000
 49
27.000000
 49
-1.500000
 49
2.500000
 49
-1.000000
 49
2.500000
 49
-1.500000
  0
LTYPE
  2
PHANTOM3
 70
    64
  3
_____ _ _ _____ _ _ _____ _ _ _____ _ _ ____  
 72
    65
 73
     6
 40
78.000000
 49
64.000000
 49
-2.000000
 49
4.000000
 49
-2.000000
 49
4.000000
 49
-2.000000
  0
LTYPE
  2
CENTER1
 70
    64
  3
____ _ ____ _ ____ _ ____ _ ____ _ ____ _ ____
 72
    65
 73
     4
 40
19.000000
 49
14.000000
 49
-1.000000
 49
3.000000
 49
-1.000000
  0
LTYPE
  2
CENTER2
 70
    64
  3
____ _ ____ _ ____ _ ____ _ ____ _ ____ _ ____
 72
    65
 73
     4
 40
28.500000
 49
25.000000
 49
-1.000000
 49
1.500000
 49
-1.000000
  0
LTYPE
  2
CENTER3
 70
    64
  3
____ _ ____ _ ____ _ ____ _ ____ _ ____ _ ____
 72
    65
 73
     4
 40
31.500000
 49
27.000000
 49
-1.000000
 49
2.500000
 49
-1.000000
  0
LTYPE
  2
CENTER4
 70
    64
  3
____ _ ____ _ ____ _ ____ _ ____ _ ____ _ ____
 72
    65
 73
     4
 40
50.000000
 49
45.000000
 49
-1.000000
 49
3.000000
 49
-1.000000
  0
LTYPE
  2
CENTER5
 70
    64
  3
____ _ ____ _ ____ _ ____ _ ____ _ ____ _ ____
 72
    65
 73
     4
 40
100.000000
 49
92.000000
 49
-2.000000
 49
4.000000
 49
-2.000000
  0
LTYPE
  2
SBK1
 70
    64
  3
______ _ _ _ ______ _ _ _ ______ _ _ _ _____  
 72
    65
 73
     8
 40
60.500000
 49
45.000000
 49
-2.000000
 49
2.500000
 49
-2.000000
 49
2.500000
 49
-2.000000
 49
2.500000
 49
-2.000000
  0
LTYPE
  2
SBK2
 70
    64
  3
______ _ _ _ ______ _ _ _ ______ _ _ _ _____  
 72
    65
 73
     8
 40
84.000000
 49
64.000000
 49
-2.000000
 49
4.000000
 49
-2.000000
 49
4.000000
 49
-2.000000
 49
4.000000
 49
-2.000000
  0
LTYPE
  2
STCH
 70
    64
  3
__ __ __ __ __ __ __ __ __ __ __ __ __ __ __
 72
    65
 73
     2
 40
3.000000
 49
1.000000
 49
-2.000000
  0
LTYPE
  2
MTCH
 70
    64
  3
_____ _ _ _____ _ _ _____ _ _ _____ _ _ ____  
 72
    65
 73
     6
 40
80.000000
 49
66.000000
 49
-2.000000
 49
4.000000
 49
-2.000000
 49
4.000000
 49
-2.000000
  0
ENDTAB
  0
TABLE
  2
LAYER
 70
     1
  0
LAYER
  2
0
 70
     0
 62
     7
  6
CONTINUOUS
  0
ENDTAB
  0
TABLE
  2
STYLE
 70
     1
  0
STYLE
  2
STANDARD
 70
     0
 40
0.000000
 41
1.000000
 50
0.000000
 71
     0
 42
0.200000
  3
txt
  4
BIGFONT
  0
ENDTAB
  0
TABLE
  2
VIEW
 70
     0
  0
ENDTAB
  0
ENDSEC
  0
SECTION
  2
BLOCKS
  0
ENDSEC
  0
SECTION
  2
ENTITIES
  0
LINE
  8
0
  6
DASHED
 62
     2
 10
15.500000
 20
45.000000
 11
15.500000
 21
37.000000
  0
LINE
  8
0
 10
40.025234
 20
24.618790
 11
40.700039
 21
23.449993
  0
LINE
  8
0
  6
CENTER
 62
     2
 10
-46.212868
 20
-1.000000
 11
-32.589844
 21
-1.000000
  0
LINE
  8
0
 10
-36.999985
 20
-7.500030
 11
-37.499966
 21
-8.000018
  0
LINE
  8
0
 10
-44.999977
 20
-7.499981
 11
-44.499977
 21
-7.999982
  0
LINE
  8
0
 10
-37.000011
 20
20.829107
 11
-35.500034
 21
18.341677
  0
LINE
  8
0
 10
-37.000057
 20
19.170855
 11
-35.500034
 21
21.658365
  0
LINE
  8
0
 10
-37.000000
 20
18.341690
 11
-35.500000
 21
18.341690
  0
LINE
  8
0
 10
-35.500000
 20
21.658340
 11
-35.500000
 21
18.341690
  0
LINE
  8
0
 10
0.499971
 20
49.000004
 11
0.999972
 21
48.500004
  0
LINE
  8
0
 10
-33.499992
 20
48.999985
 11
-33.999992
 21
48.499985
  0
LINE
  8
0
 10
-45.000000
 20
-7.500000
 11
-45.000000
 21
47.499954
  0
LINE
  8
0
 10
-37.000000
 20
-7.500000
 11
-37.000000
 21
47.500031
  0
LINE
  8
0
 10
-44.500000
 20
-8.000000
 11
-37.499992
 21
-8.000000
  0
LINE
  8
0
 10
-37.000000
 20
3.000000
 11
-34.000000
 21
3.000000
  0
LINE
  8
0
 10
-37.000000
 20
17.000000
 11
-34.000000
 21
17.000000
  0
LINE
  8
0
 10
-37.000000
 20
23.000000
 11
-34.000000
 21
23.000000
  0
LINE
  8
0
  6
CENTER
 62
     2
 10
-46.559219
 20
41.000000
 11
-32.820744
 21
41.000000
  0
LINE
  8
0
 10
-33.500000
 20
49.000000
 11
0.500000
 21
49.000000
  0
LINE
  8
0
 10
-37.000000
 20
-5.000000
 11
-34.000000
 21
-5.000000
  0
LINE
  8
0
 10
-34.000000
 20
48.500000
 11
-34.000000
 21
-8.499954
  0
LINE
  8
0
  6
CENTER
 62
     2
 10
-46.674667
 20
20.000000
 11
46.174995
 21
20.000000
  0
LINE
  8
0
 10
1.000000
 20
26.000000
 11
7.000000
 21
26.000000
  0
LINE
  8
0
 10
1.000000
 20
14.000000
 11
7.000000
 21
14.000000
  0
LINE
  8
0
 10
7.599998
 20
28.650003
 11
7.599998
 21
33.349998
  0
LINE
  8
0
 10
37.374802
 20
24.618809
 11
40.025192
 21
24.618809
  0
LINE
  8
0
 62
     2
 10
40.699997
 20
17.900002
 11
42.400002
 21
17.900002
  0
LINE
  8
0
 10
42.499989
 20
17.999990
 11
41.999989
 21
17.499992
  0
LINE
  8
0
 10
40.699997
 20
17.500000
 11
42.000000
 21
17.500000
  0
LINE
  8
0
 10
36.700027
 20
16.549999
 11
37.374832
 21
15.381202
  0
LINE
  8
0
 10
37.374802
 20
17.690601
 11
40.025192
 21
17.690601
  0
LINE
  8
0
 10
18.250000
 20
13.000000
 11
26.699997
 21
13.000000
  0
LINE
  8
0
 10
36.074829
 20
11.917095
 11
36.700043
 21
12.999999
  0
LINE
  8
0
 10
26.699997
 20
11.917099
 11
36.074783
 21
11.917099
  0
LINE
  8
0
 10
26.699997
 20
15.958549
 11
36.074783
 21
15.958549
  0
LINE
  8
0
 10
42.500000
 20
22.000004
 11
42.500000
 21
18.000000
  0
LINE
  8
0
 10
42.000000
 20
22.500000
 11
42.000000
 21
17.500000
  0
LINE
  8
0
 62
     2
 10
40.699997
 20
22.099998
 11
42.400009
 21
22.099998
  0
LINE
  8
0
 10
42.500000
 20
22.000004
 11
42.000000
 21
22.500006
  0
LINE
  8
0
 10
40.699997
 20
22.500000
 11
42.000000
 21
22.500000
  0
LINE
  8
0
 10
40.699997
 20
23.450001
 11
40.699997
 21
16.549999
  0
LINE
  8
0
 10
36.700027
 20
23.450001
 11
37.374832
 21
24.618797
  0
LINE
  8
0
 10
40.025219
 20
15.381213
 11
40.700024
 21
16.550009
  0
LINE
  8
0
 10
37.374802
 20
15.381203
 11
40.025192
 21
15.381203
  0
LINE
  8
0
 10
37.374802
 20
22.309399
 11
40.025192
 21
22.309399
  0
LINE
  8
0
 10
-37.000000
 20
21.658340
 11
-35.500000
 21
21.658340
  0
LINE
  8
0
 10
-34.000000
 20
24.849976
 11
1.000000
 21
24.849976
  0
LINE
  8
0
 10
-34.000000
 20
21.649994
 11
1.000000
 21
21.649994
  0
LINE
  8
0
 10
-34.000000
 20
48.000000
 11
1.000000
 21
48.000000
  0
LINE
  8
0
 10
18.250000
 20
27.000000
 11
26.649994
 21
27.000000
  0
LINE
  8
0
 10
36.074825
 20
28.082905
 11
36.700039
 21
27.000004
  0
LINE
  8
0
 10
26.699997
 20
28.082901
 11
36.074783
 21
28.082901
  0
LINE
  8
0
 10
26.699997
 20
24.041451
 11
36.074783
 21
24.041451
  0
LINE
  8
0
  6
CENTER
 62
     2
 10
-34.000000
 20
31.000000
 11
-23.645687
 21
31.000000
  0
LINE
  8
0
 10
36.699997
 20
27.000050
 11
36.699997
 21
13.000000
  0
LINE
  8
0
 10
18.250000
 20
27.000000
 11
18.250000
 21
13.000000
  0
LINE
  8
0
 10
17.000000
 20
25.250000
 11
17.000000
 21
14.750000
  0
LINE
  8
0
 10
7.000000
 20
36.000000
 11
7.000000
 21
4.000000
  0
LINE
  8
0
 10
7.000000
 20
17.000000
 11
17.000000
 21
17.000000
  0
LINE
  8
0
 10
1.000000
 20
36.000000
 11
7.000000
 21
36.000000
  0
LINE
  8
0
 10
1.000000
 20
4.000000
 11
7.000000
 21
4.000000
  0
LINE
  8
0
 10
7.000000
 20
23.000000
 11
17.000000
 21
23.000000
  0
LINE
  8
0
  6
CENTER
 62
     2
 10
-14.000000
 20
35.915009
 11
-14.000000
 21
26.257462
  0
LINE
  8
0
  6
CENTER
 62
     2
 10
-19.210596
 20
31.000000
 11
-9.101765
 21
31.000000
  0
LINE
  8
0
  6
CENTER
 62
     2
 10
-29.000000
 20
36.005264
 11
-29.000000
 21
26.167206
  0
LINE
  8
0
 10
0.999996
 20
48.500000
 11
0.999996
 21
-8.500000
  0
LINE
  8
0
 10
-34.000000
 20
40.149994
 11
1.000000
 21
40.149994
  0
LINE
  8
0
 10
-34.000000
 20
36.850006
 11
1.000000
 21
36.850006
  0
LINE
  8
0
  6
DASHED
 62
     2
 10
16.000000
 20
2.500000
 11
16.000000
 21
-4.500000
  0
LINE
  8
0
  6
DASHED
 62
     2
 10
1.000000
 20
-5.000000
 11
15.500000
 21
-5.000000
  0
LINE
  8
0
  6
DASHED
 62
     2
 10
1.000000
 20
3.000000
 11
15.500000
 21
3.000000
  0
LINE
  8
0
  6
DASHED
 62
     2
 10
15.499993
 20
2.999996
 11
15.999995
 21
2.499995
  0
LINE
  8
0
  6
DASHED
 62
     2
 10
16.000000
 20
-4.500001
 11
15.499999
 21
-5.000001
  0
LINE
  8
0
  6
DASHED
 62
     2
 10
15.500000
 20
3.000000
 11
15.500000
 21
-5.000000
  0
LINE
  8
0
  6
DASHED
 62
     2
 10
16.000000
 20
44.500000
 11
16.000000
 21
37.500000
  0
LINE
  8
0
  6
DASHED
 62
     2
 10
1.000000
 20
37.000000
 11
15.500000
 21
37.000000
  0
LINE
  8
0
  6
DASHED
 62
     2
 10
1.000000
 20
45.000000
 11
15.500000
 21
45.000000
  0
LINE
  8
0
  6
DASHED
 62
     2
 10
15.500003
 20
45.000000
 11
16.000002
 21
44.500000
  0
LINE
  8
0
  6
DASHED
 62
     2
 10
15.999998
 20
37.500000
 11
15.499997
 21
37.000000
  0
LINE
  8
0
 10
-36.999962
 20
47.500038
 11
-37.499950
 21
48.000034
  0
LINE
  8
0
 10
-44.500000
 20
48.000000
 11
-37.499992
 21
48.000000
  0
LINE
  8
0
 10
-44.999973
 20
47.499981
 11
-44.499977
 21
47.999977
  0
LINE
  8
0
 10
-37.000000
 20
45.000000
 11
-34.000000
 21
45.000000
  0
LINE
  8
0
 10
-37.000000
 20
37.000000
 11
-34.000000
 21
37.000000
  0
LINE
  8
0
 10
-34.000000
 20
18.350006
 11
1.000000
 21
18.350006
  0
LINE
  8
0
 10
-34.000000
 20
15.150024
 11
1.000000
 21
15.150024
  0
LINE
  8
0
  6
CENTER
 62
     2
 10
-24.000000
 20
6.293751
 11
-24.000000
 21
-0.644440
  0
LINE
  8
0
  6
DASHED
 62
     2
 10
-27.000000
 20
-7.209515
 11
-27.000000
 21
-9.000000
  0
LINE
  8
0
  6
DASHED
 62
     2
 10
-23.000000
 20
-7.209515
 11
-23.000000
 21
-9.000000
  0
LINE
  8
0
  6
DASHED
 62
     2
 10
-22.500000
 20
-7.209515
 11
-22.500000
 21
-9.000000
  0
LINE
  8
0
  6
DASHED
 62
     2
 10
-27.500000
 20
-7.209515
 11
-27.500000
 21
-9.000000
  0
LINE
  8
0
  6
DASHED
 62
     2
 10
-15.000000
 20
-7.209515
 11
-15.000000
 21
-9.000000
  0
LINE
  8
0
  6
DASHED
 62
     2
 10
-11.000000
 20
-7.209515
 11
-11.000000
 21
-9.000000
  0
LINE
  8
0
  6
DASHED
 62
     2
 10
-10.500000
 20
-7.209515
 11
-10.500000
 21
-9.000000
  0
LINE
  8
0
  6
DASHED
 62
     2
 10
-15.500000
 20
-7.209515
 11
-15.500000
 21
-9.000000
  0
LINE
  8
0
  6
CENTER
 62
     2
 10
-5.000000
 20
6.385923
 11
-5.000000
 21
-0.541187
  0
LINE
  8
0
  6
CENTER
 62
     2
 10
-27.676819
 20
3.000000
 11
-20.803162
 21
3.000000
  0
LINE
  8
0
  6
CENTER
 62
     2
 10
-8.147419
 20
3.000000
 11
-1.544624
 21
3.000000
  0
LINE
  8
0
 10
-34.000000
 20
-4.193909
 11
1.000000
 21
-4.193909
  0
LINE
  8
0
 10
-34.000000
 20
-6.932709
 11
1.000000
 21
-6.932709
  0
LINE
  8
0
 10
-34.000000
 20
-8.000000
 11
1.000000
 21
-8.000000
  0
LINE
  8
0
 10
-33.500000
 20
-9.000000
 11
0.500000
 21
-9.000000
  0
LINE
  8
0
  6
CENTER
 62
     2
 10
-34.000000
 20
9.000000
 11
-24.268295
 21
9.000000
  0
LINE
  8
0
  6
CENTER
 62
     2
 10
-29.000000
 20
14.243683
 11
-29.000000
 21
3.934479
  0
LINE
  8
0
  6
CENTER
 62
     2
 10
-8.705860
 20
9.000000
 11
-19.324692
 21
9.000000
  0
LINE
  8
0
  6
CENTER
 62
     2
 10
-14.000000
 20
13.775604
 11
-14.000000
 21
3.793274
  0
LINE
  8
0
 10
-33.999977
 20
-8.499977
 11
-33.499977
 21
-8.999977
  0
LINE
  8
0
 10
1.000005
 20
-8.499994
 11
0.500005
 21
-8.999995
  0
LINE
  8
0
  6
CENTER
 62
     2
 10
-25.000000
 20
-6.518221
 11
-25.000000
 21
-9.699860
  0
LINE
  8
0
 10
7.599998
 20
11.349997
 11
7.599998
 21
6.650002
  0
LINE
  8
0
  6
PHANTOM
 62
     3
 10
-19.500000
 20
64.000000
 11
-19.500000
 21
-14.000000
  0
LINE
  8
0
  6
PHANTOM
 62
     3
 10
-17.000000
 20
1.000000
 11
-17.000000
 21
-14.000000
  0
LINE
  8
0
  6
PHANTOM
 62
     3
 10
-17.000000
 20
1.000000
 11
-8.500000
 21
1.000000
  0
LINE
  8
0
  6
PHANTOM
 62
     3
 10
-8.500000
 20
57.000000
 11
-8.500000
 21
1.000000
  0
LINE
  8
0
  6
CENTER
 62
     2
 10
-13.000000
 20
-6.518221
 11
-13.000000
 21
-9.699860
  0
LINE
  8
0
 10
17.000000
 20
25.250000
 11
18.250000
 21
25.250000
  0
LINE
  8
0
 10
17.000000
 20
14.750000
 11
18.250000
 21
14.750000
  0
LINE
  8
0
 10
26.699997
 20
28.082901
 11
26.699997
 21
11.917099
  0
LINE
  8
0
 10
-34.000000
 20
-2.000000
 11
0.999996
 21
-2.000000
  0
LINE
  8
0
 10
-34.000000
 20
26.000000
 11
0.999996
 21
26.000000
  0
LINE
  8
0
 10
-34.000000
 20
14.000000
 11
0.999996
 21
14.000000
  0
LINE
  8
0
 62
     2
 10
-126.081955
 20
20.000000
 11
-132.717438
 21
20.000000
  0
LINE
  8
0
 10
-122.000031
 20
48.999985
 11
-148.000031
 21
48.999985
  0
LINE
  8
0
 10
-122.000031
 20
-9.000000
 11
-148.000031
 21
-9.000000
  0
LINE
  8
0
 10
-149.000015
 20
-8.000000
 11
-149.000015
 21
-1.149994
  0
LINE
  8
0
 10
-147.999985
 20
-9.000017
 11
-148.999985
 21
-8.000015
  0
LINE
  8
0
 10
-149.000015
 20
47.999981
 11
-148.000015
 21
48.999981
  0
LINE
  8
0
 10
-122.000000
 20
49.000057
 11
-121.000000
 21
48.000053
  0
LINE
  8
0
 10
-121.000031
 20
40.650002
 11
-121.000031
 21
47.999985
  0
LINE
  8
0
 10
-148.500031
 20
36.350006
 11
-146.500031
 21
36.350006
  0
LINE
  8
0
 10
-148.500031
 20
40.649994
 11
-146.500031
 21
40.649994
  0
LINE
  8
0
 10
-146.500031
 20
42.149994
 11
-146.000000
 21
42.149994
  0
LINE
  8
0
 10
-146.500015
 20
34.850006
 11
-146.000000
 21
34.850006
  0
LINE
  8
0
 10
-149.000015
 20
4.149994
 11
-149.000015
 21
13.500000
  0
LINE
  8
0
 10
-149.000015
 20
41.149994
 11
-149.000015
 21
47.999985
  0
LINE
  8
0
 10
-147.000015
 20
18.799988
 11
-147.000015
 21
21.200012
  0
LINE
  8
0
 10
-146.700027
 20
24.700012
 11
-146.500031
 21
24.700012
  0
LINE
  8
0
 10
-146.700027
 20
21.500000
 11
-146.500031
 21
21.500000
  0
LINE
  8
0
 10
-145.999985
 20
21.000029
 11
-146.499969
 21
21.500021
  0
LINE
  8
0
 10
-146.500076
 20
24.700027
 11
-146.000076
 21
25.200027
  0
LINE
  8
0
 10
-147.000015
 20
25.000000
 11
-147.000015
 21
26.000000
  0
LINE
  8
0
 10
-146.700027
 20
15.299988
 11
-146.500031
 21
15.299988
  0
LINE
  8
0
 10
-146.700027
 20
18.500000
 11
-146.500031
 21
18.500000
  0
LINE
  8
0
 10
-146.000061
 20
19.000053
 11
-146.500061
 21
18.500051
  0
LINE
  8
0
 10
-146.500031
 20
15.300029
 11
-146.000046
 21
14.800041
  0
LINE
  8
0
 10
-147.000015
 20
15.000000
 11
-147.000015
 21
14.000000
  0
LINE
  8
0
 10
-148.500031
 20
26.000000
 11
-147.000031
 21
26.000000
  0
LINE
  8
0
 10
-148.500031
 20
14.000000
 11
-147.000031
 21
14.000000
  0
LINE
  8
0
 10
-149.000015
 20
26.500000
 11
-149.000015
 21
35.850006
  0
LINE
  8
0
 10
-146.500015
 20
34.850006
 11
-146.500015
 21
36.350006
  0
LINE
  8
0
 10
-146.500015
 20
40.649994
 11
-146.500015
 21
42.149994
  0
LINE
  8
0
 10
-146.500015
 20
-0.649994
 11
-146.500015
 21
-2.149994
  0
LINE
  8
0
 10
-148.500031
 20
3.649994
 11
-146.500031
 21
3.649994
  0
LINE
  8
0
 10
-148.500031
 20
-0.649994
 11
-146.500031
 21
-0.649994
  0
LINE
  8
0
 10
-146.500031
 20
-2.149994
 11
-146.000000
 21
-2.149994
  0
LINE
  8
0
 10
-146.500031
 20
5.149994
 11
-146.000000
 21
5.149994
  0
LINE
  8
0
 10
-146.500015
 20
5.149994
 11
-146.500015
 21
3.649994
  0
LINE
  8
0
 10
-122.500031
 20
35.599998
 11
-122.500031
 21
36.849998
  0
LINE
  8
0
 10
-122.500031
 20
40.150002
 11
-122.500031
 21
41.400002
  0
LINE
  8
0
 10
-123.000031
 20
18.799988
 11
-123.000031
 21
21.200012
  0
LINE
  8
0
 10
-123.300034
 20
24.700012
 11
-123.500031
 21
24.700012
  0
LINE
  8
0
 10
-123.300034
 20
21.500000
 11
-123.500031
 21
21.500000
  0
LINE
  8
0
 10
-124.000099
 20
21.000036
 11
-123.500114
 21
21.500027
  0
LINE
  8
0
 10
-123.500008
 20
24.700071
 11
-124.000008
 21
25.200071
  0
LINE
  8
0
 10
-123.000031
 20
25.000000
 11
-123.000031
 21
26.000000
  0
LINE
  8
0
 10
-123.300034
 20
15.299988
 11
-123.500031
 21
15.299988
  0
LINE
  8
0
 10
-123.300034
 20
18.500000
 11
-123.500031
 21
18.500000
  0
LINE
  8
0
 10
-124.000000
 20
19.000078
 11
-123.499985
 21
18.500069
  0
LINE
  8
0
 10
-123.500069
 20
15.299983
 11
-124.000069
 21
14.799988
  0
LINE
  8
0
 10
-123.000031
 20
15.000000
 11
-123.000031
 21
14.000000
  0
LINE
  8
0
 10
-121.500031
 20
26.000000
 11
-123.000031
 21
26.000000
  0
LINE
  8
0
 10
-121.500031
 20
14.000000
 11
-123.000031
 21
14.000000
  0
LINE
  8
0
 10
-121.000031
 20
26.500000
 11
-121.000031
 21
36.349998
  0
LINE
  8
0
 10
-121.000031
 20
-1.999931
 11
-121.000031
 21
13.500000
  0
LINE
  8
0
 10
-123.349045
 20
-3.971058
 11
-121.000008
 21
-1.999979
  0
LINE
  8
0
 10
-121.000038
 20
-6.770484
 11
-123.349075
 21
-3.971015
  0
LINE
  8
0
 10
-121.000031
 20
-8.000008
 11
-121.000031
 21
-6.770485
  0
LINE
  8
0
 10
-122.000046
 20
-8.999975
 11
-121.042274
 21
-8.042205
  0
LINE
  8
0
  6
CENTER
 62
     2
 10
-147.739960
 20
20.000000
 11
-122.349335
 21
20.000000
  0
LINE
  8
0
  6
CENTER
 62
     2
 10
-135.000000
 20
49.688095
 11
-135.000000
 21
-9.739683
  0
LINE
  8
0
 10
-144.999985
 20
47.999981
 11
-145.999985
 21
46.999985
  0
LINE
  8
0
 10
-124.999985
 20
48.000004
 11
-123.999985
 21
47.000000
  0
LINE
  8
0
 10
-124.000008
 20
-7.000000
 11
-125.000000
 21
-7.999997
  0
LINE
  8
0
 10
-146.000000
 20
-7.000003
 11
-145.000000
 21
-7.999997
  0
LINE
  8
0
 10
-146.000000
 20
46.999996
 11
-146.000000
 21
-7.000002
  0
LINE
  8
0
 10
-124.000000
 20
46.999989
 11
-124.000000
 21
-6.999996
  0
LINE
  8
0
 10
-145.000000
 20
-7.999998
 11
-125.000000
 21
-7.999998
  0
LINE
  8
0
 10
-145.000000
 20
47.999996
 11
-125.000000
 21
47.999996
  0
LINE
  8
0
  6
CENTER
 62
     2
 10
-145.211716
 20
44.000000
 11
-138.584320
 21
44.000000
  0
LINE
  8
0
  6
CENTER
 62
     2
 10
-142.000000
 20
-1.015022
 11
-142.000000
 21
-6.887241
  0
LINE
  8
0
  6
CENTER
 62
     2
 10
-128.000000
 20
-0.804045
 11
-128.000000
 21
-6.887241
  0
LINE
  8
0
  6
CENTER
 62
     2
 10
-145.352722
 20
-4.000000
 11
-139.007339
 21
-4.000000
  0
LINE
  8
0
 10
-136.250000
 20
41.721687
 11
-136.250000
 21
40.278313
  0
LINE
  8
0
 10
-135.000000
 20
39.556625
 11
-136.250000
 21
40.278313
  0
LINE
  8
0
 10
-133.750000
 20
40.278313
 11
-135.000000
 21
39.556625
  0
LINE
  8
0
 10
-133.750000
 20
41.721687
 11
-133.750000
 21
40.278313
  0
LINE
  8
0
 10
-135.000000
 20
42.443378
 11
-133.749985
 21
41.721684
  0
LINE
  8
0
 10
-134.999985
 20
42.443367
 11
-136.249985
 21
41.721680
  0
LINE
  8
0
 10
-136.250000
 20
20.721687
 11
-136.250000
 21
19.278313
  0
LINE
  8
0
 10
-135.000000
 20
18.556622
 11
-136.250000
 21
19.278309
  0
LINE
  8
0
 10
-133.749985
 20
19.278320
 11
-134.999985
 21
18.556633
  0
LINE
  8
0
 10
-133.750000
 20
20.721687
 11
-133.750000
 21
19.278313
  0
LINE
  8
0
 10
-134.999985
 20
21.443378
 11
-133.749985
 21
20.721682
  0
LINE
  8
0
 10
-134.999985
 20
21.443357
 11
-136.249985
 21
20.721672
  0
LINE
  8
0
  6
CENTER
 62
     2
 10
-140.248413
 20
-1.000000
 11
-129.418213
 21
-1.000000
  0
LINE
  8
0
  6
CENTER
 62
     2
 10
-131.106033
 20
-4.000000
 11
-124.847031
 21
-4.000000
  0
LINE
  8
0
  6
CENTER
 62
     2
 10
-140.015015
 20
41.000000
 11
-130.005096
 21
41.000000
  0
LINE
  8
0
  6
CENTER
 62
     2
 10
-130.953003
 20
44.000000
 11
-125.000137
 21
44.000000
  0
LINE
  8
0
  6
CENTER
 62
     2
 10
-128.000000
 20
46.973804
 11
-128.000000
 21
41.096767
  0
LINE
  8
0
  6
CENTER
 62
     2
 10
-142.000000
 20
46.897968
 11
-142.000000
 21
41.096767
  0
LINE
  8
0
 10
-121.500031
 20
36.849998
 11
-122.500031
 21
36.849998
  0
LINE
  8
0
 10
-121.500031
 20
40.150002
 11
-122.500031
 21
40.150002
  0
LINE
  8
0
 10
-122.500031
 20
41.400002
 11
-124.000000
 21
41.400002
  0
LINE
  8
0
 10
-122.500031
 20
35.599998
 11
-124.000000
 21
35.599998
  0
LINE
  8
0
 10
-134.999985
 20
0.443367
 11
-136.249985
 21
-0.278320
  0
LINE
  8
0
 10
-136.250000
 20
-0.278313
 11
-136.250000
 21
-1.721687
  0
LINE
  8
0
 10
-134.999985
 20
-2.443377
 11
-136.249985
 21
-1.721691
  0
LINE
  8
0
 10
-133.749985
 20
-1.721690
 11
-134.999985
 21
-2.443377
  0
LINE
  8
0
 10
-133.750000
 20
-0.278313
 11
-133.750000
 21
-1.721687
  0
LINE
  8
0
 10
-134.999985
 20
0.443381
 11
-133.749969
 21
-0.278316
  0
LINE
  8
0
 10
116.000031
 20
32.443367
 11
114.750031
 21
31.721682
  0
LINE
  8
0
 10
114.750000
 20
31.721687
 11
114.750000
 21
30.278313
  0
LINE
  8
0
 10
116.000015
 20
29.556622
 11
114.750015
 21
30.278307
  0
LINE
  8
0
 10
117.250008
 20
30.278311
 11
116.000008
 21
29.556625
  0
LINE
  8
0
 10
117.250000
 20
31.721687
 11
117.250000
 21
30.278313
  0
LINE
  8
0
 10
116.000023
 20
32.443382
 11
117.250031
 21
31.721691
  0
LINE
  8
0
 10
111.500031
 20
14.000000
 11
115.597870
 21
14.000000
  0
LINE
  8
0
 10
111.500031
 20
26.000000
 11
115.597870
 21
26.000000
  0
LINE
  8
0
 10
138.500031
 20
14.000000
 11
134.402130
 21
14.000000
  0
LINE
  8
0
 10
138.500031
 20
26.000000
 11
134.402130
 21
26.000000
  0
LINE
  8
0
 10
115.500031
 20
36.000000
 11
115.500031
 21
41.399994
  0
LINE
  8
0
 10
112.500031
 20
36.000000
 11
112.500031
 21
36.850006
  0
LINE
  8
0
 10
111.500031
 20
36.850006
 11
112.500031
 21
36.850006
  0
LINE
  8
0
 10
111.000031
 20
26.500000
 11
111.000031
 21
36.350006
  0
LINE
  8
0
  6
CENTER
 62
     2
 10
116.000000
 20
35.799999
 11
116.000000
 21
26.200001
  0
LINE
  8
0
  6
CENTER
 62
     2
 10
111.199997
 20
31.000000
 11
120.800003
 21
31.000000
  0
LINE
  8
0
 10
120.999992
 20
17.690657
 11
124.999992
 21
15.381252
  0
LINE
  8
0
 10
125.000000
 20
24.618855
 11
129.000000
 21
22.309450
  0
LINE
  8
0
 10
125.000031
 20
15.381193
 11
129.000015
 21
17.690580
  0
LINE
  8
0
 10
121.000008
 20
22.309414
 11
124.999985
 21
24.618801
  0
LINE
  8
0
 10
129.000000
 20
22.309402
 11
129.000000
 21
17.690598
  0
LINE
  8
0
 10
121.000000
 20
22.309402
 11
121.000000
 21
17.690601
  0
LINE
  8
0
 10
118.000008
 20
15.958572
 11
124.999992
 21
11.917130
  0
LINE
  8
0
 10
125.000023
 20
28.082920
 11
132.000000
 21
24.041477
  0
LINE
  8
0
 10
125.000038
 20
11.917077
 11
132.000015
 21
15.958519
  0
LINE
  8
0
 10
118.000031
 20
24.041433
 11
125.000015
 21
28.082876
  0
LINE
  8
0
 10
132.000000
 20
24.041451
 11
132.000000
 21
15.958549
  0
LINE
  8
0
 10
118.000000
 20
24.041451
 11
118.000000
 21
15.958549
  0
LINE
  8
0
 10
111.500000
 20
36.000000
 11
138.500000
 21
36.000000
  0
LINE
  8
0
 10
111.500000
 20
4.000000
 11
138.500000
 21
4.000000
  0
LINE
  8
0
 10
111.500000
 20
14.000000
 11
111.500000
 21
4.000000
  0
LINE
  8
0
 10
138.500000
 20
36.000000
 11
138.500000
 21
26.000000
  0
LINE
  8
0
 10
111.500000
 20
36.000000
 11
111.500000
 21
26.000000
  0
LINE
  8
0
 10
111.999962
 20
49.000088
 11
110.999962
 21
48.000088
  0
LINE
  8
0
 10
113.000031
 20
15.000000
 11
113.000031
 21
14.000000
  0
LINE
  8
0
 10
133.000015
 20
40.000000
 11
129.899017
 21
40.000000
  0
LINE
  8
0
 10
133.000015
 20
37.000000
 11
128.000031
 21
37.000000
  0
LINE
  8
0
  6
CENTER
 62
     2
 10
134.567383
 20
38.500000
 11
131.860626
 21
38.500000
  0
LINE
  8
0
 10
133.000015
 20
3.000000
 11
128.000031
 21
3.000000
  0
LINE
  8
0
 10
133.000015
 20
0.000000
 11
130.000000
 21
0.000000
  0
LINE
  8
0
  6
CENTER
 62
     2
 10
134.698730
 20
1.500000
 11
131.981140
 21
1.500000
  0
LINE
  8
0
 10
111.000031
 20
-1.999939
 11
111.000031
 21
13.500000
  0
LINE
  8
0
 10
138.500000
 20
14.000000
 11
138.500000
 21
4.000000
  0
LINE
  8
0
  6
CENTER
 62
     2
 10
125.000015
 20
-12.005554
 11
125.000015
 21
50.448975
  0
LINE
  8
0
  6
CENTER
 62
     2
 10
118.655807
 20
41.000000
 11
131.152130
 21
41.000000
  0
LINE
  8
0
  6
CENTER
 62
     2
 10
118.843079
 20
-1.000000
 11
131.020782
 21
-1.000000
  0
LINE
  8
0
 10
112.000031
 20
48.999985
 11
138.000031
 21
48.999985
  0
LINE
  8
0
 10
139.000015
 20
-7.999939
 11
139.000015
 21
-1.149994
  0
LINE
  8
0
 10
137.999985
 20
-9.000028
 11
138.999985
 21
-8.000025
  0
LINE
  8
0
 10
139.000015
 20
47.999981
 11
138.000000
 21
48.999981
  0
LINE
  8
0
 10
138.500031
 20
36.350006
 11
136.500031
 21
36.350006
  0
LINE
  8
0
 10
138.500031
 20
40.649994
 11
136.500031
 21
40.649994
  0
LINE
  8
0
 10
136.500031
 20
42.149994
 11
133.000031
 21
42.149994
  0
LINE
  8
0
 10
139.000015
 20
4.149994
 11
139.000015
 21
13.500000
  0
LINE
  8
0
 10
139.000015
 20
41.149994
 11
139.000015
 21
48.000000
  0
LINE
  8
0
 10
136.000031
 20
21.000000
 11
134.400024
 21
21.000000
  0
LINE
  8
0
 10
136.000031
 20
25.200012
 11
134.400024
 21
25.200012
  0
LINE
  8
0
 10
137.000015
 20
18.799988
 11
137.000015
 21
21.200012
  0
LINE
  8
0
 10
136.700027
 20
24.700012
 11
136.500031
 21
24.700012
  0
LINE
  8
0
 10
136.700027
 20
21.500000
 11
136.500031
 21
21.500000
  0
LINE
  8
0
 10
136.000031
 20
21.000019
 11
136.500015
 21
21.500008
  0
LINE
  8
0
 10
136.500092
 20
24.700043
 11
136.000092
 21
25.200045
  0
LINE
  8
0
 10
137.000015
 20
25.000000
 11
137.000015
 21
26.000000
  0
LINE
  8
0
 10
136.000031
 20
19.000000
 11
134.400024
 21
19.000000
  0
LINE
  8
0
 10
136.000031
 20
14.799988
 11
134.400024
 21
14.799988
  0
LINE
  8
0
 10
136.700027
 20
15.299988
 11
136.500031
 21
15.299988
  0
LINE
  8
0
 10
136.700027
 20
18.500000
 11
136.500031
 21
18.500000
  0
LINE
  8
0
 10
136.000076
 20
19.000065
 11
136.500061
 21
18.500078
  0
LINE
  8
0
 10
136.500031
 20
15.300030
 11
136.000031
 21
14.800029
  0
LINE
  8
0
 10
137.000015
 20
15.000000
 11
137.000015
 21
14.000000
  0
LINE
  8
0
 10
139.000015
 20
26.500000
 11
139.000015
 21
35.850006
  0
LINE
  8
0
 10
133.000015
 20
36.000000
 11
133.000015
 21
42.149994
  0
LINE
  8
0
 10
136.500015
 20
36.000000
 11
136.500015
 21
36.350006
  0
LINE
  8
0
 10
136.500015
 20
40.649994
 11
136.500015
 21
42.149994
  0
LINE
  8
0
 10
136.500015
 20
-0.649994
 11
136.500015
 21
-2.149994
  0
LINE
  8
0
 10
138.500031
 20
3.649994
 11
136.500031
 21
3.649994
  0
LINE
  8
0
 10
138.500031
 20
-0.649994
 11
136.500031
 21
-0.649994
  0
LINE
  8
0
 10
136.500031
 20
-2.149994
 11
133.000031
 21
-2.149994
  0
LINE
  8
0
 10
133.000015
 20
4.000000
 11
133.000015
 21
-2.149994
  0
LINE
  8
0
 10
136.500015
 20
4.000000
 11
136.500015
 21
3.649994
  0
LINE
  8
0
  6
CENTER
 62
     2
 10
111.286743
 20
20.000000
 11
138.693527
 21
20.000000
  0
LINE
  8
0
 10
114.000031
 20
21.000000
 11
115.600037
 21
21.000000
  0
LINE
  8
0
 10
114.000031
 20
25.200012
 11
115.600037
 21
25.200012
  0
LINE
  8
0
 10
113.000031
 20
18.799988
 11
113.000031
 21
21.200012
  0
LINE
  8
0
 10
113.300034
 20
24.700012
 11
113.500031
 21
24.700012
  0
LINE
  8
0
 10
113.300034
 20
21.500000
 11
113.500031
 21
21.500000
  0
LINE
  8
0
 10
114.000092
 20
21.000011
 11
113.500092
 21
21.500006
  0
LINE
  8
0
 10
113.500000
 20
24.700027
 11
113.999985
 21
25.200020
  0
LINE
  8
0
 10
113.000031
 20
25.000000
 11
113.000031
 21
26.000000
  0
LINE
  8
0
 10
114.000031
 20
19.000000
 11
115.600037
 21
19.000000
  0
LINE
  8
0
 10
114.000031
 20
14.799988
 11
115.600037
 21
14.799988
  0
LINE
  8
0
 10
113.300034
 20
15.299988
 11
113.500031
 21
15.299988
  0
LINE
  8
0
 10
113.300034
 20
18.500000
 11
113.500031
 21
18.500000
  0
LINE
  8
0
 10
114.000008
 20
19.000051
 11
113.499992
 21
18.500038
  0
LINE
  8
0
 10
113.500084
 20
15.300015
 11
114.000076
 21
14.800020
  0
LINE
  8
0
  6
CENTER
 62
     2
 10
134.000015
 20
42.656029
 11
134.000015
 21
48.885162
  0
LINE
  8
0
  6
CENTER
 62
     2
 10
131.122040
 20
45.500000
 11
137.287491
 21
45.500000
  0
LINE
  8
0
  6
CENTER
 62
     2
 10
116.000015
 20
42.776535
 11
116.000015
 21
48.885162
  0
LINE
  8
0
  6
CENTER
 62
     2
 10
118.834656
 20
45.500000
 11
113.119598
 21
45.500000
  0
LINE
  8
0
  6
CENTER
 62
     2
 10
116.000015
 20
-2.814859
 11
116.000015
 21
-8.238661
  0
LINE
  8
0
  6
CENTER
 62
     2
 10
113.335953
 20
-5.500000
 11
118.589371
 21
-5.500000
  0
LINE
  8
0
 10
111.000107
 20
-7.077106
 11
113.500107
 21
-4.097724
  0
LINE
  8
0
 10
112.000031
 20
-9.000000
 11
138.000031
 21
-9.000000
  0
LINE
  8
0
 10
111.999985
 20
-8.999986
 11
111.042213
 21
-8.042215
  0
LINE
  8
0
 10
111.000031
 20
-8.000000
 11
111.000031
 21
-7.077072
  0
LINE
  8
0
  6
CENTER
 62
     2
 10
116.500015
 20
-9.871140
 11
116.500015
 21
-6.591642
  0
LINE
  8
0
  6
DASHED
 62
     2
 10
114.000015
 20
-9.000000
 11
114.000015
 21
-7.209515
  0
LINE
  8
0
  6
DASHED
 62
     2
 10
119.000015
 20
-9.000000
 11
119.000015
 21
-7.209515
  0
LINE
  8
0
  6
DASHED
 62
     2
 10
118.600006
 20
-9.000000
 11
118.600006
 21
-7.209515
  0
LINE
  8
0
  6
DASHED
 62
     2
 10
114.400024
 20
-9.000000
 11
114.400024
 21
-7.209515
  0
LINE
  8
0
 10
113.500053
 20
-4.097656
 11
111.000053
 21
-1.999905
  0
LINE
  8
0
  6
CENTER
 62
     2
 10
111.453857
 20
38.500000
 11
116.467300
 21
38.500000
  0
LINE
  8
0
  6
CENTER
 62
     2
 10
134.000015
 20
-2.655849
 11
134.000015
 21
-8.440346
  0
LINE
  8
0
  6
CENTER
 62
     2
 10
131.258072
 20
-5.500000
 11
137.287491
 21
-5.500000
  0
LINE
  8
0
 10
136.000015
 20
-2.149994
 11
136.000015
 21
4.000000
  0
LINE
  8
0
 10
114.000015
 20
14.800018
 11
114.000015
 21
19.000000
  0
LINE
  8
0
 10
114.000015
 20
36.000000
 11
114.000015
 21
41.399994
  0
LINE
  8
0
 10
114.000015
 20
21.000000
 11
114.000015
 21
25.200012
  0
LINE
  8
0
 10
136.000015
 20
21.000000
 11
136.000015
 21
25.200012
  0
LINE
  8
0
 10
136.000015
 20
36.000000
 11
136.000015
 21
42.149994
  0
LINE
  8
0
 10
136.000015
 20
14.799988
 11
136.000015
 21
19.000000
  0
LINE
  8
0
 10
111.000031
 20
40.649994
 11
111.000031
 21
48.000092
  0
LINE
  8
0
 10
111.500031
 20
40.149994
 11
112.500031
 21
40.149994
  0
LINE
  8
0
 10
112.500031
 20
40.149994
 11
112.500031
 21
41.399994
  0
LINE
  8
0
 10
112.500031
 20
41.399994
 11
115.500031
 21
41.399994
  0
LINE
  8
0
 10
134.000061
 20
10.443365
 11
132.750061
 21
9.721679
  0
LINE
  8
0
 10
132.750031
 20
9.721687
 11
132.750031
 21
8.278313
  0
LINE
  8
0
 10
134.000046
 20
7.556628
 11
132.750046
 21
8.278315
  0
LINE
  8
0
 10
135.250031
 20
8.278315
 11
134.000031
 21
7.556628
  0
LINE
  8
0
 10
135.250031
 20
9.721687
 11
135.250031
 21
8.278313
  0
LINE
  8
0
 10
134.000046
 20
10.443375
 11
135.250061
 21
9.721681
  0
LINE
  8
0
  6
CENTER
 62
     2
 10
116.500015
 20
4.509140
 11
116.500015
 21
1.414871
  0
LINE
  8
0
  6
CENTER
 62
     2
 10
114.976486
 20
3.000000
 11
118.070770
 21
3.000000
  0
LINE
  8
0
  6
CENTER
 62
     2
 10
129.200027
 20
9.000000
 11
138.800034
 21
9.000000
  0
LINE
  8
0
  6
CENTER
 62
     2
 10
134.000031
 20
13.800000
 11
134.000031
 21
4.200000
  0
LINE
  8
0
 10
-194.250000
 20
132.600006
 11
194.800003
 21
132.600006
  0
LINE
  8
0
 10
194.800003
 20
132.600006
 11
194.800003
 21
-133.500000
  0
LINE
  8
0
 10
-194.250000
 20
132.600006
 11
-194.250000
 21
-133.500000
  0
LINE
  8
0
 10
-194.250000
 20
-133.500000
 11
194.800003
 21
-133.500000
  0
LINE
  8
0
 10
109.800003
 20
-118.500000
 11
109.800003
 21
-133.500000
  0
LINE
  8
0
 10
109.800003
 20
-118.500000
 11
194.800003
 21
-118.500000
  0
LINE
  8
0
 10
109.800003
 20
132.600006
 11
109.800003
 21
117.600006
  0
LINE
  8
0
 10
109.800003
 20
117.600006
 11
194.800003
 21
117.600006
  0
LINE
  8
0
 10
-194.250000
 20
117.600006
 11
-84.250000
 21
117.600006
  0
LINE
  8
0
 10
-84.250000
 20
132.600006
 11
-84.250000
 21
117.600006
  0
LINE
  8
0
 10
-184.250000
 20
-123.500000
 11
-87.250000
 21
-123.500000
  0
LINE
  8
0
 10
-184.250000
 20
-123.500000
 11
-184.250000
 21
-92.500000
  0
LINE
  8
0
 10
-184.250000
 20
-115.500000
 11
-87.250000
 21
-115.500000
  0
LINE
  8
0
 10
-184.250000
 20
-107.500000
 11
-87.250000
 21
-107.500000
  0
LINE
  8
0
 10
-159.250000
 20
-123.500000
 11
-159.250000
 21
-92.500000
  0
LINE
  8
0
 10
-135.250000
 20
-123.500000
 11
-135.250000
 21
-92.500000
  0
LINE
  8
0
 10
-147.250000
 20
-123.500000
 11
-147.250000
 21
-92.500000
  0
LINE
  8
0
 10
-123.250000
 20
-123.500000
 11
-123.250000
 21
-92.500000
  0
LINE
  8
0
 10
-111.250000
 20
-123.500000
 11
-111.250000
 21
-92.500000
  0
LINE
  8
0
 10
-99.250000
 20
-123.500000
 11
-99.250000
 21
-92.500000
  0
LINE
  8
0
 10
-159.250046
 20
-107.500015
 11
-161.929535
 21
-97.500023
  0
LINE
  8
0
 10
-184.250000
 20
-97.500000
 11
-161.929489
 21
-97.500000
  0
LINE
  8
0
 10
-184.250000
 20
-92.500000
 11
-87.250000
 21
-92.500000
  0
LINE
  8
0
 10
-87.250000
 20
-123.500000
 11
-87.250000
 21
-92.500000
  0
CIRCLE
  8
0
 10
-14.000000
 20
9.000000
 40
2.100000
  0
CIRCLE
  8
0
 10
-29.000000
 20
9.000000
 40
2.100000
  0
CIRCLE
  8
0
  6
DASHED
 62
     2
 10
-29.000000
 20
9.000000
 40
2.500000
  0
CIRCLE
  8
0
  6
DASHED
 62
     2
 10
-14.000000
 20
9.000000
 40
2.500000
  0
CIRCLE
  8
0
 10
-29.000000
 20
31.000000
 40
4.000000
  0
CIRCLE
  8
0
 10
-14.000000
 20
31.000000
 40
4.000000
  0
ARC
  8
0
 10
-38.000008
 20
20.000000
 40
3.000005
 50
326.442810
 51
33.557190
  0
CIRCLE
  8
0
 10
-14.000000
 20
31.000000
 40
2.100000
  0
CIRCLE
  8
0
  6
DASHED
 62
     2
 10
-14.000000
 20
31.000000
 40
2.500000
  0
CIRCLE
  8
0
 10
-29.000000
 20
31.000000
 40
2.100000
  0
CIRCLE
  8
0
  6
DASHED
 62
     2
 10
-29.000000
 20
31.000000
 40
2.500000
  0
ARC
  8
0
 10
4.849998
 20
32.151039
 40
3.000000
 50
23.556490
 51
44.220036
  0
CIRCLE
  8
0
 62
     2
 10
-24.000000
 20
3.000000
 40
2.500000
  0
CIRCLE
  8
0
 62
     2
 10
-5.000000
 20
3.000000
 40
2.500000
  0
CIRCLE
  8
0
 10
-29.000000
 20
9.000000
 40
4.000000
  0
CIRCLE
  8
0
 10
-14.000000
 20
9.000000
 40
4.000000
  0
ARC
  8
0
 10
4.849998
 20
29.848961
 40
3.000000
 50
315.779907
 51
336.443512
  0
ARC
  8
0
 10
4.849998
 20
7.848961
 40
3.000000
 50
315.779907
 51
336.443481
  0
ARC
  8
0
 10
4.849998
 20
10.151039
 40
3.000000
 50
23.556454
 51
44.220028
  0
CIRCLE
  8
0
 10
-5.000000
 20
3.000000
 40
2.100000
  0
CIRCLE
  8
0
 10
-24.000000
 20
3.000000
 40
2.100000
  0
ARC
  8
0
 10
36.410843
 20
20.000000
 40
4.289154
 50
327.423340
 51
32.576679
  0
ARC
  8
0
 10
40.989166
 20
19.999996
 40
4.289168
 50
147.423431
 51
212.576569
  0
ARC
  8
0
 10
23.325188
 20
20.000002
 40
13.374814
 50
342.412079
 51
17.587919
  0
ARC
  8
0
 10
33.157921
 20
26.050982
 40
3.542075
 50
325.435669
 51
0.000000
  0
ARC
  8
0
 10
38.025337
 20
23.464098
 40
1.325340
 50
180.000000
 51
240.603912
  0
ARC
  8
0
 10
39.374657
 20
23.464098
 40
1.325340
 50
299.396088
 51
0.000000
  0
ARC
  8
0
 10
33.157921
 20
13.949018
 40
3.542076
 50
359.999939
 51
34.564285
  0
ARC
  8
0
 10
38.025337
 20
16.535902
 40
1.325340
 50
119.396080
 51
180.000000
  0
ARC
  8
0
 10
39.374657
 20
16.535902
 40
1.325340
 50
359.999908
 51
60.603920
  0
CIRCLE
  8
0
 10
-135.000000
 20
-1.000000
 40
3.800000
  0
ARC
  8
0
 10
-121.500031
 20
40.650002
 40
0.500000
 50
270.000000
 51
0.000000
  0
CIRCLE
  8
0
 10
-135.000000
 20
-1.000000
 40
4.000000
  0
CIRCLE
  8
0
 10
-135.000000
 20
-1.000000
 40
2.350000
  0
ARC
  8
0
 10
-148.500031
 20
41.149994
 40
0.500000
 50
180.000000
 51
270.000000
  0
ARC
  8
0
 10
-148.500031
 20
35.850006
 40
0.500000
 50
90.000000
 51
180.000000
  0
ARC
  8
0
 10
-148.500031
 20
4.149994
 40
0.500000
 50
180.000000
 51
270.000000
  0
ARC
  8
0
 10
-148.500031
 20
-1.149994
 40
0.500000
 50
90.000000
 51
180.000015
  0
ARC
  8
0
 10
-148.500031
 20
26.500000
 40
0.500000
 50
180.000000
 51
270.000000
  0
ARC
  8
0
 10
-148.500031
 20
13.500000
 40
0.500000
 50
90.000000
 51
180.000107
  0
ARC
  8
0
 10
-146.700027
 20
15.000000
 40
0.300000
 50
90.000000
 51
180.000000
  0
ARC
  8
0
 10
-146.700027
 20
25.000000
 40
0.300003
 50
180.000000
 51
270.000000
  0
ARC
  8
0
 10
-146.700027
 20
21.200012
 40
0.299999
 50
90.000000
 51
180.000000
  0
ARC
  8
0
 10
-146.700027
 20
18.799988
 40
0.300003
 50
180.000000
 51
270.000000
  0
ARC
  8
0
 10
-123.300034
 20
15.000000
 40
0.300003
 50
0.000000
 51
90.000000
  0
ARC
  8
0
 10
-121.500031
 20
26.500000
 40
0.500000
 50
270.000000
 51
0.000000
  0
ARC
  8
0
 10
-121.500031
 20
13.500000
 40
0.500000
 50
0.000000
 51
90.000000
  0
ARC
  8
0
 10
-123.300034
 20
25.000000
 40
0.299999
 50
270.000000
 51
0.000000
  0
ARC
  8
0
 10
-123.300034
 20
21.200012
 40
0.300003
 50
0.000000
 51
90.000000
  0
ARC
  8
0
 10
-123.300034
 20
18.799988
 40
0.299999
 50
270.000000
 51
0.000000
  0
CIRCLE
  8
0
 10
-135.000000
 20
41.000000
 40
4.000000
  0
CIRCLE
  8
0
 10
-135.000000
 20
20.000000
 40
4.000000
  0
CIRCLE
  8
0
 62
     2
 10
-128.000000
 20
44.000000
 40
2.000000
  0
CIRCLE
  8
0
 10
-128.000000
 20
44.000000
 40
1.650000
  0
CIRCLE
  8
0
 62
     2
 10
-128.000000
 20
-4.000000
 40
2.000000
  0
CIRCLE
  8
0
 10
-128.000000
 20
-4.000000
 40
1.650000
  0
CIRCLE
  8
0
 62
     2
 10
-142.000000
 20
-4.000000
 40
2.000000
  0
CIRCLE
  8
0
 10
-142.000000
 20
-4.000000
 40
1.650000
  0
CIRCLE
  8
0
 10
-135.000000
 20
41.000000
 40
3.800000
  0
CIRCLE
  8
0
 10
-135.000000
 20
41.000000
 40
2.350000
  0
CIRCLE
  8
0
 10
-135.000000
 20
20.000000
 40
3.800000
  0
CIRCLE
  8
0
 10
-135.000000
 20
20.000000
 40
2.350000
  0
CIRCLE
  8
0
 62
     2
 10
-142.000000
 20
44.000000
 40
2.000000
  0
CIRCLE
  8
0
 10
-142.000000
 20
44.000000
 40
1.650000
  0
ARC
  8
0
 10
-121.500031
 20
36.349998
 40
0.500000
 50
0.000000
 51
90.000000
  0
CIRCLE
  8
0
 10
134.000031
 20
9.000000
 40
3.800000
  0
CIRCLE
  8
0
 10
134.000031
 20
9.000000
 40
4.000000
  0
CIRCLE
  8
0
 10
134.000031
 20
9.000000
 40
2.350000
  0
CIRCLE
  8
0
 10
116.000000
 20
31.000000
 40
4.000000
  0
CIRCLE
  8
0
 10
116.000000
 20
31.000000
 40
3.800000
  0
CIRCLE
  8
0
 10
116.000000
 20
31.000000
 40
2.350000
  0
ARC
  8
0
 10
138.500031
 20
4.149994
 40
0.500000
 50
270.000000
 51
359.999939
  0
ARC
  8
0
 10
138.500031
 20
-1.149994
 40
0.500000
 50
359.999939
 51
90.000000
  0
ARC
  8
0
 10
138.500031
 20
26.500000
 40
0.500000
 50
270.000000
 51
0.000000
  0
ARC
  8
0
 10
138.500031
 20
13.500000
 40
0.500000
 50
359.999878
 51
90.000000
  0
ARC
  8
0
 10
136.700027
 20
15.000000
 40
0.300003
 50
359.999817
 51
90.000000
  0
ARC
  8
0
 10
134.400024
 20
23.100006
 40
2.100000
 50
90.000000
 51
270.000000
  0
ARC
  8
0
 10
136.700027
 20
25.000000
 40
0.299999
 50
270.000000
 51
0.000000
  0
ARC
  8
0
 10
136.700027
 20
21.200012
 40
0.300003
 50
0.000000
 51
90.000000
  0
ARC
  8
0
 10
136.700027
 20
18.799988
 40
0.299999
 50
270.000000
 51
0.000000
  0
ARC
  8
0
 10
134.400024
 20
16.899994
 40
2.100000
 50
90.000000
 51
270.000000
  0
ARC
  8
0
 10
113.300034
 20
15.000000
 40
0.300000
 50
90.000000
 51
180.000000
  0
ARC
  8
0
 10
111.500031
 20
26.500000
 40
0.500000
 50
180.000000
 51
270.000000
  0
ARC
  8
0
 10
111.500031
 20
13.500000
 40
0.500000
 50
90.000000
 51
179.999893
  0
ARC
  8
0
 10
115.600037
 20
23.100006
 40
2.100000
 50
270.000000
 51
90.000000
  0
ARC
  8
0
 10
113.300034
 20
25.000000
 40
0.300003
 50
180.000000
 51
270.000000
  0
ARC
  8
0
 10
113.300034
 20
21.200012
 40
0.299999
 50
90.000000
 51
180.000000
  0
ARC
  8
0
 10
113.300034
 20
18.799988
 40
0.300003
 50
180.000000
 51
270.000000
  0
ARC
  8
0
 10
115.600037
 20
16.899994
 40
2.100000
 50
270.000000
 51
90.000000
  0
ARC
  8
0
 10
125.000000
 20
20.000000
 40
7.450000
 50
339.984039
 51
20.015955
  0
ARC
  8
0
 10
125.000000
 20
20.000000
 40
9.100005
 50
29.999311
 51
34.361946
  0
ARC
  8
0
 10
125.000000
 20
20.000000
 40
9.100003
 50
353.691010
 51
6.504435
  0
ARC
  8
0
 10
125.000000
 20
20.000000
 40
9.099998
 50
209.999619
 51
214.361938
  0
ARC
  8
0
 10
125.000000
 20
20.000000
 40
9.100003
 50
173.691040
 51
186.308945
  0
CIRCLE
  8
0
 10
116.500015
 20
3.000000
 40
1.000000
  0
CIRCLE
  8
0
 62
     2
 10
116.000015
 20
45.500000
 40
2.000000
  0
CIRCLE
  8
0
 62
     2
 10
134.000015
 20
45.500000
 40
2.000000
  0
CIRCLE
  8
0
 62
     2
 10
116.000015
 20
-5.500000
 40
2.000000
  0
CIRCLE
  8
0
 62
     2
 10
134.000015
 20
-5.500000
 40
2.000000
  0
ARC
  8
0
 10
111.500031
 20
40.649994
 40
0.500000
 50
180.000000
 51
270.000000
  0
ARC
  8
0
 10
111.500031
 20
36.350006
 40
0.500000
 50
90.000000
 51
180.000000
  0
CIRCLE
  8
0
 10
125.000031
 20
41.000000
 40
4.000000
  0
CIRCLE
  8
0
 10
125.000031
 20
-1.000000
 40
4.000000
  0
ARC
  8
0
 10
125.000000
 20
20.000000
 40
9.100001
 50
145.638062
 51
150.000381
  0
ARC
  8
0
 10
125.000000
 20
20.000000
 40
9.100002
 50
325.638062
 51
330.000702
  0
ARC
  8
0
 10
125.000000
 20
20.000000
 40
7.449999
 50
99.983612
 51
140.016357
  0
ARC
  8
0
 10
125.000000
 20
20.000000
 40
7.450000
 50
39.984482
 51
80.015495
  0
ARC
  8
0
 10
125.000000
 20
20.000000
 40
7.450000
 50
279.984619
 51
320.015350
  0
ARC
  8
0
 10
125.000000
 20
20.000000
 40
7.450000
 50
219.983566
 51
260.016388
  0
ARC
  8
0
 10
125.000000
 20
20.000000
 40
7.449999
 50
159.984055
 51
200.015930
  0
CIRCLE
  8
0
 10
125.000000
 20
20.000000
 40
4.000000
  0
ARC
  8
0
 10
115.597870
 20
23.500000
 40
2.499998
 50
12.970679
 51
90.000000
  0
ARC
  8
0
 10
134.402130
 20
16.500000
 40
2.500004
 50
192.970535
 51
270.000000
  0
CIRCLE
  8
0
 62
     2
 10
125.000000
 20
20.000000
 40
2.000000
  0
CIRCLE
  8
0
 10
125.000000
 20
20.000000
 40
2.500000
  0
CIRCLE
  8
0
 10
125.000000
 20
20.000000
 40
7.000000
  0
ARC
  8
0
 10
134.402130
 20
23.500000
 40
2.500000
 50
90.000000
 51
167.029495
  0
ARC
  8
0
 10
115.597870
 20
16.500000
 40
2.500000
 50
270.000000
 51
347.029419
  0
CIRCLE
  8
0
 10
125.000031
 20
-1.000000
 40
5.000000
  0
CIRCLE
  8
0
 10
125.000031
 20
41.000000
 40
5.000000
  0
ARC
  8
0
 10
138.500031
 20
41.149994
 40
0.500000
 50
270.000000
 51
0.000000
  0
ARC
  8
0
 10
138.500031
 20
35.850006
 40
0.500000
 50
0.000000
 51
90.000000
  0
CIRCLE
  8
0
 10
116.000015
 20
45.500000
 40
1.650000
  0
CIRCLE
  8
0
 10
134.000015
 20
45.500000
 40
1.650000
  0
CIRCLE
  8
0
 10
116.000015
 20
-5.500000
 40
1.650000
  0
CIRCLE
  8
0
 10
134.000015
 20
-5.500000
 40
1.650000
  0
ARC
  8
0
 10
-4.417619
 20
-3.229691
 40
0.417619
 50
344.498138
 51
15.501839
  0
ARC
  8
0
 10
-4.572197
 20
-3.292030
 40
0.583537
 50
17.343901
 51
54.574699
  0
ARC
  8
0
 10
-5.000000
 20
-3.979602
 40
1.392688
 50
56.629719
 51
123.370277
  0
ARC
  8
0
 10
-5.427803
 20
-3.292030
 40
0.583537
 50
125.425285
 51
162.656082
  0
ARC
  8
0
 10
-5.582381
 20
-3.229691
 40
0.417619
 50
164.498123
 51
195.501846
  0
ARC
  8
0
 10
-5.427803
 20
-3.167351
 40
0.583537
 50
197.343903
 51
234.574692
  0
ARC
  8
0
 10
-5.000000
 20
-2.479779
 40
1.392688
 50
236.629715
 51
303.370270
  0
ARC
  8
0
 10
-4.572197
 20
-3.167351
 40
0.583537
 50
305.425293
 51
342.656067
  0
ARC
  8
0
 10
-23.417620
 20
-3.229691
 40
0.417620
 50
344.498138
 51
15.501822
  0
ARC
  8
0
 10
-23.572197
 20
-3.292030
 40
0.583537
 50
17.343914
 51
54.574738
  0
ARC
  8
0
 10
-24.000000
 20
-3.979602
 40
1.392688
 50
56.629719
 51
123.370277
  0
ARC
  8
0
 10
-24.427803
 20
-3.292030
 40
0.583537
 50
125.425247
 51
162.656067
  0
ARC
  8
0
 10
-24.582380
 20
-3.229691
 40
0.417620
 50
164.498154
 51
195.501816
  0
ARC
  8
0
 10
-24.427803
 20
-3.167351
 40
0.583537
 50
197.343918
 51
234.574738
  0
ARC
  8
0
 10
-24.000000
 20
-2.479779
 40
1.392688
 50
236.629715
 51
303.370270
  0
ARC
  8
0
 10
-23.572197
 20
-3.167351
 40
0.583537
 50
305.425262
 51
342.656067
  0
TEXT
  8
0
 10
133.907150
 20
122.050003
 40
4.500000
  1
Ver. 1.0
 50
0.000000
 41
1.052631
 51
0.000000
  7
STANDARD
  0
TEXT
  8
0
 10
113.700279
 20
-130.669998
 40
6.300000
  1
KOGANEI CORP.
 50
0.000000
 41
1.052632
 51
0.000000
  7
STANDARD
  0
TEXT
  8
0
 10
-191.392654
 20
122.050003
 40
4.500000
  1
JIG CYLINDER WITH GUIDE
 50
0.000000
 41
1.052632
 51
0.000000
  7
STANDARD
  0
TEXT
  8
0
 10
-186.892654
 20
104.550003
 40
4.500000
  1
MODEL:SGDAP12*ST(10)
 50
0.000000
 41
1.052632
 51
0.000000
  7
STANDARD
  0
TEXT
  8
0
 10
-181.557144
 20
-96.879997
 40
3.200000
  1
STROKE
 50
0.000000
 41
1.052631
 51
0.000000
  7
STANDARD
  0
TEXT
  8
0
 10
-173.557144
 20
-113.379997
 40
3.200000
  1
A
 50
0.000000
 41
1.052631
 51
0.000000
  7
STANDARD
  0
TEXT
  8
0
 10
-184.496872
 20
-101.019997
 40
3.200000
  1
STRETCH
 50
0.000000
 41
1.052631
 51
0.000000
  7
STANDARD
  0
TEXT
  8
0
 10
-184.496872
 20
-105.820000
 40
3.200000
  1
  PLACE
 50
0.000000
 41
1.052631
 51
0.000000
  7
STANDARD
  0
TEXT
  8
0
 10
-156.657150
 20
-101.879997
 40
3.200000
  1
10
 50
0.000000
 41
1.052631
 51
0.000000
  7
STANDARD
  0
TEXT
  8
0
 10
-144.657150
 20
-101.879997
 40
3.200000
  1
20
 50
0.000000
 41
1.052631
 51
0.000000
  7
STANDARD
  0
TEXT
  8
0
 10
-132.657150
 20
-101.879997
 40
3.200000
  1
30
 50
0.000000
 41
1.052631
 51
0.000000
  7
STANDARD
  0
TEXT
  8
0
 10
-120.657158
 20
-101.879997
 40
3.200000
  1
50
 50
0.000000
 41
1.052631
 51
0.000000
  7
STANDARD
  0
TEXT
  8
0
 10
-108.657158
 20
-101.879997
 40
3.200000
  1
75
 50
0.000000
 41
1.052631
 51
0.000000
  7
STANDARD
  0
TEXT
  8
0
 10
-98.257156
 20
-101.879997
 40
3.200000
  1
100
 50
0.000000
 41
1.052631
 51
0.000000
  7
STANDARD
  0
TEXT
  8
0
 10
-99.857140
 20
-91.379997
 40
3.200000
  1
(mm)
 50
0.000000
 41
1.052631
 51
0.000000
  7
STANDARD
  0
TEXT
  8
0
 10
-155.157135
 20
-91.379997
 40
3.200000
  1
STRETCH LIST
 50
0.000000
 41
1.052631
 51
0.000000
  7
STANDARD
  0
TEXT
  8
0
 10
-173.557007
 20
-121.379997
 40
3.200000
  1
B
 50
0.000000
 41
1.052632
 51
0.000000
  7
STANDARD
  0
TEXT
  8
0
 62
     3
 10
-15.307142
 20
58.119999
 40
3.200000
  1
STRETCH LINE A
 50
0.000000
 41
1.052631
 51
0.000000
  7
STANDARD
  0
TEXT
  8
0
 62
     3
 10
-28.307001
 20
65.120003
 40
3.200000
  1
STRETCH LINE B
 50
0.000000
 41
1.052632
 51
0.000000
  7
STANDARD
  0
TEXT
  8
0
 10
-155.057022
 20
-113.379997
 40
3.200000
  1
0
 50
0.000000
 41
1.052632
 51
0.000000
  7
STANDARD
  0
TEXT
  8
0
 10
-143.057022
 20
-113.379997
 40
3.200000
  1
0
 50
0.000000
 41
1.052632
 51
0.000000
  7
STANDARD
  0
TEXT
  8
0
 10
-131.057022
 20
-113.379997
 40
3.200000
  1
0
 50
0.000000
 41
1.052632
 51
0.000000
  7
STANDARD
  0
TEXT
  8
0
 10
-119.057014
 20
-113.379997
 40
3.200000
  1
0
 50
0.000000
 41
1.052632
 51
0.000000
  7
STANDARD
  0
TEXT
  8
0
 10
-108.657013
 20
-113.379997
 40
3.200000
  1
25
 50
0.000000
 41
1.052632
 51
0.000000
  7
STANDARD
  0
TEXT
  8
0
 10
-96.657013
 20
-113.379997
 40
3.200000
  1
50
 50
0.000000
 41
1.052632
 51
0.000000
  7
STANDARD
  0
TEXT
  8
0
 10
-155.057022
 20
-121.379997
 40
3.200000
  1
0
 50
0.000000
 41
1.052632
 51
0.000000
  7
STANDARD
  0
TEXT
  8
0
 10
-144.657013
 20
-121.379997
 40
3.200000
  1
10
 50
0.000000
 41
1.052632
 51
0.000000
  7
STANDARD
  0
TEXT
  8
0
 10
-132.657013
 20
-121.379997
 40
3.200000
  1
20
 50
0.000000
 41
1.052632
 51
0.000000
  7
STANDARD
  0
TEXT
  8
0
 10
-120.657013
 20
-121.379997
 40
3.200000
  1
40
 50
0.000000
 41
1.052632
 51
0.000000
  7
STANDARD
  0
TEXT
  8
0
 10
-108.657013
 20
-121.379997
 40
3.200000
  1
40
 50
0.000000
 41
1.052632
 51
0.000000
  7
STANDARD
  0
TEXT
  8
0
 10
-96.657013
 20
-121.379997
 40
3.200000
  1
40
 50
0.000000
 41
1.052632
 51
0.000000
  7
STANDARD
  0
TEXT
  8
0
 62
     2
 10
19.259319
 20
-23.000000
 40
3.200000
  1
STROKE=75-100
 50
0.000000
 41
1.052632
 51
0.000000
  7
STANDARD
  0
LINE
  8
0
 62
     2
 10
16.000000
 20
-24.000000
 11
60.609318
 21
-24.000000
  0
LINE
  8
0
 62
     2
 10
0.999996
 20
-24.000000
 11
16.000000
 21
-24.000000
  0
LINE
  8
0
 62
     2
 10
0.999996
 20
-24.000000
 11
3.897774
 21
-23.223543
  0
LINE
  8
0
 62
     2
 10
0.999996
 20
-24.000000
 11
3.897774
 21
-24.776457
  0
LINE
  8
0
 62
     2
 10
16.000000
 20
-24.000000
 11
13.102222
 21
-24.776457
  0
LINE
  8
0
 62
     2
 10
16.000000
 20
-24.000000
 11
13.102222
 21
-23.223543
  0
LINE
  8
0
 62
     2
 10
0.999996
 20
-8.500000
 11
0.999996
 21
-25.500000
  0
LINE
  8
0
 62
     2
 10
16.000000
 20
-3.500000
 11
16.000000
 21
-25.500000
  0
ENDSEC
  0
EOF
