  0
SECTION
  2
HEADER
  0
ENDSEC
  0
SECTION
  2
TABLES
  0
TABLE
  2
LTYPE
 70
     4
  0
LTYPE
  2
CONTINUOUS
 70
    64
  3
Solid line
 72
    65
 73
     0
 40
0.000000
  0
LTYPE
  2
DASHED
 70
    64
  3
__ __ __ __ __ __ __ __ __ __ __ __ __ __ __
 72
    65
 73
     2
 40
3.500000
 49
2.000000
 49
-1.500000
  0
LTYPE
  2
CENTER
 70
    64
  3
____ _ ____ _ ____ _ ____ _ ____ _ ____ _ ____
 72
    65
 73
     4
 40
17.500000
 49
13.000000
 49
-1.500000
 49
1.500000
 49
-1.500000
  0
LTYPE
  2
PHANTOM
 70
    64
  3
_____ _ _ _____ _ _ _____ _ _ _____ _ _ ____  
 72
    65
 73
     6
 40
15.500000
 49
8.000000
 49
-1.500000
 49
1.500000
 49
-1.500000
 49
1.500000
 49
-1.500000
  0
LTYPE
  2
DASHED1
 70
    64
  3
__ __ __ __ __ __ __ __ __ __ __ __ __ __ __
 72
    65
 73
     2
 40
1.500000
 49
1.000000
 49
-0.500000
  0
LTYPE
  2
DASHED2
 70
    64
  3
__ __ __ __ __ __ __ __ __ __ __ __ __ __ __
 72
    65
 73
     2
 40
3.500000
 49
2.500000
 49
-1.000000
  0
LTYPE
  2
DASHED3
 70
    64
  3
__ __ __ __ __ __ __ __ __ __ __ __ __ __ __
 72
    65
 73
     2
 40
6.000000
 49
4.000000
 49
-2.000000
  0
LTYPE
  2
DASHED4
 70
    64
  3
__ __ __ __ __ __ __ __ __ __ __ __ __ __ __
 72
    65
 73
     2
 40
12.000000
 49
10.000000
 49
-2.000000
  0
LTYPE
  2
DASHED5
 70
    64
  3
__ __ __ __ __ __ __ __ __ __ __ __ __ __ __
 72
    65
 73
     2
 40
17.000000
 49
15.000000
 49
-2.000000
  0
LTYPE
  2
DASHED6
 70
    64
  3
__ __ __ __ __ __ __ __ __ __ __ __ __ __ __
 72
    65
 73
     2
 40
29.000000
 49
27.000000
 49
-2.000000
  0
LTYPE
  2
PHANTOM1
 70
    64
  3
_____ _ _ _____ _ _ _____ _ _ _____ _ _ ____  
 72
    65
 73
     6
 40
31.000000
 49
25.000000
 49
-1.500000
 49
1.000000
 49
-1.000000
 49
1.000000
 49
-1.500000
  0
LTYPE
  2
PHANTOM2
 70
    64
  3
_____ _ _ _____ _ _ _____ _ _ _____ _ _ ____  
 72
    65
 73
     6
 40
36.000000
 49
27.000000
 49
-1.500000
 49
2.500000
 49
-1.000000
 49
2.500000
 49
-1.500000
  0
LTYPE
  2
PHANTOM3
 70
    64
  3
_____ _ _ _____ _ _ _____ _ _ _____ _ _ ____  
 72
    65
 73
     6
 40
78.000000
 49
64.000000
 49
-2.000000
 49
4.000000
 49
-2.000000
 49
4.000000
 49
-2.000000
  0
LTYPE
  2
CENTER1
 70
    64
  3
____ _ ____ _ ____ _ ____ _ ____ _ ____ _ ____
 72
    65
 73
     4
 40
19.000000
 49
14.000000
 49
-1.000000
 49
3.000000
 49
-1.000000
  0
LTYPE
  2
CENTER2
 70
    64
  3
____ _ ____ _ ____ _ ____ _ ____ _ ____ _ ____
 72
    65
 73
     4
 40
28.500000
 49
25.000000
 49
-1.000000
 49
1.500000
 49
-1.000000
  0
LTYPE
  2
CENTER3
 70
    64
  3
____ _ ____ _ ____ _ ____ _ ____ _ ____ _ ____
 72
    65
 73
     4
 40
31.500000
 49
27.000000
 49
-1.000000
 49
2.500000
 49
-1.000000
  0
LTYPE
  2
CENTER4
 70
    64
  3
____ _ ____ _ ____ _ ____ _ ____ _ ____ _ ____
 72
    65
 73
     4
 40
50.000000
 49
45.000000
 49
-1.000000
 49
3.000000
 49
-1.000000
  0
LTYPE
  2
CENTER5
 70
    64
  3
____ _ ____ _ ____ _ ____ _ ____ _ ____ _ ____
 72
    65
 73
     4
 40
100.000000
 49
92.000000
 49
-2.000000
 49
4.000000
 49
-2.000000
  0
LTYPE
  2
SBK1
 70
    64
  3
______ _ _ _ ______ _ _ _ ______ _ _ _ _____  
 72
    65
 73
     8
 40
60.500000
 49
45.000000
 49
-2.000000
 49
2.500000
 49
-2.000000
 49
2.500000
 49
-2.000000
 49
2.500000
 49
-2.000000
  0
LTYPE
  2
SBK2
 70
    64
  3
______ _ _ _ ______ _ _ _ ______ _ _ _ _____  
 72
    65
 73
     8
 40
84.000000
 49
64.000000
 49
-2.000000
 49
4.000000
 49
-2.000000
 49
4.000000
 49
-2.000000
 49
4.000000
 49
-2.000000
  0
LTYPE
  2
STCH
 70
    64
  3
__ __ __ __ __ __ __ __ __ __ __ __ __ __ __
 72
    65
 73
     2
 40
3.000000
 49
1.000000
 49
-2.000000
  0
LTYPE
  2
MTCH
 70
    64
  3
_____ _ _ _____ _ _ _____ _ _ _____ _ _ ____  
 72
    65
 73
     6
 40
80.000000
 49
66.000000
 49
-2.000000
 49
4.000000
 49
-2.000000
 49
4.000000
 49
-2.000000
  0
ENDTAB
  0
TABLE
  2
LAYER
 70
     1
  0
LAYER
  2
0
 70
     0
 62
     7
  6
CONTINUOUS
  0
ENDTAB
  0
TABLE
  2
STYLE
 70
     1
  0
STYLE
  2
STANDARD
 70
     0
 40
0.000000
 41
1.000000
 50
0.000000
 71
     0
 42
0.200000
  3
txt
  4
BIGFONT
  0
ENDTAB
  0
TABLE
  2
VIEW
 70
     0
  0
ENDTAB
  0
ENDSEC
  0
SECTION
  2
BLOCKS
  0
ENDSEC
  0
SECTION
  2
ENTITIES
  0
LINE
  8
0
  6
DASHED
 62
     2
 10
74.000015
 20
-41.500019
 11
74.000015
 21
-60.499992
  0
LINE
  8
0
  6
DASHED
 62
     2
 10
35.000000
 20
-40.999989
 11
73.500000
 21
-40.999989
  0
LINE
  8
0
  6
DASHED
 62
     2
 10
35.000000
 20
-60.999992
 11
73.500000
 21
-60.999992
  0
LINE
  8
0
  6
DASHED
 62
     2
 10
73.499985
 20
-40.999996
 11
73.999985
 21
-41.499996
  0
LINE
  8
0
  6
DASHED
 62
     2
 10
73.999985
 20
-60.499962
 11
73.499985
 21
-60.999958
  0
LINE
  8
0
  6
DASHED
 62
     2
 10
73.500000
 20
-40.999989
 11
73.500000
 21
-60.999985
  0
LINE
  8
0
  6
DASHED
 62
     2
 10
74.000015
 20
80.500008
 11
74.000015
 21
61.500015
  0
LINE
  8
0
  6
DASHED
 62
     2
 10
35.000000
 20
81.000008
 11
73.500000
 21
81.000008
  0
LINE
  8
0
  6
DASHED
 62
     2
 10
35.000000
 20
61.000008
 11
73.500000
 21
61.000008
  0
LINE
  8
0
  6
DASHED
 62
     2
 10
73.499947
 20
80.999954
 11
73.999947
 21
80.499954
  0
LINE
  8
0
  6
DASHED
 62
     2
 10
74.000008
 20
61.500008
 11
73.500015
 21
61.000011
  0
LINE
  8
0
  6
DASHED
 62
     2
 10
73.500000
 20
81.000008
 11
73.500000
 21
61.000008
  0
LINE
  8
0
 10
47.000000
 20
58.000008
 11
47.000000
 21
-37.999992
  0
LINE
  8
0
 10
35.000000
 20
57.000008
 11
47.000000
 21
57.000008
  0
LINE
  8
0
 10
35.000000
 20
-36.999989
 11
47.000000
 21
-36.999989
  0
LINE
  8
0
 10
47.000000
 20
0.000007
 11
57.000038
 21
0.000007
  0
LINE
  8
0
 10
57.000038
 20
-7.999989
 11
60.000008
 21
-7.999989
  0
LINE
  8
0
 10
60.000008
 20
-4.999993
 11
70.000000
 21
-4.999993
  0
LINE
  8
0
 10
70.000000
 20
1.339753
 11
83.660278
 21
1.339753
  0
LINE
  8
0
 10
70.000000
 20
-7.320503
 11
83.660278
 21
-7.320503
  0
LINE
  8
0
 10
83.660271
 20
-7.320495
 11
85.000015
 21
-4.999994
  0
LINE
  8
0
 10
70.000000
 20
27.320522
 11
70.000000
 21
-7.320499
  0
LINE
  8
0
 10
85.000000
 20
25.000031
 11
85.000000
 21
-4.999993
  0
LINE
  8
0
 10
86.494446
 20
2.205777
 11
94.505585
 21
2.205777
  0
LINE
  8
0
 10
86.494446
 20
-5.588449
 11
94.505585
 21
-5.588449
  0
LINE
  8
0
 10
85.000069
 20
-2.999978
 11
86.494514
 21
-5.588434
  0
LINE
  8
0
 10
94.505615
 20
-5.588479
 11
96.000069
 21
-3.000023
  0
LINE
  8
0
 10
96.000031
 20
23.000050
 11
96.000031
 21
-2.999991
  0
LINE
  8
0
 10
57.000000
 20
28.000008
 11
57.000000
 21
-7.999992
  0
LINE
  8
0
 10
60.000008
 20
28.000008
 11
60.000008
 21
-7.999992
  0
LINE
  8
0
 10
99.000031
 20
18.000008
 11
99.000031
 21
2.000009
  0
LINE
  8
0
 10
99.000031
 20
2.000021
 11
98.000031
 21
1.000020
  0
LINE
  8
0
 62
     2
 10
96.000031
 20
1.750010
 11
98.750000
 21
1.750010
  0
LINE
  8
0
 10
96.000031
 20
1.000010
 11
98.000015
 21
1.000010
  0
LINE
  8
0
 10
98.000015
 20
19.000011
 11
98.000015
 21
1.000010
  0
LINE
  8
0
 10
47.000000
 20
58.000008
 11
47.799988
 21
58.000008
  0
LINE
  8
0
 10
47.799995
 20
58.000008
 11
47.799995
 21
40.000008
  0
LINE
  8
0
 10
53.000015
 20
55.400009
 11
53.000015
 21
42.600006
  0
LINE
  8
0
 10
47.000000
 20
40.000008
 11
47.799988
 21
40.000008
  0
LINE
  8
0
 10
47.000000
 20
-19.999992
 11
47.799988
 21
-19.999992
  0
LINE
  8
0
 10
47.799995
 20
-19.999992
 11
47.799995
 21
-37.999992
  0
LINE
  8
0
 10
53.000015
 20
-22.599991
 11
53.000015
 21
-35.399990
  0
LINE
  8
0
 10
47.000000
 20
-37.999992
 11
47.799988
 21
-37.999992
  0
LINE
  8
0
 10
47.000000
 20
20.000008
 11
57.000038
 21
20.000008
  0
LINE
  8
0
 10
57.000038
 20
28.000008
 11
60.000008
 21
28.000008
  0
LINE
  8
0
 10
60.000008
 20
25.000008
 11
70.000000
 21
25.000008
  0
LINE
  8
0
 10
70.000000
 20
18.660259
 11
83.660278
 21
18.660259
  0
LINE
  8
0
 10
70.000000
 20
27.320522
 11
83.660278
 21
27.320522
  0
LINE
  8
0
 10
83.660301
 20
27.320509
 11
85.000038
 21
25.000017
  0
LINE
  8
0
 10
86.494446
 20
17.794243
 11
94.505585
 21
17.794243
  0
LINE
  8
0
 10
86.494446
 20
25.588463
 11
94.505585
 21
25.588463
  0
LINE
  8
0
 10
85.000092
 20
22.999998
 11
86.494537
 21
25.588455
  0
LINE
  8
0
 10
94.505646
 20
25.588480
 11
96.000092
 21
23.000023
  0
LINE
  8
0
 10
98.999985
 20
17.999981
 11
97.999977
 21
18.999992
  0
LINE
  8
0
 62
     2
 10
96.000031
 20
18.250011
 11
98.750000
 21
18.250011
  0
LINE
  8
0
 10
96.000031
 20
19.000011
 11
98.000015
 21
19.000011
  0
LINE
  8
0
 10
-26.999985
 20
0.000009
 11
-22.000011
 21
0.000009
  0
LINE
  8
0
 10
-26.999985
 20
20.000008
 11
-21.999989
 21
20.000008
  0
LINE
  8
0
  6
CENTER
 62
     2
 10
-47.853737
 20
-50.999989
 11
-19.305767
 21
-50.999989
  0
LINE
  8
0
 10
-43.999977
 20
-69.999992
 11
-27.999985
 21
-69.999992
  0
LINE
  8
0
 10
-26.999985
 20
-68.999977
 11
-26.999985
 21
88.571350
  0
LINE
  8
0
  6
CENTER
 62
     2
 10
-47.853737
 20
71.000031
 11
-19.477867
 21
71.000031
  0
LINE
  8
0
 10
-43.571426
 20
90.000008
 11
-28.428558
 21
90.000008
  0
LINE
  8
0
 10
-45.000000
 20
-68.999977
 11
-45.000000
 21
88.571442
  0
LINE
  8
0
 62
     2
 10
-26.999989
 20
11.452854
 11
-25.000034
 21
5.641127
  0
LINE
  8
0
 62
     2
 10
-24.999971
 20
14.358850
 11
-26.999960
 21
8.547019
  0
LINE
  8
0
 10
-26.999985
 20
5.641095
 11
-24.999977
 21
5.641095
  0
LINE
  8
0
 10
-44.999893
 20
-68.999908
 11
-43.999882
 21
-69.999916
  0
LINE
  8
0
 10
-27.999916
 20
-70.000015
 11
-26.999929
 21
-69.000023
  0
LINE
  8
0
 10
-28.428608
 20
89.999954
 11
-27.000038
 21
88.571373
  0
LINE
  8
0
 10
-43.571304
 20
89.999901
 11
-44.999882
 21
88.571327
  0
LINE
  8
0
 10
-24.999977
 20
14.358880
 11
-24.999977
 21
5.641118
  0
LINE
  8
0
 10
-21.499981
 20
91.000031
 11
34.500015
 21
91.000031
  0
LINE
  8
0
 10
-21.999989
 20
87.999977
 11
35.000000
 21
87.999977
  0
LINE
  8
0
  6
CENTER
 62
     2
 10
-22.090931
 20
49.000015
 11
-5.293381
 21
49.000015
  0
LINE
  8
0
 10
34.500057
 20
91.000023
 11
35.000057
 21
90.500038
  0
LINE
  8
0
 10
-21.499985
 20
91.000099
 11
-21.999987
 21
90.500114
  0
LINE
  8
0
 10
-21.999989
 20
72.649979
 11
35.000000
 21
72.649979
  0
LINE
  8
0
 10
-21.999989
 20
67.350037
 11
35.000000
 21
67.350037
  0
LINE
  8
0
 10
-21.999989
 20
34.500023
 11
35.000000
 21
34.500023
  0
LINE
  8
0
 10
-21.999989
 20
34.000015
 11
35.000000
 21
34.000015
  0
LINE
  8
0
 10
-21.999989
 20
24.999989
 11
35.000000
 21
24.999989
  0
LINE
  8
0
 10
-21.999989
 20
21.799999
 11
35.000000
 21
21.799999
  0
LINE
  8
0
 10
-26.999985
 20
14.358857
 11
-24.999977
 21
14.358857
  0
LINE
  8
0
  6
CENTER
 62
     2
 10
-13.999981
 20
57.596184
 11
-13.999981
 21
40.297905
  0
LINE
  8
0
  6
CENTER
 62
     2
 10
6.000023
 20
57.699158
 11
6.000023
 21
40.812737
  0
LINE
  8
0
  6
CENTER
 62
     2
 10
-2.723801
 20
49.000015
 11
14.574474
 21
49.000015
  0
LINE
  8
0
  6
CENTER
 62
     2
 10
-49.145462
 20
10.000009
 11
103.813812
 21
10.000009
  0
LINE
  8
0
 10
-21.999985
 20
90.500061
 11
-21.999985
 21
-70.499985
  0
LINE
  8
0
 10
-21.500008
 20
-70.999992
 11
34.500000
 21
-70.999992
  0
LINE
  8
0
 10
-22.000004
 20
-67.999977
 11
34.999992
 21
-67.999977
  0
LINE
  8
0
  6
CENTER
 62
     2
 10
-3.090977
 20
-28.999996
 11
14.617241
 21
-28.999996
  0
LINE
  8
0
 10
35.000008
 20
90.500061
 11
35.000008
 21
-70.499985
  0
LINE
  8
0
  6
CENTER
 62
     2
 10
-22.952763
 20
-28.999996
 11
-5.302803
 21
-28.999996
  0
LINE
  8
0
  6
CENTER
 62
     2
 10
-13.999996
 20
-20.386826
 11
-13.999996
 21
-37.719131
  0
LINE
  8
0
  6
CENTER
 62
     2
 10
6.000004
 20
-20.386826
 11
6.000004
 21
-38.046150
  0
LINE
  8
0
  6
CENTER
 62
     2
 10
30.373985
 20
-49.999992
 11
12.606789
 21
-49.999992
  0
LINE
  8
0
  6
CENTER
 62
     2
 10
-4.999992
 20
-41.548180
 11
-4.999992
 21
-58.997742
  0
LINE
  8
0
  6
DASHED
 62
     2
 10
-6.299884
 20
-69.999786
 11
-5.299903
 21
-70.999763
  0
LINE
  8
0
  6
DASHED
 62
     2
 10
-18.699802
 20
-71.000023
 11
-17.699793
 21
-70.000015
  0
LINE
  8
0
  6
DASHED
 62
     2
 10
-6.299995
 20
-69.999992
 11
-17.700012
 21
-69.999992
  0
LINE
  8
0
  6
DASHED
 62
     2
 10
-17.700012
 20
-66.525887
 11
-17.700012
 21
-69.999969
  0
LINE
  8
0
  6
DASHED
 62
     2
 10
-18.433008
 20
-66.525887
 11
-18.546131
 21
-70.845871
  0
LINE
  8
0
  6
DASHED
 62
     2
 10
-6.299976
 20
-66.525887
 11
-6.299976
 21
-69.999969
  0
LINE
  8
0
  6
DASHED
 62
     2
 10
-5.567111
 20
-66.525887
 11
-5.449953
 21
-70.999977
  0
LINE
  8
0
  6
CENTER
 62
     2
 10
4.000015
 20
-65.664589
 11
4.000015
 21
-73.195724
  0
LINE
  8
0
  6
DASHED
 62
     2
 10
9.700193
 20
-69.999763
 11
10.700173
 21
-70.999748
  0
LINE
  8
0
  6
DASHED
 62
     2
 10
-2.700037
 20
-71.000038
 11
-1.700034
 21
-70.000038
  0
LINE
  8
0
  6
DASHED
 62
     2
 10
9.700012
 20
-69.999992
 11
-1.700016
 21
-69.999992
  0
LINE
  8
0
  6
DASHED
 62
     2
 10
-1.700016
 20
-66.525887
 11
-1.700016
 21
-69.999969
  0
LINE
  8
0
  6
DASHED
 62
     2
 10
-2.433103
 20
-66.525879
 11
-2.546229
 21
-70.845970
  0
LINE
  8
0
  6
CENTER
 62
     2
 10
21.000008
 20
-41.548180
 11
21.000008
 21
-60.333015
  0
LINE
  8
0
 10
35.000156
 20
-70.500038
 11
34.500122
 21
-71.000076
  0
LINE
  8
0
 10
-21.999819
 20
-70.499870
 11
-21.499828
 21
-70.999855
  0
LINE
  8
0
  6
CENTER
 62
     2
 10
2.694481
 20
-49.999992
 11
-12.716198
 21
-49.999992
  0
LINE
  8
0
 10
-22.000004
 20
-1.800004
 11
34.999992
 21
-1.800004
  0
LINE
  8
0
 10
-22.000004
 20
-4.999991
 11
34.999992
 21
-4.999991
  0
LINE
  8
0
 10
-22.000004
 20
-13.999950
 11
34.999992
 21
-13.999950
  0
LINE
  8
0
 10
-22.000004
 20
-14.499981
 11
34.999992
 21
-14.499981
  0
LINE
  8
0
  6
CENTER
 62
     2
 10
-11.999981
 20
-65.449265
 11
-11.999981
 21
-73.098160
  0
LINE
  8
0
  6
DASHED
 62
     2
 10
9.700020
 20
-66.525887
 11
9.700020
 21
-69.999969
  0
LINE
  8
0
  6
DASHED
 62
     2
 10
10.432528
 20
-66.525879
 11
10.549685
 21
-70.999992
  0
LINE
  8
0
 10
-26.999985
 20
81.000031
 11
-22.000011
 21
81.000031
  0
LINE
  8
0
 10
-26.999985
 20
61.000008
 11
-22.000011
 21
61.000008
  0
LINE
  8
0
 10
-26.999985
 20
-41.000011
 11
-22.000011
 21
-41.000011
  0
LINE
  8
0
 10
-26.999985
 20
-60.999992
 11
-22.000011
 21
-60.999992
  0
LINE
  8
0
  6
PHANTOM
 62
     3
 10
-3.250000
 20
-61.393745
 11
-3.250000
 21
-80.999992
  0
LINE
  8
0
  6
PHANTOM
 62
     3
 10
11.437500
 20
-39.393745
 11
11.437500
 21
-61.393745
  0
LINE
  8
0
  6
PHANTOM
 62
     3
 10
-3.250000
 20
-61.393745
 11
11.437500
 21
-61.393745
  0
LINE
  8
0
  6
PHANTOM
 62
     3
 10
-4.375000
 20
119.999977
 11
-4.375000
 21
-39.393745
  0
LINE
  8
0
  6
PHANTOM
 62
     3
 10
23.343750
 20
107.999977
 11
23.343750
 21
-39.393745
  0
LINE
  8
0
  6
PHANTOM
 62
     3
 10
11.437500
 20
-39.393745
 11
23.343750
 21
-39.393745
  0
LINE
  8
0
  6
PHANTOM
 62
     3
 10
-4.375000
 20
-39.393745
 11
4.250000
 21
-39.393745
  0
LINE
  8
0
  6
PHANTOM
 62
     3
 10
4.250000
 20
-39.393745
 11
4.250000
 21
-59.393745
  0
LINE
  8
0
  6
PHANTOM
 62
     3
 10
-4.250000
 20
-59.393745
 11
-4.250000
 21
-80.999992
  0
LINE
  8
0
  6
PHANTOM
 62
     3
 10
-4.250000
 20
-59.393745
 11
4.250000
 21
-59.393745
  0
LINE
  8
0
 10
-155.000000
 20
91.000000
 11
-225.000000
 21
91.000000
  0
LINE
  8
0
 10
-155.000000
 20
-71.000000
 11
-225.000000
 21
-71.000000
  0
LINE
  8
0
 10
-152.000000
 20
87.999992
 11
-152.000000
 21
72.649994
  0
LINE
  8
0
 10
-155.000137
 20
90.999908
 11
-152.000107
 21
87.999878
  0
LINE
  8
0
 10
-224.999908
 20
90.999809
 11
-227.999908
 21
87.999802
  0
LINE
  8
0
 10
-228.000183
 20
-68.000160
 11
-225.000183
 21
-71.000153
  0
LINE
  8
0
 10
-152.000000
 20
-14.499991
 11
-152.000000
 21
-67.999992
  0
LINE
  8
0
  6
CENTER
 62
     2
 10
-231.542542
 20
9.999999
 11
-149.070450
 21
9.999999
  0
LINE
  8
0
 10
-228.000015
 20
-14.500035
 11
-228.000015
 21
-45.849960
  0
LINE
  8
0
 10
-152.000183
 20
-67.999741
 11
-155.000183
 21
-70.999718
  0
LINE
  8
0
 10
-228.000015
 20
74.149979
 11
-228.000015
 21
88.000076
  0
LINE
  8
0
 10
-228.000015
 20
34.500015
 11
-228.000015
 21
65.849983
  0
LINE
  8
0
 10
-152.500031
 20
21.799992
 11
-153.000031
 21
21.799992
  0
LINE
  8
0
 10
-152.999832
 20
21.799913
 11
-153.499817
 21
21.299919
  0
LINE
  8
0
 10
-153.500031
 20
21.300007
 11
-154.000000
 21
21.300007
  0
LINE
  8
0
 10
-153.500031
 20
25.499981
 11
-154.000000
 21
25.499981
  0
LINE
  8
0
 10
-152.999817
 20
25.000183
 11
-153.499817
 21
25.500172
  0
LINE
  8
0
 10
-152.500031
 20
24.999981
 11
-153.000031
 21
24.999981
  0
LINE
  8
0
 10
-152.500031
 20
34.000008
 11
-152.500031
 21
24.999981
  0
LINE
  8
0
 10
-152.500031
 20
21.799992
 11
-152.500031
 21
-1.799993
  0
LINE
  8
0
 10
-226.000000
 20
65.849983
 11
-228.000015
 21
65.849983
  0
LINE
  8
0
 10
-226.000000
 20
74.149979
 11
-228.000015
 21
74.149979
  0
LINE
  8
0
 10
-152.000000
 20
72.649994
 11
-154.000000
 21
72.649994
  0
LINE
  8
0
 10
-152.000000
 20
67.350006
 11
-154.000000
 21
67.350006
  0
LINE
  8
0
 10
-152.000000
 20
67.350006
 11
-152.000000
 21
34.500015
  0
LINE
  8
0
 10
-152.500092
 20
34.000034
 11
-152.000046
 21
34.500088
  0
LINE
  8
0
 10
-152.500031
 20
-1.799993
 11
-153.000031
 21
-1.799993
  0
LINE
  8
0
 10
-152.999939
 20
-1.799905
 11
-153.499924
 21
-1.299918
  0
LINE
  8
0
 10
-153.500031
 20
-1.300002
 11
-154.000000
 21
-1.300002
  0
LINE
  8
0
 10
-153.500031
 20
-5.500009
 11
-154.000000
 21
-5.500009
  0
LINE
  8
0
 10
-152.999832
 20
-5.000237
 11
-153.499832
 21
-5.500246
  0
LINE
  8
0
 10
-152.500031
 20
-5.000001
 11
-153.000031
 21
-5.000001
  0
LINE
  8
0
 10
-152.500031
 20
-13.999984
 11
-152.500031
 21
-5.000001
  0
LINE
  8
0
 10
-152.500092
 20
-14.000030
 11
-152.000046
 21
-14.500063
  0
LINE
  8
0
 10
-227.499954
 20
21.799992
 11
-227.000000
 21
21.799992
  0
LINE
  8
0
 10
-227.000122
 20
21.799839
 11
-226.500137
 21
21.299858
  0
LINE
  8
0
 10
-226.499985
 20
21.300007
 11
-226.000000
 21
21.300007
  0
LINE
  8
0
 10
-226.499985
 20
25.499981
 11
-226.000000
 21
25.499981
  0
LINE
  8
0
 10
-227.000198
 20
25.000198
 11
-226.500198
 21
25.500200
  0
LINE
  8
0
 10
-227.499954
 20
24.999981
 11
-227.000000
 21
24.999981
  0
LINE
  8
0
 10
-227.499985
 20
34.000008
 11
-227.499985
 21
24.999981
  0
LINE
  8
0
 10
-227.499985
 20
21.799992
 11
-227.499985
 21
-1.799993
  0
LINE
  8
0
 10
-227.499939
 20
-14.000038
 11
-227.999969
 21
-14.500055
  0
LINE
  8
0
 10
-227.500000
 20
33.999969
 11
-228.000015
 21
34.499996
  0
LINE
  8
0
 10
-227.499954
 20
-1.799993
 11
-227.000000
 21
-1.799993
  0
LINE
  8
0
 10
-227.000183
 20
-1.799936
 11
-226.500168
 21
-1.299918
  0
LINE
  8
0
 10
-226.499985
 20
-1.300002
 11
-226.000000
 21
-1.300002
  0
LINE
  8
0
 10
-226.499985
 20
-5.500009
 11
-226.000000
 21
-5.500009
  0
LINE
  8
0
 10
-227.000198
 20
-5.000228
 11
-226.500198
 21
-5.500229
  0
LINE
  8
0
 10
-227.499954
 20
-5.000001
 11
-227.000000
 21
-5.000001
  0
LINE
  8
0
 10
-227.499985
 20
-13.999984
 11
-227.499985
 21
-5.000001
  0
LINE
  8
0
 10
-228.000015
 20
-54.150002
 11
-228.000015
 21
-68.000053
  0
LINE
  8
0
 10
-226.000000
 20
-45.849960
 11
-228.000015
 21
-45.849960
  0
LINE
  8
0
 10
-226.000000
 20
-54.150024
 11
-228.000015
 21
-54.150024
  0
LINE
  8
0
 10
-225.000000
 20
-70.000000
 11
-155.000000
 21
-70.000000
  0
LINE
  8
0
 10
-225.000000
 20
90.000000
 11
-155.000000
 21
90.000000
  0
LINE
  8
0
 10
-224.999924
 20
89.999924
 11
-225.999924
 21
88.999916
  0
LINE
  8
0
 10
-225.999939
 20
-68.999969
 11
-224.999939
 21
-69.999969
  0
LINE
  8
0
 10
-154.000061
 20
-68.999939
 11
-155.000061
 21
-69.999939
  0
LINE
  8
0
 10
-154.999908
 20
90.000053
 11
-153.999908
 21
89.000053
  0
LINE
  8
0
  6
CENTER
 62
     2
 10
-216.000000
 20
-63.102783
 11
-216.000000
 21
-48.733955
  0
LINE
  8
0
  6
CENTER
 62
     2
 10
-208.310684
 20
-56.000000
 11
-223.242172
 21
-56.000000
  0
LINE
  8
0
  6
CENTER
 62
     2
 10
-207.814362
 20
76.000000
 11
-223.242172
 21
76.000000
  0
LINE
  8
0
  6
CENTER
 62
     2
 10
-163.999985
 20
-63.298279
 11
-163.999985
 21
-48.733955
  0
LINE
  8
0
 10
-154.000000
 20
89.000000
 11
-154.000000
 21
-69.000000
  0
LINE
  8
0
 10
-226.000000
 20
89.000000
 11
-226.000000
 21
-69.000000
  0
LINE
  8
0
 10
-189.999939
 20
74.464027
 11
-192.999954
 21
72.731972
  0
LINE
  8
0
 10
-193.000015
 20
72.732048
 11
-193.000015
 21
69.267952
  0
LINE
  8
0
 10
-190.000061
 20
67.535919
 11
-193.000061
 21
69.267982
  0
LINE
  8
0
 10
-187.000046
 20
69.268059
 11
-190.000031
 21
67.536011
  0
LINE
  8
0
 10
-186.999985
 20
72.732048
 11
-186.999985
 21
69.267952
  0
LINE
  8
0
 10
-189.999969
 20
74.464081
 11
-186.999969
 21
72.732033
  0
LINE
  8
0
 10
-190.000046
 20
-47.536015
 11
-187.000046
 21
-49.268074
  0
LINE
  8
0
 10
-189.999924
 20
-47.535892
 11
-192.999954
 21
-49.267967
  0
LINE
  8
0
 10
-193.000015
 20
-49.267952
 11
-193.000015
 21
-52.732048
  0
LINE
  8
0
 10
-189.999985
 20
-54.464069
 11
-193.000031
 21
-52.731995
  0
LINE
  8
0
 10
-187.000015
 20
-52.731991
 11
-190.000015
 21
-54.464050
  0
LINE
  8
0
 10
-186.999985
 20
-49.267952
 11
-186.999985
 21
-52.732048
  0
LINE
  8
0
 10
-190.000015
 20
13.464067
 11
-187.000031
 21
11.732010
  0
LINE
  8
0
 10
-189.999939
 20
13.464083
 11
-192.999969
 21
11.732009
  0
LINE
  8
0
 10
-193.000015
 20
11.732047
 11
-193.000015
 21
8.267955
  0
LINE
  8
0
 10
-190.000015
 20
6.535927
 11
-193.000046
 21
8.268001
  0
LINE
  8
0
 10
-187.000031
 20
8.268067
 11
-190.000046
 21
6.536003
  0
LINE
  8
0
 10
-186.999985
 20
11.732047
 11
-186.999985
 21
8.267955
  0
LINE
  8
0
  6
CENTER
 62
     2
 10
-190.000000
 20
95.222458
 11
-190.000000
 21
-75.657166
  0
LINE
  8
0
  6
CENTER
 62
     2
 10
-216.000000
 20
83.088882
 11
-216.000000
 21
68.682777
  0
LINE
  8
0
  6
CENTER
 62
     2
 10
-171.566666
 20
-56.000000
 11
-156.595612
 21
-56.000000
  0
LINE
  8
0
  6
CENTER
 62
     2
 10
-171.849152
 20
76.000000
 11
-156.595612
 21
76.000000
  0
LINE
  8
0
  6
CENTER
 62
     2
 10
-163.999985
 20
83.371353
 11
-163.999985
 21
68.682777
  0
LINE
  8
0
  6
CENTER
 62
     2
 10
-202.187592
 20
71.000000
 11
-178.341888
 21
71.000000
  0
LINE
  8
0
  6
CENTER
 62
     2
 10
-202.187592
 20
-50.999996
 11
-178.341888
 21
-50.999996
  0
LINE
  8
0
 10
210.000000
 20
-27.267975
 11
210.000000
 21
-30.732071
  0
LINE
  8
0
 10
204.000031
 20
-27.267975
 11
204.000031
 21
-30.732071
  0
LINE
  8
0
 10
204.000092
 20
-30.732002
 11
207.000092
 21
-32.464054
  0
LINE
  8
0
 10
207.000046
 20
-25.535851
 11
210.000031
 21
-27.267904
  0
LINE
  8
0
 10
207.000092
 20
-32.464218
 11
210.000061
 21
-30.732172
  0
LINE
  8
0
 10
204.000107
 20
-27.268066
 11
207.000092
 21
-25.536028
  0
LINE
  8
0
 10
160.000000
 20
50.732033
 11
160.000000
 21
47.267929
  0
LINE
  8
0
 10
160.000092
 20
50.732010
 11
163.000061
 21
52.464054
  0
LINE
  8
0
 10
163.000061
 20
52.464252
 11
166.000061
 21
50.732201
  0
LINE
  8
0
 10
166.000031
 20
50.732033
 11
166.000031
 21
47.267929
  0
LINE
  8
0
 10
163.000076
 20
45.535851
 11
166.000031
 21
47.267876
  0
LINE
  8
0
 10
160.000092
 20
47.268097
 11
163.000076
 21
45.536049
  0
LINE
  8
0
 10
153.000015
 20
56.999977
 11
159.455704
 21
56.999977
  0
LINE
  8
0
 10
153.000061
 20
-37.000023
 11
203.455688
 21
-37.000023
  0
LINE
  8
0
 10
217.000061
 20
56.999985
 11
217.000061
 21
-37.000027
  0
LINE
  8
0
 10
153.000061
 20
56.999985
 11
153.000061
 21
-37.000027
  0
LINE
  8
0
 10
170.000015
 20
18.660236
 11
170.000015
 21
1.339724
  0
LINE
  8
0
 10
200.000015
 20
18.660236
 11
200.000015
 21
1.339724
  0
LINE
  8
0
 10
170.000031
 20
18.660217
 11
185.000046
 21
27.320480
  0
LINE
  8
0
 10
185.000076
 20
-7.320629
 11
200.000076
 21
1.339627
  0
LINE
  8
0
 10
185.000046
 20
27.320572
 11
200.000046
 21
18.660316
  0
LINE
  8
0
 10
170.000031
 20
1.339764
 11
185.000031
 21
-7.320493
  0
LINE
  8
0
 10
171.500031
 20
17.794212
 11
171.500031
 21
2.205746
  0
LINE
  8
0
 10
198.500031
 20
17.794212
 11
198.500031
 21
2.205746
  0
LINE
  8
0
 10
171.500031
 20
17.794134
 11
185.000046
 21
25.588375
  0
LINE
  8
0
 10
185.000092
 20
-5.588573
 11
198.500092
 21
2.205660
  0
LINE
  8
0
 10
185.000031
 20
25.588524
 11
198.500031
 21
17.794298
  0
LINE
  8
0
 10
171.500031
 20
2.205763
 11
185.000015
 21
-5.588443
  0
LINE
  8
0
  6
CENTER
 62
     2
 10
161.000000
 20
-65.305428
 11
161.000000
 21
-72.042938
  0
LINE
  8
0
 10
150.000000
 20
91.000000
 11
220.000015
 21
91.000000
  0
LINE
  8
0
 10
150.000000
 20
-71.000023
 11
220.000015
 21
-71.000023
  0
LINE
  8
0
  6
CENTER
 62
     2
 10
165.556717
 20
71.000000
 11
204.050613
 21
71.000000
  0
LINE
  8
0
  6
CENTER
 62
     2
 10
168.457825
 20
-51.000019
 11
201.911697
 21
-51.000019
  0
LINE
  8
0
 10
150.000137
 20
90.999931
 11
147.000092
 21
87.999886
  0
LINE
  8
0
 10
219.999771
 20
90.999832
 11
222.999771
 21
87.999825
  0
LINE
  8
0
 10
223.000198
 20
-68.000092
 11
220.000168
 21
-71.000114
  0
LINE
  8
0
 10
147.000031
 20
-14.500013
 11
147.000031
 21
-68.000015
  0
LINE
  8
0
 10
223.000000
 20
-14.500057
 11
223.000000
 21
-45.849983
  0
LINE
  8
0
 10
147.000137
 20
-67.999916
 11
150.000107
 21
-70.999870
  0
LINE
  8
0
 10
147.500031
 20
21.799969
 11
148.000031
 21
21.799969
  0
LINE
  8
0
 10
147.999969
 20
21.799934
 11
148.499985
 21
21.299910
  0
LINE
  8
0
 10
148.500046
 20
21.299984
 11
150.100021
 21
21.299984
  0
LINE
  8
0
 10
148.500046
 20
25.499966
 11
150.100021
 21
25.499966
  0
LINE
  8
0
 10
147.999878
 20
25.000126
 11
148.499893
 21
25.500147
  0
LINE
  8
0
 10
147.500031
 20
24.999958
 11
148.000031
 21
24.999958
  0
LINE
  8
0
 10
147.500061
 20
33.999985
 11
147.500061
 21
24.999958
  0
LINE
  8
0
 10
147.500061
 20
21.799969
 11
147.500061
 21
-1.800014
  0
LINE
  8
0
 10
147.499954
 20
33.999908
 11
146.999939
 21
34.499924
  0
LINE
  8
0
 10
147.500031
 20
-1.800014
 11
148.000031
 21
-1.800014
  0
LINE
  8
0
 10
147.999847
 20
-1.799937
 11
148.499832
 21
-1.299945
  0
LINE
  8
0
 10
148.500046
 20
-1.300028
 11
150.100021
 21
-1.300028
  0
LINE
  8
0
 10
148.500046
 20
-5.500031
 11
150.100021
 21
-5.500031
  0
LINE
  8
0
 10
147.999939
 20
-5.000131
 11
148.499924
 21
-5.500124
  0
LINE
  8
0
 10
147.500031
 20
-5.000023
 11
148.000031
 21
-5.000023
  0
LINE
  8
0
 10
147.500061
 20
-14.000006
 11
147.500061
 21
-5.000023
  0
LINE
  8
0
 10
147.499985
 20
-14.000016
 11
146.999939
 21
-14.500061
  0
LINE
  8
0
 10
222.499985
 20
21.799969
 11
221.999985
 21
21.799969
  0
LINE
  8
0
 10
222.000168
 20
21.799725
 11
221.500168
 21
21.299725
  0
LINE
  8
0
 10
221.499969
 20
21.299984
 11
219.899994
 21
21.299984
  0
LINE
  8
0
 10
221.499969
 20
25.499966
 11
219.899994
 21
25.499966
  0
LINE
  8
0
 10
222.000275
 20
25.000275
 11
221.500305
 21
25.500257
  0
LINE
  8
0
 10
222.499985
 20
24.999958
 11
221.999985
 21
24.999958
  0
LINE
  8
0
 10
222.500000
 20
33.999985
 11
222.500000
 21
24.999958
  0
LINE
  8
0
 10
222.500000
 20
21.799969
 11
222.500000
 21
-1.800014
  0
LINE
  8
0
 10
222.499924
 20
-14.000108
 11
222.999939
 21
-14.500125
  0
LINE
  8
0
 10
222.499969
 20
34.000095
 11
222.999985
 21
34.500111
  0
LINE
  8
0
 10
222.499985
 20
-1.800014
 11
221.999985
 21
-1.800014
  0
LINE
  8
0
 10
222.000305
 20
-1.799842
 11
221.500305
 21
-1.299836
  0
LINE
  8
0
 10
221.499969
 20
-1.300028
 11
219.899994
 21
-1.300028
  0
LINE
  8
0
 10
221.499969
 20
-5.500031
 11
219.899994
 21
-5.500031
  0
LINE
  8
0
 10
222.000290
 20
-5.000345
 11
221.500290
 21
-5.500347
  0
LINE
  8
0
 10
222.499985
 20
-5.000023
 11
221.999985
 21
-5.000023
  0
LINE
  8
0
 10
222.500000
 20
-14.000006
 11
222.500000
 21
-5.000023
  0
LINE
  8
0
 10
223.000000
 20
-54.150024
 11
223.000000
 21
-68.000053
  0
LINE
  8
0
 10
218.500000
 20
-54.150024
 11
218.500000
 21
-56.650024
  0
LINE
  8
0
 10
211.500000
 20
-43.349983
 11
211.500000
 21
-56.650024
  0
LINE
  8
0
 10
218.500000
 20
-43.350048
 11
218.500000
 21
-45.850048
  0
LINE
  8
0
 10
211.500015
 20
-56.650047
 11
218.500000
 21
-56.650047
  0
LINE
  8
0
 10
211.500015
 20
-43.349983
 11
218.500000
 21
-43.349983
  0
LINE
  8
0
 10
218.500000
 20
-45.849983
 11
223.000000
 21
-45.849983
  0
LINE
  8
0
 10
218.500000
 20
-54.150047
 11
223.000000
 21
-54.150047
  0
LINE
  8
0
  6
CENTER
 62
     2
 10
155.857208
 20
81.999969
 11
170.296158
 21
81.999969
  0
LINE
  8
0
  6
CENTER
 62
     2
 10
155.857208
 20
-62.000015
 11
170.296158
 21
-62.000015
  0
LINE
  8
0
  6
CENTER
 62
     2
 10
163.000015
 20
-55.000023
 11
163.000015
 21
-69.000008
  0
LINE
  8
0
  6
CENTER
 62
     2
 10
207.000000
 20
-55.000023
 11
207.000000
 21
-69.000008
  0
LINE
  8
0
 10
186.499985
 20
-71.000015
 11
186.499985
 21
-64.919434
  0
LINE
  8
0
 10
183.500000
 20
-71.000015
 11
183.500000
 21
-64.919434
  0
LINE
  8
0
 10
186.499985
 20
91.000000
 11
186.499985
 21
84.919411
  0
LINE
  8
0
 10
183.500000
 20
91.000000
 11
183.500000
 21
84.919411
  0
LINE
  8
0
 10
149.000015
 20
72.649948
 11
149.000015
 21
67.350006
  0
LINE
  8
0
 10
221.000000
 20
74.149933
 11
221.000000
 21
65.849937
  0
LINE
  8
0
 10
149.000015
 20
25.499966
 11
149.000015
 21
21.299984
  0
LINE
  8
0
 10
149.000015
 20
-1.300028
 11
149.000015
 21
-5.500031
  0
LINE
  8
0
 10
221.000000
 20
-45.849983
 11
221.000000
 21
-54.150047
  0
LINE
  8
0
 10
221.000000
 20
-1.300028
 11
221.000000
 21
-5.500031
  0
LINE
  8
0
 10
221.000000
 20
25.499966
 11
221.000000
 21
21.299984
  0
LINE
  8
0
 10
147.000031
 20
87.999947
 11
147.000031
 21
72.649948
  0
LINE
  8
0
 10
147.000000
 20
72.649948
 11
150.000000
 21
72.649948
  0
LINE
  8
0
 10
150.000000
 20
74.149979
 11
150.000000
 21
72.649948
  0
LINE
  8
0
 10
154.500031
 20
74.149979
 11
154.500031
 21
65.849976
  0
LINE
  8
0
 10
150.000000
 20
67.350006
 11
150.000000
 21
65.849976
  0
LINE
  8
0
 10
147.000000
 20
67.350006
 11
150.000000
 21
67.350006
  0
LINE
  8
0
 10
147.000031
 20
67.350006
 11
147.000031
 21
34.499992
  0
LINE
  8
0
 10
211.500015
 20
76.649933
 11
218.500000
 21
76.649933
  0
LINE
  8
0
 10
211.500000
 20
63.349937
 11
211.500000
 21
76.649933
  0
LINE
  8
0
 10
211.500015
 20
63.349937
 11
218.500000
 21
63.349937
  0
LINE
  8
0
 10
218.500000
 20
63.350021
 11
218.500000
 21
65.850021
  0
LINE
  8
0
 10
218.500000
 20
65.849937
 11
223.000000
 21
65.849937
  0
LINE
  8
0
 10
223.000000
 20
34.499992
 11
223.000000
 21
65.849937
  0
LINE
  8
0
 10
218.500000
 20
74.149933
 11
223.000000
 21
74.149933
  0
LINE
  8
0
 10
218.500000
 20
74.150024
 11
218.500000
 21
76.650024
  0
LINE
  8
0
 10
223.000000
 20
74.149933
 11
223.000000
 21
88.000031
  0
LINE
  8
0
  6
CENTER
 62
     2
 10
163.000015
 20
89.391548
 11
163.000015
 21
74.520332
  0
LINE
  8
0
  6
CENTER
 62
     2
 10
207.000000
 20
89.194580
 11
207.000000
 21
74.520332
  0
LINE
  8
0
  6
CENTER
 62
     2
 10
200.504501
 20
-62.000015
 11
213.439728
 21
-62.000015
  0
LINE
  8
0
  6
CENTER
 62
     2
 10
199.660873
 20
81.999969
 11
214.532043
 21
81.999969
  0
LINE
  8
0
  6
DASHED
 62
     2
 10
155.300049
 20
-66.525917
 11
155.300049
 21
-70.000092
  0
LINE
  8
0
  6
DASHED
 62
     2
 10
166.699997
 20
-70.000084
 11
155.300018
 21
-70.000084
  0
LINE
  8
0
  6
DASHED
 62
     2
 10
154.567276
 20
-66.525917
 11
154.454147
 21
-70.846123
  0
LINE
  8
0
  6
DASHED
 62
     2
 10
154.299911
 20
-70.999924
 11
155.299896
 21
-69.999947
  0
LINE
  8
0
  6
DASHED
 62
     2
 10
166.699951
 20
-70.000130
 11
167.699951
 21
-71.000114
  0
LINE
  8
0
  6
DASHED
 62
     2
 10
167.432861
 20
-66.525909
 11
167.550018
 21
-71.000114
  0
LINE
  8
0
  6
DASHED
 62
     2
 10
166.700012
 20
-66.525917
 11
166.700012
 21
-70.000092
  0
LINE
  8
0
  6
CENTER
 62
     2
 10
151.625076
 20
48.999985
 11
174.375076
 21
48.999985
  0
LINE
  8
0
  6
CENTER
 62
     2
 10
163.000076
 20
60.374985
 11
163.000076
 21
37.624985
  0
LINE
  8
0
  6
CENTER
 62
     2
 10
164.480270
 20
-50.000023
 11
157.812469
 21
-50.000023
  0
LINE
  8
0
  6
CENTER
 62
     2
 10
161.000031
 20
-46.847252
 11
161.000031
 21
-53.176033
  0
LINE
  8
0
  6
CENTER
 62
     2
 10
208.663315
 20
69.999977
 11
218.500000
 21
69.999977
  0
LINE
  8
0
  6
CENTER
 62
     2
 10
150.000000
 20
69.999977
 11
157.370895
 21
69.999977
  0
LINE
  8
0
  6
CENTER
 62
     2
 10
207.937149
 20
-50.000023
 11
218.500000
 21
-50.000023
  0
LINE
  8
0
 10
166.544464
 20
56.999977
 11
217.000046
 21
56.999977
  0
LINE
  8
0
 10
210.544418
 20
-37.000023
 11
217.000046
 21
-37.000023
  0
LINE
  8
0
  6
CENTER
 62
     2
 10
140.704498
 20
9.999977
 11
225.027191
 21
9.999977
  0
LINE
  8
0
  6
CENTER
 62
     2
 10
185.000015
 20
96.785172
 11
185.000015
 21
-74.269432
  0
LINE
  8
0
  6
CENTER
 62
     2
 10
207.000061
 20
-17.625025
 11
207.000061
 21
-40.375023
  0
LINE
  8
0
  6
CENTER
 62
     2
 10
195.625061
 20
-29.000023
 11
218.375061
 21
-29.000023
  0
LINE
  8
0
 10
150.000000
 20
65.849976
 11
154.500031
 21
65.849976
  0
LINE
  8
0
 10
150.000000
 20
74.149979
 11
154.500031
 21
74.149979
  0
LINE
  8
0
 10
-281.250000
 20
195.500000
 11
282.099976
 21
195.500000
  0
LINE
  8
0
 10
-281.250000
 20
195.500000
 11
-281.250000
 21
-195.000000
  0
LINE
  8
0
 10
282.099976
 20
195.500000
 11
282.099976
 21
-195.000000
  0
LINE
  8
0
 10
-281.250000
 20
-195.000000
 11
282.099976
 21
-195.000000
  0
LINE
  8
0
 10
162.099976
 20
-175.000000
 11
162.099976
 21
-195.000000
  0
LINE
  8
0
 10
162.099976
 20
-175.000000
 11
282.099976
 21
-175.000000
  0
LINE
  8
0
 10
162.099976
 20
175.500000
 11
282.099976
 21
175.500000
  0
LINE
  8
0
 10
-281.250000
 20
175.500000
 11
-121.250000
 21
175.500000
  0
LINE
  8
0
 10
162.099976
 20
195.500000
 11
162.099976
 21
175.500000
  0
LINE
  8
0
 10
-121.250000
 20
195.500000
 11
-121.250000
 21
175.500000
  0
LINE
  8
0
 10
-271.250000
 20
-185.000000
 11
-31.250000
 21
-185.000000
  0
LINE
  8
0
 10
-271.250000
 20
-144.000000
 11
-271.250000
 21
-185.000000
  0
LINE
  8
0
 10
-231.250000
 20
-144.000000
 11
-231.250000
 21
-185.000000
  0
LINE
  8
0
 10
-271.250000
 20
-151.000000
 11
-235.001297
 21
-151.000000
  0
LINE
  8
0
 10
-271.250000
 20
-165.000000
 11
-31.250000
 21
-165.000000
  0
LINE
  8
0
 10
-271.250000
 20
-144.000000
 11
-31.250000
 21
-144.000000
  0
LINE
  8
0
 10
-231.250015
 20
-165.000015
 11
-235.001312
 21
-151.000000
  0
LINE
  8
0
 10
-211.250000
 20
-144.000000
 11
-211.250000
 21
-185.000000
  0
LINE
  8
0
 10
-191.250000
 20
-144.000000
 11
-191.250000
 21
-185.000000
  0
LINE
  8
0
 10
-171.250000
 20
-144.000000
 11
-171.250000
 21
-185.000000
  0
LINE
  8
0
 10
-151.250000
 20
-144.000000
 11
-151.250000
 21
-185.000000
  0
LINE
  8
0
 10
-131.250000
 20
-144.000000
 11
-131.250000
 21
-185.000000
  0
LINE
  8
0
 10
-111.250000
 20
-144.000000
 11
-111.250000
 21
-185.000000
  0
LINE
  8
0
 10
-271.250000
 20
-175.000000
 11
-31.250000
 21
-175.000000
  0
LINE
  8
0
 10
-91.250000
 20
-144.000000
 11
-91.250000
 21
-185.000000
  0
LINE
  8
0
 10
-71.250000
 20
-144.000000
 11
-71.250000
 21
-185.000000
  0
LINE
  8
0
 10
-51.250000
 20
-144.000000
 11
-51.250000
 21
-185.000000
  0
LINE
  8
0
 10
-31.250000
 20
-144.000000
 11
-31.250000
 21
-185.000000
  0
ARC
  8
0
 10
47.799995
 20
51.500015
 40
6.499999
 50
36.869877
 51
89.999969
  0
ARC
  8
0
 10
47.799995
 20
46.500015
 40
6.500000
 50
270.000031
 51
323.130127
  0
ARC
  8
0
 10
47.799995
 20
-26.499992
 40
6.499999
 50
36.869877
 51
89.999969
  0
ARC
  8
0
 10
47.799995
 20
-31.499992
 40
6.500000
 50
270.000031
 51
323.130127
  0
ARC
  8
0
 10
-33.999977
 20
10.000009
 40
9.999995
 50
334.158081
 51
25.841825
  0
CIRCLE
  8
0
 10
-13.999981
 20
49.000015
 40
7.000000
  0
CIRCLE
  8
0
  6
DASHED
 62
     2
 10
-13.999981
 20
49.000015
 40
5.000000
  0
CIRCLE
  8
0
 10
-13.999981
 20
49.000015
 40
4.300000
  0
CIRCLE
  8
0
 10
6.000023
 20
49.000015
 40
7.000000
  0
CIRCLE
  8
0
 10
6.000023
 20
49.000015
 40
4.300000
  0
CIRCLE
  8
0
  6
DASHED
 62
     2
 10
6.000023
 20
49.000015
 40
5.000000
  0
CIRCLE
  8
0
 10
6.000004
 20
-28.999996
 40
4.300000
  0
CIRCLE
  8
0
 10
-13.999996
 20
-28.999996
 40
7.000000
  0
CIRCLE
  8
0
 10
-13.999996
 20
-28.999996
 40
4.300000
  0
CIRCLE
  8
0
  6
DASHED
 62
     2
 10
-13.999996
 20
-28.999996
 40
5.000000
  0
CIRCLE
  8
0
 10
6.000004
 20
-28.999996
 40
7.000000
  0
CIRCLE
  8
0
  6
DASHED
 62
     2
 10
6.000004
 20
-28.999996
 40
5.000000
  0
CIRCLE
  8
0
 10
21.000008
 20
-49.999992
 40
5.750000
  0
CIRCLE
  8
0
 10
-4.999992
 20
-49.999992
 40
5.750000
  0
CIRCLE
  8
0
 62
     2
 10
21.000008
 20
-49.999992
 40
6.600000
  0
CIRCLE
  8
0
 62
     2
 10
-4.999992
 20
-49.999992
 40
6.600000
  0
ARC
  8
0
 10
74.927521
 20
10.000010
 40
21.072512
 50
338.291962
 51
21.708019
  0
ARC
  8
0
 10
106.072510
 20
10.000010
 40
21.072508
 50
158.291992
 51
201.707993
  0
ARC
  8
0
 10
56.339874
 20
10.000008
 40
28.660126
 50
342.411957
 51
17.588034
  0
ARC
  8
0
 10
90.171509
 20
21.691353
 40
5.828524
 50
318.038788
 51
0.000000
  0
ARC
  8
0
 10
90.171494
 20
-1.691336
 40
5.828537
 50
0.000000
 51
41.961121
  0
ARC
  8
0
 10
90.828522
 20
21.691353
 40
5.828529
 50
179.999985
 51
221.961182
  0
ARC
  8
0
 10
77.332550
 20
22.990391
 40
7.667450
 50
325.615631
 51
0.000000
  0
ARC
  8
0
 10
77.332550
 20
-2.990374
 40
7.667450
 50
359.999939
 51
34.384312
  0
ARC
  8
0
 10
90.828522
 20
-1.691337
 40
5.828526
 50
138.038742
 51
179.999969
  0
CIRCLE
  8
0
 10
-190.000000
 20
9.999999
 40
8.750000
  0
CIRCLE
  8
0
 10
-190.000000
 20
-51.000000
 40
8.750000
  0
CIRCLE
  8
0
 10
-190.000000
 20
9.999999
 40
5.600000
  0
CIRCLE
  8
0
 10
-190.000000
 20
-51.000000
 40
5.600000
  0
CIRCLE
  8
0
 10
-190.000000
 20
9.999999
 40
10.000000
  0
CIRCLE
  8
0
 10
-190.000000
 20
-51.000000
 40
10.000000
  0
CIRCLE
  8
0
 10
-190.000000
 20
71.000000
 40
10.000000
  0
CIRCLE
  8
0
 62
     2
 10
-216.000000
 20
-56.000000
 40
5.000000
  0
CIRCLE
  8
0
 10
-216.000000
 20
-56.000000
 40
4.250000
  0
CIRCLE
  8
0
 10
-216.000000
 20
76.000000
 40
4.250000
  0
CIRCLE
  8
0
 62
     2
 10
-216.000000
 20
76.000000
 40
5.000000
  0
CIRCLE
  8
0
 10
-163.999985
 20
-56.000000
 40
4.250000
  0
CIRCLE
  8
0
 62
     2
 10
-163.999985
 20
-56.000000
 40
5.000000
  0
CIRCLE
  8
0
 10
-163.999985
 20
76.000000
 40
4.250000
  0
CIRCLE
  8
0
 62
     2
 10
-163.999985
 20
76.000000
 40
5.000000
  0
CIRCLE
  8
0
 10
-190.000000
 20
71.000000
 40
5.600000
  0
CIRCLE
  8
0
 10
-190.000000
 20
71.000000
 40
8.750000
  0
CIRCLE
  8
0
 10
185.000015
 20
-51.000019
 40
10.000000
  0
CIRCLE
  8
0
 10
185.000015
 20
71.000000
 40
10.000000
  0
ARC
  8
0
 10
185.000015
 20
9.999977
 40
32.500004
 50
169.936218
 51
190.063766
  0
CIRCLE
  8
0
 10
207.000061
 20
-29.000023
 40
8.750000
  0
CIRCLE
  8
0
 10
163.000076
 20
48.999985
 40
8.750000
  0
ARC
  8
0
 10
185.000015
 20
9.999977
 40
14.999994
 50
34.158081
 51
85.841904
  0
ARC
  8
0
 10
185.000015
 20
9.999977
 40
15.000000
 50
334.158081
 51
25.841928
  0
CIRCLE
  8
0
 10
185.000015
 20
9.999977
 40
13.500000
  0
ARC
  8
0
 10
185.000015
 20
9.999977
 40
15.000001
 50
94.158096
 51
145.841965
  0
ARC
  8
0
 10
185.000015
 20
9.999977
 40
14.999999
 50
154.158081
 51
205.841904
  0
ARC
  8
0
 10
185.000015
 20
9.999977
 40
15.000004
 50
214.158035
 51
265.841919
  0
ARC
  8
0
 10
185.000015
 20
9.999977
 40
15.000000
 50
274.158081
 51
325.841888
  0
CIRCLE
  8
0
 10
185.000015
 20
9.999977
 40
18.000000
  0
CIRCLE
  8
0
 10
163.000076
 20
48.999985
 40
6.400000
  0
CIRCLE
  8
0
 10
207.000061
 20
-29.000023
 40
6.400000
  0
ARC
  8
0
 10
185.000015
 20
9.999977
 40
32.499996
 50
349.937073
 51
10.062922
  0
CIRCLE
  8
0
 10
185.000015
 20
9.999977
 40
9.000000
  0
CIRCLE
  8
0
 62
     2
 10
185.000015
 20
9.999977
 40
8.250000
  0
ARC
  8
0
 10
219.899994
 20
-3.400007
 40
2.100000
 50
90.000000
 51
270.000000
  0
CIRCLE
  8
0
 10
185.000015
 20
-51.000019
 40
14.000001
  0
CIRCLE
  8
0
 10
185.000015
 20
71.000000
 40
14.000001
  0
ARC
  8
0
 10
150.100021
 20
23.399963
 40
2.100000
 50
270.000000
 51
90.000000
  0
ARC
  8
0
 10
150.100021
 20
-3.400007
 40
2.100000
 50
270.000000
 51
90.000000
  0
ARC
  8
0
 10
219.899994
 20
23.399963
 40
2.100000
 50
90.000000
 51
270.000000
  0
CIRCLE
  8
0
 10
163.000015
 20
81.999969
 40
4.250000
  0
CIRCLE
  8
0
 62
     2
 10
163.000015
 20
81.999969
 40
5.000000
  0
CIRCLE
  8
0
 10
163.000015
 20
-62.000015
 40
4.250000
  0
CIRCLE
  8
0
 62
     2
 10
163.000015
 20
-62.000015
 40
5.000000
  0
CIRCLE
  8
0
 10
207.000000
 20
81.999969
 40
4.250000
  0
CIRCLE
  8
0
 62
     2
 10
207.000000
 20
81.999969
 40
5.000000
  0
CIRCLE
  8
0
 10
207.000000
 20
-62.000015
 40
4.250000
  0
CIRCLE
  8
0
 62
     2
 10
207.000000
 20
-62.000015
 40
5.000000
  0
CIRCLE
  8
0
 10
161.000031
 20
-50.000023
 40
1.750000
  0
CIRCLE
  8
0
 10
161.000031
 20
-50.000023
 40
1.500000
  0
TEXT
  8
0
 10
196.250259
 20
180.830002
 40
6.300000
  1
Ver. 1.0
 50
0.000000
 41
1.052632
 51
0.000000
  7
STANDARD
  0
TEXT
  8
0
 10
167.564667
 20
-192.100006
 40
9.000000
  1
KOGANEI CORP.
 50
0.000000
 41
1.052632
 51
0.000000
  7
STANDARD
  0
TEXT
  8
0
 10
-274.349731
 20
180.830002
 40
6.300000
  1
JIG CYLINDER WITH GUIDE
 50
0.000000
 41
1.052632
 51
0.000000
  7
STANDARD
  0
TEXT
  8
0
 10
-270.049713
 20
155.830002
 40
6.300000
  1
MODEL:SGDAPQ63*ST(10)
 50
0.000000
 41
1.052632
 51
0.000000
  7
STANDARD
  0
TEXT
  8
0
 62
     3
 10
6.357143
 20
111.700005
 40
4.500000
  1
STRETCH LINE A
 50
0.000000
 41
1.052632
 51
0.000000
  7
STANDARD
  0
TEXT
  8
0
 62
     3
 10
-15.892656
 20
124.200005
 40
4.500000
  1
STRETCH LINE B
 50
0.000000
 41
1.052632
 51
0.000000
  7
STANDARD
  0
TEXT
  8
0
 10
-226.142654
 20
-157.550003
 40
4.500000
  1
10
 50
0.000000
 41
1.052632
 51
0.000000
  7
STANDARD
  0
TEXT
  8
0
 10
-206.142654
 20
-157.550003
 40
4.500000
  1
20
 50
0.000000
 41
1.052632
 51
0.000000
  7
STANDARD
  0
TEXT
  8
0
 10
-186.142654
 20
-157.550003
 40
4.500000
  1
30
 50
0.000000
 41
1.052632
 51
0.000000
  7
STANDARD
  0
TEXT
  8
0
 10
-166.142654
 20
-157.550003
 40
4.500000
  1
50
 50
0.000000
 41
1.052632
 51
0.000000
  7
STANDARD
  0
TEXT
  8
0
 10
-146.142654
 20
-157.550003
 40
4.500000
  1
75
 50
0.000000
 41
1.052632
 51
0.000000
  7
STANDARD
  0
TEXT
  8
0
 10
-128.392654
 20
-157.550003
 40
4.500000
  1
100
 50
0.000000
 41
1.052632
 51
0.000000
  7
STANDARD
  0
TEXT
  8
0
 10
-265.142670
 20
-150.550003
 40
4.500000
  1
STROKE
 50
0.000000
 41
1.052632
 51
0.000000
  7
STANDARD
  0
TEXT
  8
0
 10
-267.392670
 20
-156.324997
 40
4.500000
  1
STRETCH
 50
0.000000
 41
1.052632
 51
0.000000
  7
STANDARD
  0
TEXT
  8
0
 10
-267.392670
 20
-163.074997
 40
4.500000
  1
  PLACE
 50
0.000000
 41
1.052632
 51
0.000000
  7
STANDARD
  0
TEXT
  8
0
 10
-253.892654
 20
-173.050003
 40
4.500000
  1
A
 50
0.000000
 41
1.052632
 51
0.000000
  7
STANDARD
  0
TEXT
  8
0
 10
-253.892654
 20
-183.050003
 40
4.500000
  1
B
 50
0.000000
 41
1.052632
 51
0.000000
  7
STANDARD
  0
TEXT
  8
0
 10
-168.642654
 20
-142.050003
 40
4.500000
  1
STRETCH LIST
 50
0.000000
 41
1.052632
 51
0.000000
  7
STANDARD
  0
TEXT
  8
0
 10
-50.642658
 20
-144.050003
 40
4.500000
  1
(mm)
 50
0.000000
 41
1.052632
 51
0.000000
  7
STANDARD
  0
TEXT
  8
0
 10
-108.392654
 20
-157.550003
 40
4.500000
  1
125
 50
0.000000
 41
1.052632
 51
0.000000
  7
STANDARD
  0
TEXT
  8
0
 10
-88.392654
 20
-157.550003
 40
4.500000
  1
150
 50
0.000000
 41
1.052632
 51
0.000000
  7
STANDARD
  0
TEXT
  8
0
 10
-68.392654
 20
-157.550003
 40
4.500000
  1
175
 50
0.000000
 41
1.052632
 51
0.000000
  7
STANDARD
  0
TEXT
  8
0
 10
-48.392658
 20
-157.550003
 40
4.500000
  1
200
 50
0.000000
 41
1.052632
 51
0.000000
  7
STANDARD
  0
TEXT
  8
0
 10
-206.142654
 20
-183.050003
 40
4.500000
  1
10
 50
0.000000
 41
1.052632
 51
0.000000
  7
STANDARD
  0
TEXT
  8
0
 10
-186.142654
 20
-183.050003
 40
4.500000
  1
20
 50
0.000000
 41
1.052632
 51
0.000000
  7
STANDARD
  0
TEXT
  8
0
 10
-166.142654
 20
-183.050003
 40
4.500000
  1
40
 50
0.000000
 41
1.052632
 51
0.000000
  7
STANDARD
  0
TEXT
  8
0
 10
-146.142654
 20
-183.050003
 40
4.500000
  1
40
 50
0.000000
 41
1.052632
 51
0.000000
  7
STANDARD
  0
TEXT
  8
0
 10
-126.142654
 20
-183.050003
 40
4.500000
  1
40
 50
0.000000
 41
1.052632
 51
0.000000
  7
STANDARD
  0
TEXT
  8
0
 10
-106.142654
 20
-183.050003
 40
4.500000
  1
90
 50
0.000000
 41
1.052632
 51
0.000000
  7
STANDARD
  0
TEXT
  8
0
 10
-86.142654
 20
-183.050003
 40
4.500000
  1
90
 50
0.000000
 41
1.052632
 51
0.000000
  7
STANDARD
  0
TEXT
  8
0
 10
-66.142654
 20
-183.050003
 40
4.500000
  1
90
 50
0.000000
 41
1.052632
 51
0.000000
  7
STANDARD
  0
TEXT
  8
0
 10
-46.142658
 20
-183.050003
 40
4.500000
  1
90
 50
0.000000
 41
1.052632
 51
0.000000
  7
STANDARD
  0
TEXT
  8
0
 10
-223.892654
 20
-183.050003
 40
4.500000
  1
0
 50
0.000000
 41
1.052632
 51
0.000000
  7
STANDARD
  0
TEXT
  8
0
 10
-223.892654
 20
-173.050003
 40
4.500000
  1
0
 50
0.000000
 41
1.052632
 51
0.000000
  7
STANDARD
  0
TEXT
  8
0
 10
-48.392658
 20
-173.050003
 40
4.500000
  1
100
 50
0.000000
 41
1.052632
 51
0.000000
  7
STANDARD
  0
TEXT
  8
0
 10
-66.142654
 20
-173.050003
 40
4.500000
  1
75
 50
0.000000
 41
1.052632
 51
0.000000
  7
STANDARD
  0
TEXT
  8
0
 10
-86.142654
 20
-173.050003
 40
4.500000
  1
50
 50
0.000000
 41
1.052632
 51
0.000000
  7
STANDARD
  0
TEXT
  8
0
 10
-106.142654
 20
-173.050003
 40
4.500000
  1
25
 50
0.000000
 41
1.052632
 51
0.000000
  7
STANDARD
  0
TEXT
  8
0
 10
-126.142654
 20
-173.050003
 40
4.500000
  1
50
 50
0.000000
 41
1.052632
 51
0.000000
  7
STANDARD
  0
TEXT
  8
0
 10
-146.142654
 20
-173.050003
 40
4.500000
  1
25
 50
0.000000
 41
1.052632
 51
0.000000
  7
STANDARD
  0
TEXT
  8
0
 10
-163.892654
 20
-173.050003
 40
4.500000
  1
0
 50
0.000000
 41
1.052632
 51
0.000000
  7
STANDARD
  0
TEXT
  8
0
 10
-183.892654
 20
-173.050003
 40
4.500000
  1
0
 50
0.000000
 41
1.052632
 51
0.000000
  7
STANDARD
  0
TEXT
  8
0
 10
-203.892654
 20
-173.050003
 40
4.500000
  1
0
 50
0.000000
 41
1.052632
 51
0.000000
  7
STANDARD
  0
TEXT
  8
0
 62
     2
 10
83.859467
 20
-99.999992
 40
3.200000
  1
STROKE=75-200
 50
0.000000
 41
1.052632
 51
0.000000
  7
STANDARD
  0
LINE
  8
0
 62
     2
 10
74.000008
 20
-100.999992
 11
125.209473
 21
-100.999992
  0
LINE
  8
0
 62
     2
 10
35.000008
 20
-100.999992
 11
74.000008
 21
-100.999992
  0
LINE
  8
0
 62
     2
 10
35.000008
 20
-100.999992
 11
37.897785
 21
-100.223534
  0
LINE
  8
0
 62
     2
 10
35.000008
 20
-100.999992
 11
37.897785
 21
-101.776451
  0
LINE
  8
0
 62
     2
 10
74.000008
 20
-100.999992
 11
71.102234
 21
-101.776451
  0
LINE
  8
0
 62
     2
 10
74.000008
 20
-100.999992
 11
71.102234
 21
-100.223534
  0
LINE
  8
0
 62
     2
 10
35.000008
 20
-70.499977
 11
35.000008
 21
-102.499992
  0
LINE
  8
0
 62
     2
 10
74.000008
 20
-62.999992
 11
74.000008
 21
-102.499992
  0
ENDSEC
  0
EOF
