  0
SECTION
  2
HEADER
  0
ENDSEC
  0
SECTION
  2
TABLES
  0
TABLE
  2
LTYPE
 70
     4
  0
LTYPE
  2
CONTINUOUS
 70
    64
  3
Solid line
 72
    65
 73
     0
 40
0.000000
  0
LTYPE
  2
DASHED
 70
    64
  3
__ __ __ __ __ __ __ __ __ __ __ __ __ __ __
 72
    65
 73
     2
 40
3.500000
 49
2.000000
 49
-1.500000
  0
LTYPE
  2
CENTER
 70
    64
  3
____ _ ____ _ ____ _ ____ _ ____ _ ____ _ ____
 72
    65
 73
     4
 40
17.500000
 49
13.000000
 49
-1.500000
 49
1.500000
 49
-1.500000
  0
LTYPE
  2
PHANTOM
 70
    64
  3
_____ _ _ _____ _ _ _____ _ _ _____ _ _ ____  
 72
    65
 73
     6
 40
15.500000
 49
8.000000
 49
-1.500000
 49
1.500000
 49
-1.500000
 49
1.500000
 49
-1.500000
  0
LTYPE
  2
DASHED1
 70
    64
  3
__ __ __ __ __ __ __ __ __ __ __ __ __ __ __
 72
    65
 73
     2
 40
1.500000
 49
1.000000
 49
-0.500000
  0
LTYPE
  2
DASHED2
 70
    64
  3
__ __ __ __ __ __ __ __ __ __ __ __ __ __ __
 72
    65
 73
     2
 40
3.500000
 49
2.500000
 49
-1.000000
  0
LTYPE
  2
DASHED3
 70
    64
  3
__ __ __ __ __ __ __ __ __ __ __ __ __ __ __
 72
    65
 73
     2
 40
6.000000
 49
4.000000
 49
-2.000000
  0
LTYPE
  2
DASHED4
 70
    64
  3
__ __ __ __ __ __ __ __ __ __ __ __ __ __ __
 72
    65
 73
     2
 40
12.000000
 49
10.000000
 49
-2.000000
  0
LTYPE
  2
DASHED5
 70
    64
  3
__ __ __ __ __ __ __ __ __ __ __ __ __ __ __
 72
    65
 73
     2
 40
17.000000
 49
15.000000
 49
-2.000000
  0
LTYPE
  2
DASHED6
 70
    64
  3
__ __ __ __ __ __ __ __ __ __ __ __ __ __ __
 72
    65
 73
     2
 40
29.000000
 49
27.000000
 49
-2.000000
  0
LTYPE
  2
PHANTOM1
 70
    64
  3
_____ _ _ _____ _ _ _____ _ _ _____ _ _ ____  
 72
    65
 73
     6
 40
31.000000
 49
25.000000
 49
-1.500000
 49
1.000000
 49
-1.000000
 49
1.000000
 49
-1.500000
  0
LTYPE
  2
PHANTOM2
 70
    64
  3
_____ _ _ _____ _ _ _____ _ _ _____ _ _ ____  
 72
    65
 73
     6
 40
36.000000
 49
27.000000
 49
-1.500000
 49
2.500000
 49
-1.000000
 49
2.500000
 49
-1.500000
  0
LTYPE
  2
PHANTOM3
 70
    64
  3
_____ _ _ _____ _ _ _____ _ _ _____ _ _ ____  
 72
    65
 73
     6
 40
78.000000
 49
64.000000
 49
-2.000000
 49
4.000000
 49
-2.000000
 49
4.000000
 49
-2.000000
  0
LTYPE
  2
CENTER1
 70
    64
  3
____ _ ____ _ ____ _ ____ _ ____ _ ____ _ ____
 72
    65
 73
     4
 40
19.000000
 49
14.000000
 49
-1.000000
 49
3.000000
 49
-1.000000
  0
LTYPE
  2
CENTER2
 70
    64
  3
____ _ ____ _ ____ _ ____ _ ____ _ ____ _ ____
 72
    65
 73
     4
 40
28.500000
 49
25.000000
 49
-1.000000
 49
1.500000
 49
-1.000000
  0
LTYPE
  2
CENTER3
 70
    64
  3
____ _ ____ _ ____ _ ____ _ ____ _ ____ _ ____
 72
    65
 73
     4
 40
31.500000
 49
27.000000
 49
-1.000000
 49
2.500000
 49
-1.000000
  0
LTYPE
  2
CENTER4
 70
    64
  3
____ _ ____ _ ____ _ ____ _ ____ _ ____ _ ____
 72
    65
 73
     4
 40
50.000000
 49
45.000000
 49
-1.000000
 49
3.000000
 49
-1.000000
  0
LTYPE
  2
CENTER5
 70
    64
  3
____ _ ____ _ ____ _ ____ _ ____ _ ____ _ ____
 72
    65
 73
     4
 40
100.000000
 49
92.000000
 49
-2.000000
 49
4.000000
 49
-2.000000
  0
LTYPE
  2
SBK1
 70
    64
  3
______ _ _ _ ______ _ _ _ ______ _ _ _ _____  
 72
    65
 73
     8
 40
60.500000
 49
45.000000
 49
-2.000000
 49
2.500000
 49
-2.000000
 49
2.500000
 49
-2.000000
 49
2.500000
 49
-2.000000
  0
LTYPE
  2
SBK2
 70
    64
  3
______ _ _ _ ______ _ _ _ ______ _ _ _ _____  
 72
    65
 73
     8
 40
84.000000
 49
64.000000
 49
-2.000000
 49
4.000000
 49
-2.000000
 49
4.000000
 49
-2.000000
 49
4.000000
 49
-2.000000
  0
LTYPE
  2
STCH
 70
    64
  3
__ __ __ __ __ __ __ __ __ __ __ __ __ __ __
 72
    65
 73
     2
 40
3.000000
 49
1.000000
 49
-2.000000
  0
LTYPE
  2
MTCH
 70
    64
  3
_____ _ _ _____ _ _ _____ _ _ _____ _ _ ____  
 72
    65
 73
     6
 40
80.000000
 49
66.000000
 49
-2.000000
 49
4.000000
 49
-2.000000
 49
4.000000
 49
-2.000000
  0
ENDTAB
  0
TABLE
  2
LAYER
 70
     1
  0
LAYER
  2
0
 70
     0
 62
     7
  6
CONTINUOUS
  0
ENDTAB
  0
TABLE
  2
STYLE
 70
     1
  0
STYLE
  2
STANDARD
 70
     0
 40
0.000000
 41
1.000000
 50
0.000000
 71
     0
 42
0.200000
  3
txt
  4
BIGFONT
  0
ENDTAB
  0
TABLE
  2
VIEW
 70
     0
  0
ENDTAB
  0
ENDSEC
  0
SECTION
  2
BLOCKS
  0
ENDSEC
  0
SECTION
  2
ENTITIES
  0
LINE
  8
0
 10
-22.000000
 20
20.000000
 11
-19.000000
 21
20.000000
  0
LINE
  8
0
  6
CENTER
 62
     2
 10
-33.446678
 20
39.500000
 11
-17.409863
 21
39.500000
  0
LINE
  8
0
 10
-18.500000
 20
50.000000
 11
17.500000
 21
50.000000
  0
LINE
  8
0
 10
-22.000000
 20
-16.500000
 11
-22.000000
 21
48.500015
  0
LINE
  8
0
 10
-32.000000
 20
48.500000
 11
-32.000000
 21
-16.500000
  0
LINE
  8
0
 10
-31.500000
 20
-17.000000
 11
-22.500000
 21
-17.000000
  0
LINE
  8
0
 10
-31.500000
 20
49.000000
 11
-22.500000
 21
49.000000
  0
LINE
  8
0
 10
-22.000000
 20
12.000000
 11
-19.000000
 21
12.000000
  0
LINE
  8
0
  6
CENTER
 62
     2
 10
-33.446678
 20
-7.500000
 11
-17.061066
 21
-7.500000
  0
LINE
  8
0
 10
-22.000000
 20
14.063507
 11
-20.500000
 21
14.063507
  0
LINE
  8
0
 10
-20.500000
 20
17.936495
 11
-20.500000
 21
14.063507
  0
LINE
  8
0
 62
     2
 10
-21.999996
 20
16.968292
 11
-20.499973
 21
14.063511
  0
LINE
  8
0
 62
     2
 10
-20.499990
 20
17.936506
 11
-22.000011
 21
15.031731
  0
LINE
  8
0
 10
-31.999992
 20
-16.499971
 11
-31.499992
 21
-16.999971
  0
LINE
  8
0
 10
-22.000010
 20
-16.500002
 11
-22.500000
 21
-16.999992
  0
LINE
  8
0
 10
-31.499977
 20
48.999985
 11
-31.999977
 21
48.499981
  0
LINE
  8
0
 10
-22.500008
 20
49.000023
 11
-22.000008
 21
48.500023
  0
LINE
  8
0
 10
-18.499968
 20
49.999985
 11
-18.999969
 21
49.499981
  0
LINE
  8
0
 10
17.499985
 20
49.999981
 11
17.999981
 21
49.499989
  0
LINE
  8
0
 10
-19.000000
 20
17.900002
 11
18.000000
 21
17.900002
  0
LINE
  8
0
 10
-19.000000
 20
20.700012
 11
18.000000
 21
20.700012
  0
LINE
  8
0
 10
-19.000000
 20
22.500015
 11
18.000000
 21
22.500015
  0
LINE
  8
0
 10
-19.000000
 20
49.000000
 11
18.000000
 21
49.000000
  0
LINE
  8
0
 10
-19.000000
 20
40.150002
 11
18.000000
 21
40.150002
  0
LINE
  8
0
 10
-19.000000
 20
35.849998
 11
18.000000
 21
35.849998
  0
LINE
  8
0
 10
-22.000000
 20
17.936510
 11
-20.500000
 21
17.936510
  0
LINE
  8
0
  6
CENTER
 62
     2
 10
-19.000000
 20
29.000000
 11
-8.971458
 21
29.000000
  0
LINE
  8
0
  6
DASHED
 62
     2
 10
41.000000
 20
36.000000
 11
41.000000
 21
43.000000
  0
LINE
  8
0
  6
DASHED
 62
     2
 10
40.500000
 20
43.500000
 11
40.500000
 21
35.500000
  0
LINE
  8
0
 10
-19.000000
 20
24.000023
 11
18.000000
 21
24.000023
  0
LINE
  8
0
  6
CENTER
 62
     2
 10
-19.000000
 20
3.000000
 11
-9.333664
 21
3.000000
  0
LINE
  8
0
  6
CENTER
 62
     2
 10
-14.000000
 20
-2.201691
 11
-14.000000
 21
7.835175
  0
LINE
  8
0
  6
CENTER
 62
     2
 10
-3.815903
 20
3.000000
 11
6.111519
 21
3.000000
  0
LINE
  8
0
  6
CENTER
 62
     2
 10
1.000015
 20
-2.201691
 11
1.000015
 21
7.754852
  0
LINE
  8
0
 10
-19.000000
 20
14.100006
 11
18.000008
 21
14.100006
  0
LINE
  8
0
  6
CENTER
 62
     2
 10
-5.979294
 20
-3.000000
 11
-12.053421
 21
-3.000000
  0
LINE
  8
0
  6
CENTER
 62
     2
 10
14.301540
 20
-3.000000
 11
7.583359
 21
-3.000000
  0
LINE
  8
0
  6
CENTER
 62
     2
 10
10.500008
 20
-6.278030
 11
10.500008
 21
0.309458
  0
LINE
  8
0
  6
CENTER
 62
     2
 10
-33.622551
 20
16.000000
 11
20.072990
 21
16.000000
  0
LINE
  8
0
 10
-18.500000
 20
-18.000000
 11
17.500008
 21
-18.000000
  0
LINE
  8
0
 10
-19.000000
 20
-17.500000
 11
-19.000000
 21
49.500000
  0
LINE
  8
0
  6
DASHED
 62
     2
 10
-0.499985
 20
-18.000000
 11
-0.499985
 21
-15.696800
  0
LINE
  8
0
  6
DASHED
 62
     2
 10
4.500008
 20
-18.000000
 11
4.500008
 21
-15.696800
  0
LINE
  8
0
  6
DASHED
 62
     2
 10
-0.099991
 20
-18.000000
 11
-0.099991
 21
-15.696800
  0
LINE
  8
0
  6
DASHED
 62
     2
 10
4.099998
 20
-18.000000
 11
4.099998
 21
-15.696800
  0
LINE
  8
0
  6
CENTER
 62
     2
 10
-9.000000
 20
-6.490152
 11
-9.000000
 21
0.309458
  0
LINE
  8
0
 10
-19.000000
 20
-17.000000
 11
18.000008
 21
-17.000000
  0
LINE
  8
0
 10
-19.000000
 20
8.000015
 11
18.000008
 21
8.000015
  0
LINE
  8
0
 10
-19.000000
 20
-8.500000
 11
18.000008
 21
-8.500000
  0
LINE
  8
0
 10
-19.000000
 20
-11.017288
 11
18.000008
 21
-11.017288
  0
LINE
  8
0
 10
-19.000000
 20
-14.592545
 11
18.000008
 21
-14.592545
  0
LINE
  8
0
 10
-19.000000
 20
11.299988
 11
18.000008
 21
11.299988
  0
LINE
  8
0
 10
-19.000000
 20
9.499985
 11
18.000008
 21
9.499985
  0
LINE
  8
0
 10
18.000013
 20
-17.500002
 11
17.500011
 21
-18.000002
  0
LINE
  8
0
 10
-18.999968
 20
-17.499985
 11
-18.499977
 21
-17.999975
  0
LINE
  8
0
  6
CENTER
 62
     2
 10
2.000008
 20
-19.017120
 11
2.000008
 21
-15.108334
  0
LINE
  8
0
 10
18.000008
 20
-17.500000
 11
18.000008
 21
49.500000
  0
LINE
  8
0
  6
CENTER
 62
     2
 10
1.000000
 20
33.957390
 11
1.000000
 21
24.026604
  0
LINE
  8
0
  6
CENTER
 62
     2
 10
-14.000000
 20
33.878262
 11
-14.000000
 21
24.066168
  0
LINE
  8
0
  6
CENTER
 62
     2
 10
-4.001617
 20
29.000000
 11
6.126991
 21
29.000000
  0
LINE
  8
0
 10
-22.000000
 20
-11.500000
 11
-19.000000
 21
-11.500000
  0
LINE
  8
0
 10
-22.000000
 20
-3.500000
 11
-19.000000
 21
-3.500000
  0
LINE
  8
0
 10
-22.000000
 20
35.500000
 11
-19.000000
 21
35.500000
  0
LINE
  8
0
 10
-22.000000
 20
43.500000
 11
-19.000000
 21
43.500000
  0
LINE
  8
0
  6
DASHED
 62
     2
 10
18.000000
 20
35.500000
 11
40.500000
 21
35.500000
  0
LINE
  8
0
  6
DASHED
 62
     2
 10
18.000000
 20
43.500000
 11
40.500000
 21
43.500000
  0
LINE
  8
0
  6
DASHED
 62
     2
 10
40.499992
 20
43.499985
 11
40.999992
 21
42.999985
  0
LINE
  8
0
  6
DASHED
 62
     2
 10
41.000000
 20
36.000000
 11
40.500000
 21
35.499996
  0
LINE
  8
0
  6
DASHED
 62
     2
 10
41.000000
 20
-11.000000
 11
41.000000
 21
-4.000002
  0
LINE
  8
0
  6
DASHED
 62
     2
 10
40.500000
 20
-3.500000
 11
40.500000
 21
-11.500000
  0
LINE
  8
0
  6
DASHED
 62
     2
 10
18.000000
 20
-11.500000
 11
40.500000
 21
-11.500000
  0
LINE
  8
0
  6
DASHED
 62
     2
 10
18.000000
 20
-3.500000
 11
40.500000
 21
-3.500000
  0
LINE
  8
0
  6
DASHED
 62
     2
 10
40.500000
 20
-3.500003
 11
41.000000
 21
-4.000004
  0
LINE
  8
0
  6
DASHED
 62
     2
 10
40.999992
 20
-10.999994
 11
40.499996
 21
-11.499993
  0
LINE
  8
0
  6
DASHED
 62
     2
 10
-12.099991
 20
-18.000000
 11
-12.099991
 21
-15.692692
  0
LINE
  8
0
  6
DASHED
 62
     2
 10
-12.500000
 20
-18.000000
 11
-12.500000
 21
-15.692692
  0
LINE
  8
0
  6
DASHED
 62
     2
 10
-7.500000
 20
-18.000000
 11
-7.500000
 21
-15.692692
  0
LINE
  8
0
  6
DASHED
 62
     2
 10
-7.900009
 20
-18.000000
 11
-7.900009
 21
-15.692692
  0
LINE
  8
0
  6
CENTER
 62
     2
 10
-10.000000
 20
-18.940506
 11
-10.000000
 21
-14.866489
  0
LINE
  8
0
  6
PHANTOM
 62
     3
 10
-4.500000
 20
65.000000
 11
-4.500000
 21
-23.000000
  0
LINE
  8
0
  6
PHANTOM
 62
     3
 10
6.500000
 20
58.000000
 11
6.500000
 21
-6.000000
  0
LINE
  8
0
  6
PHANTOM
 62
     3
 10
-2.000000
 20
-6.000000
 11
6.500000
 21
-6.000000
  0
LINE
  8
0
  6
PHANTOM
 62
     3
 10
-2.000000
 20
-6.000000
 11
-2.000000
 21
-23.000000
  0
LINE
  8
0
 10
-145.500015
 20
17.000002
 11
-145.000000
 21
17.000002
  0
LINE
  8
0
 10
-145.500015
 20
21.200014
 11
-145.000000
 21
21.200014
  0
LINE
  8
0
 10
-146.500015
 20
14.799990
 11
-146.500015
 21
17.200014
  0
LINE
  8
0
 10
-146.200012
 20
20.700014
 11
-146.000015
 21
20.700014
  0
LINE
  8
0
 10
-146.200012
 20
17.500002
 11
-146.000015
 21
17.500002
  0
LINE
  8
0
 10
-145.500000
 20
16.999996
 11
-146.000000
 21
17.499987
  0
LINE
  8
0
 10
-146.000122
 20
20.700136
 11
-145.500107
 21
21.200146
  0
LINE
  8
0
 10
-146.500015
 20
21.000002
 11
-146.500015
 21
22.500017
  0
LINE
  8
0
 10
-145.500015
 20
15.000002
 11
-145.000000
 21
15.000002
  0
LINE
  8
0
 10
-145.500015
 20
10.799990
 11
-145.000000
 21
10.799990
  0
LINE
  8
0
 10
-146.200012
 20
11.299990
 11
-146.000015
 21
11.299990
  0
LINE
  8
0
 10
-146.200012
 20
14.500002
 11
-146.000015
 21
14.500002
  0
LINE
  8
0
 10
-145.500153
 20
15.000112
 11
-146.000122
 21
14.500125
  0
LINE
  8
0
 10
-146.000061
 20
11.299962
 11
-145.500061
 21
10.799962
  0
LINE
  8
0
 10
-146.500092
 20
22.499990
 11
-148.000076
 21
23.999968
  0
LINE
  8
0
 10
-146.500015
 20
11.000002
 11
-146.500015
 21
9.499987
  0
LINE
  8
0
 10
-146.500092
 20
9.500056
 11
-148.000076
 21
8.000078
  0
LINE
  8
0
 10
-148.000000
 20
24.000002
 11
-148.000000
 21
35.550003
  0
LINE
  8
0
 10
-147.000000
 20
50.000000
 11
-117.000000
 21
50.000000
  0
LINE
  8
0
 10
-146.999939
 20
49.999943
 11
-147.999939
 21
48.999939
  0
LINE
  8
0
 10
-148.000000
 20
40.449997
 11
-148.000000
 21
49.000000
  0
LINE
  8
0
 10
-118.999924
 20
41.650002
 11
-117.500000
 21
41.650002
  0
LINE
  8
0
 10
-118.999924
 20
34.349998
 11
-117.500000
 21
34.349998
  0
LINE
  8
0
 10
-117.500000
 20
40.150002
 11
-116.300003
 21
40.150002
  0
LINE
  8
0
 10
-117.500000
 20
35.849998
 11
-116.300003
 21
35.849998
  0
LINE
  8
0
 10
-117.500000
 20
34.349998
 11
-117.500000
 21
35.849998
  0
LINE
  8
0
 10
-117.500000
 20
40.150002
 11
-117.500000
 21
41.650002
  0
LINE
  8
0
 10
-116.000000
 20
40.449997
 11
-116.000000
 21
49.000000
  0
LINE
  8
0
 10
-116.999992
 20
49.999981
 11
-115.999992
 21
48.999981
  0
LINE
  8
0
 10
-118.499985
 20
17.000002
 11
-118.999924
 21
17.000002
  0
LINE
  8
0
 10
-118.499985
 20
21.200014
 11
-118.999924
 21
21.200014
  0
LINE
  8
0
 10
-117.499985
 20
14.799990
 11
-117.499985
 21
17.200014
  0
LINE
  8
0
 10
-117.799988
 20
20.700014
 11
-117.999985
 21
20.700014
  0
LINE
  8
0
 10
-117.799988
 20
17.500002
 11
-117.999985
 21
17.500002
  0
LINE
  8
0
 10
-118.500038
 20
17.000036
 11
-118.000061
 21
17.500017
  0
LINE
  8
0
 10
-117.999924
 20
20.700089
 11
-118.499924
 21
21.200089
  0
LINE
  8
0
 10
-117.499985
 20
21.000002
 11
-117.499985
 21
22.500017
  0
LINE
  8
0
 10
-118.499985
 20
15.000002
 11
-118.999924
 21
15.000002
  0
LINE
  8
0
 10
-118.499985
 20
10.799990
 11
-118.999924
 21
10.799990
  0
LINE
  8
0
 10
-117.799988
 20
11.299990
 11
-117.999985
 21
11.299990
  0
LINE
  8
0
 10
-117.799988
 20
14.500002
 11
-117.999985
 21
14.500002
  0
LINE
  8
0
 10
-118.499939
 20
15.000055
 11
-117.999931
 21
14.500042
  0
LINE
  8
0
 10
-118.000015
 20
11.300000
 11
-118.500023
 21
10.799987
  0
LINE
  8
0
 10
-116.000000
 20
-17.000010
 11
-116.000000
 21
-14.592543
  0
LINE
  8
0
 10
-117.500015
 20
22.500046
 11
-116.000023
 21
24.000034
  0
LINE
  8
0
 10
-117.499985
 20
11.000002
 11
-117.499985
 21
9.499987
  0
LINE
  8
0
 10
-117.499992
 20
9.499985
 11
-116.000000
 21
7.999995
  0
LINE
  8
0
 10
-116.000000
 20
24.000002
 11
-116.000000
 21
35.550003
  0
LINE
  8
0
 10
-117.000015
 20
-17.999949
 11
-116.000023
 21
-16.999960
  0
LINE
  8
0
 10
-148.000000
 20
8.000002
 11
-148.000000
 21
-3.550001
  0
LINE
  8
0
 10
-147.000000
 20
-17.999998
 11
-117.000000
 21
-17.999998
  0
LINE
  8
0
 10
-146.999969
 20
-17.999973
 11
-147.999969
 21
-16.999969
  0
LINE
  8
0
 10
-148.000000
 20
-8.449995
 11
-148.000000
 21
-16.999994
  0
LINE
  8
0
 10
-116.000008
 20
-14.592563
 11
-119.000000
 21
-11.017301
  0
LINE
  8
0
 10
-118.999992
 20
-11.017301
 11
-115.999977
 21
-8.499993
  0
LINE
  8
0
 10
-116.000000
 20
-8.499990
 11
-116.000000
 21
8.000010
  0
LINE
  8
0
 10
-145.000000
 20
40.150002
 11
-147.699997
 21
40.150002
  0
LINE
  8
0
 10
-145.000000
 20
35.849998
 11
-147.699997
 21
35.849998
  0
LINE
  8
0
 10
-145.000000
 20
-8.150000
 11
-147.699997
 21
-8.150000
  0
LINE
  8
0
 10
-145.000000
 20
-3.849997
 11
-147.699997
 21
-3.849997
  0
LINE
  8
0
 10
-144.000000
 20
49.000000
 11
-120.000000
 21
49.000000
  0
LINE
  8
0
 10
-144.000000
 20
-16.999998
 11
-120.000000
 21
-16.999998
  0
LINE
  8
0
 10
-143.999954
 20
48.999954
 11
-144.999954
 21
47.999954
  0
LINE
  8
0
 10
-119.999954
 20
49.000088
 11
-118.999954
 21
48.000088
  0
LINE
  8
0
 10
-144.999985
 20
-15.999980
 11
-143.999985
 21
-16.999981
  0
LINE
  8
0
 10
-119.000008
 20
-15.999981
 11
-120.000008
 21
-16.999983
  0
LINE
  8
0
  6
CENTER
 62
     2
 10
-149.162216
 20
16.000002
 11
-114.874069
 21
16.000002
  0
LINE
  8
0
  6
CENTER
 62
     2
 10
-132.000000
 20
52.375366
 11
-132.000000
 21
-20.272448
  0
LINE
  8
0
  6
CENTER
 62
     2
 10
-136.733643
 20
44.000000
 11
-143.459274
 21
44.000000
  0
LINE
  8
0
  6
CENTER
 62
     2
 10
-124.000000
 20
-15.547087
 11
-124.000000
 21
-8.476542
  0
LINE
  8
0
  6
CENTER
 62
     2
 10
-140.000000
 20
-15.547087
 11
-140.000000
 21
-8.476542
  0
LINE
  8
0
  6
CENTER
 62
     2
 10
-136.733643
 20
-11.999998
 11
-143.459274
 21
-11.999998
  0
LINE
  8
0
 10
-145.000000
 20
48.000008
 11
-145.000000
 21
-16.000006
  0
LINE
  8
0
 10
-118.999924
 20
48.000107
 11
-118.999924
 21
-15.999865
  0
LINE
  8
0
 10
-132.000046
 20
41.232121
 11
-133.500046
 21
40.366100
  0
LINE
  8
0
 10
-133.500000
 20
40.366028
 11
-133.500000
 21
38.633980
  0
LINE
  8
0
 10
-132.000015
 20
37.767906
 11
-133.500015
 21
38.633930
  0
LINE
  8
0
 10
-130.500061
 20
38.634052
 11
-132.000061
 21
37.768021
  0
LINE
  8
0
 10
-130.500000
 20
40.366028
 11
-130.500000
 21
38.633980
  0
LINE
  8
0
 10
-132.000000
 20
41.232021
 11
-130.500000
 21
40.365990
  0
LINE
  8
0
 10
-132.000015
 20
-5.767906
 11
-133.500015
 21
-6.633934
  0
LINE
  8
0
 10
-133.500000
 20
-6.633974
 11
-133.500000
 21
-8.366022
  0
LINE
  8
0
 10
-132.000031
 20
-9.232105
 11
-133.500031
 21
-8.366084
  0
LINE
  8
0
 10
-130.500031
 20
-8.365995
 11
-132.000031
 21
-9.232022
  0
LINE
  8
0
 10
-130.500000
 20
-6.633974
 11
-130.500000
 21
-8.366022
  0
LINE
  8
0
 10
-132.000015
 20
-5.768003
 11
-130.500015
 21
-6.634033
  0
LINE
  8
0
 10
-132.000031
 20
17.732113
 11
-133.500031
 21
16.866091
  0
LINE
  8
0
 10
-133.500000
 20
16.866026
 11
-133.500000
 21
15.133978
  0
LINE
  8
0
 10
-132.000046
 20
14.267915
 11
-133.500031
 21
15.133935
  0
LINE
  8
0
 10
-130.500031
 20
15.134031
 11
-132.000031
 21
14.268004
  0
LINE
  8
0
 10
-130.500000
 20
16.866026
 11
-130.500000
 21
15.133978
  0
LINE
  8
0
 10
-132.000015
 20
17.732023
 11
-130.500000
 21
16.865993
  0
LINE
  8
0
  6
CENTER
 62
     2
 10
-140.000000
 20
47.225426
 11
-140.000000
 21
40.794838
  0
LINE
  8
0
  6
CENTER
 62
     2
 10
-124.000000
 20
47.114555
 11
-124.000000
 21
40.831795
  0
LINE
  8
0
  6
CENTER
 62
     2
 10
-127.285614
 20
44.000000
 11
-120.781128
 21
44.000000
  0
LINE
  8
0
  6
CENTER
 62
     2
 10
-138.261978
 20
39.500000
 11
-125.770370
 21
39.500000
  0
LINE
  8
0
  6
CENTER
 62
     2
 10
-138.296707
 20
-7.499998
 11
-125.570450
 21
-7.499998
  0
LINE
  8
0
  6
CENTER
 62
     2
 10
-127.430756
 20
-11.999998
 11
-120.370010
 21
-11.999998
  0
LINE
  8
0
  6
CENTER
 62
     2
 10
107.500015
 20
-18.871132
 11
107.500015
 21
-14.830853
  0
LINE
  8
0
  6
DASHED
 62
     2
 10
105.000015
 20
-17.999992
 11
105.000015
 21
-15.696793
  0
LINE
  8
0
  6
DASHED
 62
     2
 10
110.000015
 20
-17.999992
 11
110.000015
 21
-15.696793
  0
LINE
  8
0
  6
DASHED
 62
     2
 10
105.000015
 20
-13.999992
 11
110.000015
 21
-13.999992
  0
LINE
  8
0
  6
DASHED
 62
     2
 10
109.600021
 20
-17.999992
 11
109.600021
 21
-15.696793
  0
LINE
  8
0
  6
DASHED
 62
     2
 10
105.400009
 20
-17.999992
 11
105.400009
 21
-15.696793
  0
LINE
  8
0
  6
CENTER
 62
     2
 10
117.000015
 20
-20.312202
 11
117.000015
 21
53.121086
  0
LINE
  8
0
  6
CENTER
 62
     2
 10
98.795776
 20
16.000008
 11
134.343033
 21
16.000008
  0
LINE
  8
0
 10
130.500031
 20
17.000008
 11
128.900024
 21
17.000008
  0
LINE
  8
0
 10
130.500031
 20
21.200020
 11
128.900024
 21
21.200020
  0
LINE
  8
0
 10
131.500031
 20
14.799995
 11
131.500031
 21
17.200020
  0
LINE
  8
0
 10
131.200027
 20
20.700020
 11
131.000031
 21
20.700020
  0
LINE
  8
0
 10
131.200027
 20
17.500008
 11
131.000031
 21
17.500008
  0
LINE
  8
0
 10
130.500015
 20
17.000011
 11
131.000000
 21
17.500004
  0
LINE
  8
0
 10
131.000107
 20
20.700092
 11
130.500107
 21
21.200094
  0
LINE
  8
0
 10
131.500031
 20
21.000008
 11
131.500031
 21
22.500023
  0
LINE
  8
0
 10
130.500031
 20
15.000008
 11
128.900024
 21
15.000008
  0
LINE
  8
0
 10
130.500031
 20
10.799995
 11
128.900024
 21
10.799995
  0
LINE
  8
0
 10
131.200027
 20
11.299995
 11
131.000031
 21
11.299995
  0
LINE
  8
0
 10
131.200027
 20
14.500008
 11
131.000031
 21
14.500008
  0
LINE
  8
0
 10
130.500122
 20
15.000095
 11
131.000122
 21
14.500094
  0
LINE
  8
0
 10
131.000061
 20
11.299968
 11
130.500061
 21
10.799973
  0
LINE
  8
0
 10
131.500046
 20
22.500036
 11
133.000031
 21
24.000013
  0
LINE
  8
0
 10
131.500031
 20
11.000008
 11
131.500031
 21
9.499992
  0
LINE
  8
0
 10
131.500076
 20
9.500025
 11
133.000046
 21
8.000045
  0
LINE
  8
0
 10
132.000015
 20
50.000008
 11
102.000015
 21
50.000008
  0
LINE
  8
0
 10
131.999985
 20
49.999992
 11
132.999985
 21
48.999992
  0
LINE
  8
0
 10
106.000015
 20
41.650002
 11
102.500015
 21
41.650002
  0
LINE
  8
0
 10
106.000015
 20
34.350014
 11
102.500015
 21
34.350014
  0
LINE
  8
0
 10
102.500015
 20
40.150002
 11
101.300018
 21
40.150002
  0
LINE
  8
0
 10
102.500015
 20
35.850014
 11
101.300018
 21
35.850014
  0
LINE
  8
0
 10
106.000015
 20
34.350014
 11
106.000015
 21
41.650002
  0
LINE
  8
0
 10
102.500015
 20
34.350014
 11
102.500015
 21
35.850014
  0
LINE
  8
0
 10
102.500015
 20
40.150002
 11
102.500015
 21
41.650002
  0
LINE
  8
0
 10
101.000015
 20
40.450005
 11
101.000015
 21
49.000008
  0
LINE
  8
0
 10
101.999992
 20
50.000004
 11
100.999985
 21
49.000008
  0
LINE
  8
0
  6
CENTER
 62
     2
 10
123.000015
 20
39.500008
 11
109.660233
 21
39.500008
  0
LINE
  8
0
 10
103.500000
 20
17.000008
 11
105.100006
 21
17.000008
  0
LINE
  8
0
 10
103.500000
 20
21.200020
 11
105.100006
 21
21.200020
  0
LINE
  8
0
 10
102.500000
 20
14.799995
 11
102.500000
 21
17.200020
  0
LINE
  8
0
 10
102.800003
 20
20.700020
 11
103.000000
 21
20.700020
  0
LINE
  8
0
 10
102.800003
 20
17.500008
 11
103.000000
 21
17.500008
  0
LINE
  8
0
 10
103.500038
 20
17.000048
 11
103.000053
 21
17.500038
  0
LINE
  8
0
 10
102.999924
 20
20.700096
 11
103.499924
 21
21.200096
  0
LINE
  8
0
 10
102.500000
 20
21.000008
 11
102.500000
 21
22.500023
  0
LINE
  8
0
 10
103.500000
 20
15.000008
 11
105.100006
 21
15.000008
  0
LINE
  8
0
 10
103.500000
 20
10.799995
 11
105.100006
 21
10.799995
  0
LINE
  8
0
 10
102.800003
 20
11.299995
 11
103.000000
 21
11.299995
  0
LINE
  8
0
 10
102.800003
 20
14.500008
 11
103.000000
 21
14.500008
  0
LINE
  8
0
 10
103.499924
 20
15.000083
 11
102.999924
 21
14.500083
  0
LINE
  8
0
 10
103.000008
 20
11.299993
 11
103.500008
 21
10.799992
  0
LINE
  8
0
 10
102.499985
 20
22.500051
 11
100.999992
 21
24.000042
  0
LINE
  8
0
 10
102.500000
 20
11.000008
 11
102.500000
 21
9.499992
  0
LINE
  8
0
 10
102.499977
 20
9.499991
 11
100.999985
 21
8.000001
  0
LINE
  8
0
 10
101.000015
 20
24.000008
 11
101.000015
 21
35.550011
  0
LINE
  8
0
 10
132.000015
 20
-17.999985
 11
133.000015
 21
-16.999977
  0
LINE
  8
0
  6
CENTER
 62
     2
 10
123.000015
 20
-7.499992
 11
109.986725
 21
-7.499992
  0
LINE
  8
0
  6
CENTER
 62
     2
 10
107.000015
 20
49.204292
 11
107.000015
 21
42.590614
  0
LINE
  8
0
  6
CENTER
 62
     2
 10
103.643608
 20
46.000008
 11
110.182968
 21
46.000008
  0
LINE
  8
0
  6
CENTER
 62
     2
 10
107.000015
 20
-17.204277
 11
107.000015
 21
-10.590614
  0
LINE
  8
0
  6
CENTER
 62
     2
 10
110.356430
 20
-13.999992
 11
103.817070
 21
-13.999992
  0
LINE
  8
0
  6
CENTER
 62
     2
 10
127.000015
 20
49.204292
 11
127.000015
 21
42.590614
  0
LINE
  8
0
  6
CENTER
 62
     2
 10
130.356430
 20
46.000008
 11
123.817062
 21
46.000008
  0
LINE
  8
0
 10
133.000015
 20
24.000008
 11
133.000015
 21
35.550011
  0
LINE
  8
0
 10
133.000015
 20
40.450005
 11
133.000015
 21
49.000008
  0
LINE
  8
0
 10
133.000015
 20
8.000008
 11
133.000015
 21
-3.549995
  0
LINE
  8
0
 10
133.000015
 20
-8.449989
 11
133.000015
 21
-16.999992
  0
LINE
  8
0
 10
126.500015
 20
41.650002
 11
130.000015
 21
41.650002
  0
LINE
  8
0
 10
126.500015
 20
34.350014
 11
130.000015
 21
34.350014
  0
LINE
  8
0
 10
130.000015
 20
40.150002
 11
132.700012
 21
40.150002
  0
LINE
  8
0
 10
130.000015
 20
35.850014
 11
132.700012
 21
35.850014
  0
LINE
  8
0
 10
126.500015
 20
34.350014
 11
126.500015
 21
41.650002
  0
LINE
  8
0
 10
130.000015
 20
34.350014
 11
130.000015
 21
35.850014
  0
LINE
  8
0
 10
130.000015
 20
40.150002
 11
130.000015
 21
41.650002
  0
LINE
  8
0
 10
126.500015
 20
-2.349998
 11
126.500015
 21
-9.649986
  0
LINE
  8
0
 10
126.500015
 20
-9.649986
 11
130.000015
 21
-9.649986
  0
LINE
  8
0
 10
126.500015
 20
-2.349998
 11
130.000015
 21
-2.349998
  0
LINE
  8
0
 10
130.000015
 20
-8.149986
 11
132.700012
 21
-8.149986
  0
LINE
  8
0
 10
130.000015
 20
-3.849998
 11
132.700012
 21
-3.849998
  0
LINE
  8
0
 10
130.000015
 20
-2.349998
 11
130.000015
 21
-3.849998
  0
LINE
  8
0
 10
130.000015
 20
-8.149986
 11
130.000015
 21
-9.649986
  0
LINE
  8
0
  6
CENTER
 62
     2
 10
105.966087
 20
-2.999992
 11
109.102722
 21
-2.999992
  0
LINE
  8
0
 10
132.000015
 20
-17.999992
 11
102.000015
 21
-17.999992
  0
LINE
  8
0
 10
102.000008
 20
-18.000000
 11
101.000000
 21
-17.000002
  0
LINE
  8
0
 10
101.000015
 20
-17.000008
 11
101.000015
 21
-14.592537
  0
LINE
  8
0
 10
103.999985
 20
-11.017289
 11
101.000008
 21
-8.500003
  0
LINE
  8
0
 10
101.000015
 20
-8.499992
 11
101.000015
 21
8.000023
  0
LINE
  8
0
 10
101.000008
 20
-14.592511
 11
104.000000
 21
-11.017259
  0
LINE
  8
0
  6
CENTER
 62
     2
 10
125.674301
 20
38.000008
 11
128.597031
 21
38.000008
  0
LINE
  8
0
  6
CENTER
 62
     2
 10
125.539261
 20
-5.999992
 11
128.435654
 21
-5.999992
  0
LINE
  8
0
 10
122.196167
 20
-4.499992
 11
126.500015
 21
-4.499992
  0
LINE
  8
0
 10
123.000015
 20
-7.499992
 11
126.500015
 21
-7.499992
  0
LINE
  8
0
 10
122.196167
 20
36.500008
 11
126.500015
 21
36.500008
  0
LINE
  8
0
 10
123.000015
 20
39.500008
 11
126.500015
 21
39.500008
  0
LINE
  8
0
  6
CENTER
 62
     2
 10
107.109596
 20
38.000008
 11
101.834938
 21
38.000008
  0
LINE
  8
0
  6
CENTER
 62
     2
 10
107.500015
 20
-4.634407
 11
107.500015
 21
-1.455040
  0
LINE
  8
0
  6
CENTER
 62
     2
 10
127.000015
 20
-17.204277
 11
127.000015
 21
-10.590614
  0
LINE
  8
0
  6
CENTER
 62
     2
 10
130.356430
 20
-13.999992
 11
123.817062
 21
-13.999992
  0
LINE
  8
0
 10
130.000015
 20
-8.149986
 11
130.000015
 21
-3.849998
  0
LINE
  8
0
 10
104.000015
 20
10.799995
 11
104.000015
 21
14.688862
  0
LINE
  8
0
 10
104.000015
 20
34.350014
 11
104.000015
 21
41.650002
  0
LINE
  8
0
 10
104.000015
 20
17.000008
 11
104.000015
 21
21.200020
  0
LINE
  8
0
 10
130.000015
 20
35.850014
 11
130.000015
 21
40.150002
  0
LINE
  8
0
 10
130.000015
 20
17.000008
 11
130.000015
 21
21.200020
  0
LINE
  8
0
 10
130.000015
 20
10.799995
 11
130.000015
 21
15.000008
  0
LINE
  8
0
 10
-194.250000
 20
132.600006
 11
194.800003
 21
132.600006
  0
LINE
  8
0
 10
194.800003
 20
132.600006
 11
194.800003
 21
-133.500000
  0
LINE
  8
0
 10
-194.250000
 20
132.600006
 11
-194.250000
 21
-133.500000
  0
LINE
  8
0
 10
-194.250000
 20
-133.500000
 11
194.800003
 21
-133.500000
  0
LINE
  8
0
 10
109.800003
 20
-118.500000
 11
109.800003
 21
-133.500000
  0
LINE
  8
0
 10
109.800003
 20
-118.500000
 11
194.800003
 21
-118.500000
  0
LINE
  8
0
 10
109.800003
 20
132.600006
 11
109.800003
 21
117.600006
  0
LINE
  8
0
 10
109.800003
 20
117.600006
 11
194.800003
 21
117.600006
  0
LINE
  8
0
 10
-194.250000
 20
117.600006
 11
-84.250000
 21
117.600006
  0
LINE
  8
0
 10
-84.250000
 20
132.600006
 11
-84.250000
 21
117.600006
  0
LINE
  8
0
 10
-184.250000
 20
-123.500000
 11
-87.250000
 21
-123.500000
  0
LINE
  8
0
 10
-184.250000
 20
-123.500000
 11
-184.250000
 21
-92.500000
  0
LINE
  8
0
 10
-184.250000
 20
-115.500000
 11
-87.250000
 21
-115.500000
  0
LINE
  8
0
 10
-184.250000
 20
-107.500000
 11
-87.250000
 21
-107.500000
  0
LINE
  8
0
 10
-159.250000
 20
-123.500000
 11
-159.250000
 21
-92.500000
  0
LINE
  8
0
 10
-135.250000
 20
-123.500000
 11
-135.250000
 21
-92.500000
  0
LINE
  8
0
 10
-147.250000
 20
-123.500000
 11
-147.250000
 21
-92.500000
  0
LINE
  8
0
 10
-123.250000
 20
-123.500000
 11
-123.250000
 21
-92.500000
  0
LINE
  8
0
 10
-111.250000
 20
-123.500000
 11
-111.250000
 21
-92.500000
  0
LINE
  8
0
 10
-99.250000
 20
-123.500000
 11
-99.250000
 21
-92.500000
  0
LINE
  8
0
 10
-159.250046
 20
-107.500015
 11
-161.929535
 21
-97.500023
  0
LINE
  8
0
 10
-184.250000
 20
-97.500000
 11
-161.929489
 21
-97.500000
  0
LINE
  8
0
 10
-184.250000
 20
-92.500000
 11
-87.250000
 21
-92.500000
  0
LINE
  8
0
 10
-87.250000
 20
-123.500000
 11
-87.250000
 21
-92.500000
  0
CIRCLE
  8
0
 62
     2
 10
10.500008
 20
-3.000000
 40
2.500000
  0
ARC
  8
0
 10
-24.000000
 20
16.000000
 40
4.000002
 50
331.044983
 51
28.955065
  0
CIRCLE
  8
0
 10
-14.000000
 20
29.000000
 40
4.000000
  0
CIRCLE
  8
0
 10
-14.000000
 20
29.000000
 40
2.100000
  0
CIRCLE
  8
0
  6
DASHED
 62
     2
 10
-14.000000
 20
29.000000
 40
2.500000
  0
CIRCLE
  8
0
 10
1.000000
 20
29.000000
 40
4.000000
  0
CIRCLE
  8
0
 10
1.000000
 20
29.000000
 40
2.100000
  0
CIRCLE
  8
0
  6
DASHED
 62
     2
 10
1.000000
 20
29.000000
 40
2.500000
  0
CIRCLE
  8
0
 10
-14.000000
 20
3.000000
 40
4.000000
  0
CIRCLE
  8
0
 10
-14.000000
 20
3.000000
 40
2.100000
  0
CIRCLE
  8
0
  6
DASHED
 62
     2
 10
-14.000000
 20
3.000000
 40
2.500000
  0
CIRCLE
  8
0
 10
1.000015
 20
3.000000
 40
4.000000
  0
CIRCLE
  8
0
 10
1.000015
 20
3.000000
 40
2.100000
  0
CIRCLE
  8
0
  6
DASHED
 62
     2
 10
1.000015
 20
3.000000
 40
2.500000
  0
CIRCLE
  8
0
 62
     2
 10
-9.000000
 20
-3.000000
 40
2.500000
  0
CIRCLE
  8
0
 10
-9.000000
 20
-3.000000
 40
2.100000
  0
CIRCLE
  8
0
 10
10.500008
 20
-3.000000
 40
2.100000
  0
CIRCLE
  8
0
 10
-132.000000
 20
39.500000
 40
4.750000
  0
CIRCLE
  8
0
 10
-132.000000
 20
39.500000
 40
2.850000
  0
CIRCLE
  8
0
 10
-132.000000
 20
16.000002
 40
4.750000
  0
CIRCLE
  8
0
 10
-132.000000
 20
16.000002
 40
2.850000
  0
ARC
  8
0
 10
-146.200012
 20
11.000002
 40
0.300000
 50
90.000000
 51
180.000000
  0
ARC
  8
0
 10
-146.200012
 20
21.000002
 40
0.300003
 50
180.000000
 51
270.000000
  0
ARC
  8
0
 10
-146.200012
 20
17.200014
 40
0.299999
 50
90.000000
 51
180.000000
  0
ARC
  8
0
 10
-146.200012
 20
14.799990
 40
0.300003
 50
180.000000
 51
270.000000
  0
ARC
  8
0
 10
-116.300003
 20
40.449997
 40
0.299999
 50
270.000000
 51
0.000000
  0
ARC
  8
0
 10
-116.300003
 20
35.550003
 40
0.300003
 50
0.000000
 51
90.000000
  0
ARC
  8
0
 10
-117.799988
 20
11.000002
 40
0.300003
 50
0.000000
 51
90.000000
  0
ARC
  8
0
 10
-117.799988
 20
21.000002
 40
0.299999
 50
270.000000
 51
0.000000
  0
ARC
  8
0
 10
-117.799988
 20
17.200014
 40
0.300003
 50
0.000000
 51
90.000000
  0
ARC
  8
0
 10
-117.799988
 20
14.799990
 40
0.300000
 50
270.000000
 51
0.000000
  0
ARC
  8
0
 10
-147.699997
 20
40.449997
 40
0.300003
 50
180.000000
 51
270.000000
  0
ARC
  8
0
 10
-147.699997
 20
35.550003
 40
0.299999
 50
90.000000
 51
180.000000
  0
ARC
  8
0
 10
-147.699997
 20
-3.550001
 40
0.300003
 50
180.000046
 51
270.000000
  0
ARC
  8
0
 10
-147.699997
 20
-8.449995
 40
0.300000
 50
90.000000
 51
180.000000
  0
CIRCLE
  8
0
 10
-132.000000
 20
39.500000
 40
5.250000
  0
CIRCLE
  8
0
 10
-132.000000
 20
16.000002
 40
5.250000
  0
CIRCLE
  8
0
 10
-132.000000
 20
-7.499998
 40
5.250000
  0
CIRCLE
  8
0
 62
     2
 10
-124.000000
 20
44.000000
 40
2.500000
  0
CIRCLE
  8
0
 10
-124.000000
 20
44.000000
 40
2.100000
  0
CIRCLE
  8
0
 62
     2
 10
-140.000000
 20
44.000000
 40
2.500000
  0
CIRCLE
  8
0
 10
-140.000000
 20
44.000000
 40
2.100000
  0
CIRCLE
  8
0
 62
     2
 10
-124.000000
 20
-11.999998
 40
2.500000
  0
CIRCLE
  8
0
 10
-124.000000
 20
-11.999998
 40
2.100000
  0
CIRCLE
  8
0
 62
     2
 10
-140.000000
 20
-11.999998
 40
2.500000
  0
CIRCLE
  8
0
 10
-140.000000
 20
-11.999998
 40
2.100000
  0
CIRCLE
  8
0
 10
-132.000000
 20
-7.499998
 40
4.750000
  0
CIRCLE
  8
0
 10
-132.000000
 20
-7.499998
 40
2.850000
  0
CIRCLE
  8
0
 10
117.000015
 20
16.000008
 40
9.000000
  0
CIRCLE
  8
0
 10
117.000015
 20
-7.499992
 40
4.000000
  0
ARC
  8
0
 10
131.200027
 20
11.000008
 40
0.300003
 50
0.000000
 51
90.000000
  0
ARC
  8
0
 10
128.900024
 20
19.100014
 40
2.100000
 50
90.000000
 51
270.000000
  0
ARC
  8
0
 10
131.200027
 20
21.000008
 40
0.299999
 50
270.000000
 51
0.000000
  0
ARC
  8
0
 10
131.200027
 20
17.200020
 40
0.300003
 50
0.000000
 51
90.000000
  0
ARC
  8
0
 10
131.200027
 20
14.799995
 40
0.300000
 50
270.000000
 51
0.000000
  0
ARC
  8
0
 10
128.900024
 20
12.900002
 40
2.100000
 50
90.000000
 51
270.000000
  0
ARC
  8
0
 10
101.300018
 20
40.450005
 40
0.300003
 50
180.000000
 51
270.000000
  0
ARC
  8
0
 10
101.300018
 20
35.550011
 40
0.299999
 50
90.000000
 51
180.000000
  0
CIRCLE
  8
0
 10
117.000015
 20
39.500008
 40
6.000000
  0
ARC
  8
0
 10
105.100006
 20
12.900002
 40
2.100000
 50
270.000000
 51
90.000000
  0
ARC
  8
0
 10
102.800003
 20
11.000008
 40
0.300000
 50
90.000000
 51
180.000000
  0
ARC
  8
0
 10
105.100006
 20
19.100014
 40
2.100000
 50
270.000000
 51
90.000000
  0
ARC
  8
0
 10
102.800003
 20
21.000008
 40
0.300003
 50
180.000000
 51
270.000000
  0
ARC
  8
0
 10
102.800003
 20
17.200020
 40
0.299999
 50
90.000000
 51
180.000000
  0
ARC
  8
0
 10
102.800003
 20
14.799995
 40
0.300003
 50
180.000000
 51
270.000000
  0
CIRCLE
  8
0
 10
117.000015
 20
-7.499992
 40
6.000000
  0
CIRCLE
  8
0
 62
     2
 10
107.000015
 20
46.000008
 40
2.500000
  0
CIRCLE
  8
0
 10
107.000015
 20
46.000008
 40
2.100000
  0
CIRCLE
  8
0
 62
     2
 10
107.000015
 20
-13.999992
 40
2.500000
  0
CIRCLE
  8
0
 10
107.000015
 20
-13.999992
 40
2.100000
  0
CIRCLE
  8
0
 62
     2
 10
127.000015
 20
46.000008
 40
2.500000
  0
CIRCLE
  8
0
 10
127.000015
 20
46.000008
 40
2.100000
  0
ARC
  8
0
 10
132.700012
 20
-3.549995
 40
0.300000
 50
270.000000
 51
0.000000
  0
ARC
  8
0
 10
132.700012
 20
-8.449989
 40
0.300003
 50
0.000000
 51
90.000000
  0
ARC
  8
0
 10
132.700012
 20
40.450005
 40
0.299999
 50
270.000000
 51
0.000000
  0
ARC
  8
0
 10
132.700012
 20
35.550011
 40
0.300003
 50
0.000000
 51
90.000000
  0
CIRCLE
  8
0
 10
107.500015
 20
-2.999992
 40
1.000000
  0
CIRCLE
  8
0
 10
127.000015
 20
-13.999992
 40
2.100000
  0
CIRCLE
  8
0
 62
     2
 10
127.000015
 20
-13.999992
 40
2.500000
  0
CIRCLE
  8
0
 10
117.000015
 20
39.500008
 40
4.000000
  0
ARC
  8
0
 10
11.082359
 20
-9.504692
 40
0.417649
 50
344.498688
 51
15.501308
  0
ARC
  8
0
 10
10.927789
 20
-9.567026
 40
0.583557
 50
17.343161
 51
54.573513
  0
ARC
  8
0
 10
10.500008
 20
-10.254539
 40
1.392647
 50
56.628605
 51
123.371399
  0
ARC
  8
0
 10
10.072227
 20
-9.567026
 40
0.583557
 50
125.426491
 51
162.656845
  0
ARC
  8
0
 10
9.917656
 20
-9.504692
 40
0.417649
 50
164.498688
 51
195.501312
  0
ARC
  8
0
 10
10.072227
 20
-9.442358
 40
0.583557
 50
197.343155
 51
234.573517
  0
ARC
  8
0
 10
10.500008
 20
-8.754845
 40
1.392647
 50
236.628601
 51
303.371399
  0
ARC
  8
0
 10
10.927789
 20
-9.442358
 40
0.583557
 50
305.426483
 51
342.656830
  0
ARC
  8
0
 10
-8.417648
 20
-9.504692
 40
0.417649
 50
344.498688
 51
15.501308
  0
ARC
  8
0
 10
-8.572219
 20
-9.567026
 40
0.583557
 50
17.343161
 51
54.573513
  0
ARC
  8
0
 10
-9.000000
 20
-10.254539
 40
1.392647
 50
56.628605
 51
123.371399
  0
ARC
  8
0
 10
-9.427781
 20
-9.567026
 40
0.583557
 50
125.426491
 51
162.656845
  0
ARC
  8
0
 10
-9.582352
 20
-9.504692
 40
0.417649
 50
164.498688
 51
195.501312
  0
ARC
  8
0
 10
-9.427781
 20
-9.442358
 40
0.583557
 50
197.343155
 51
234.573517
  0
ARC
  8
0
 10
-9.000000
 20
-8.754845
 40
1.392647
 50
236.628601
 51
303.371399
  0
ARC
  8
0
 10
-8.572219
 20
-9.442358
 40
0.583557
 50
305.426483
 51
342.656830
  0
TEXT
  8
0
 10
133.907150
 20
122.050003
 40
4.500000
  1
Ver. 1.0
 50
0.000000
 41
1.052631
 51
0.000000
  7
STANDARD
  0
TEXT
  8
0
 10
113.700279
 20
-130.669998
 40
6.300000
  1
KOGANEI CORP.
 50
0.000000
 41
1.052632
 51
0.000000
  7
STANDARD
  0
TEXT
  8
0
 10
-191.392654
 20
122.050003
 40
4.500000
  1
JIG CYLINDER WITH GUIDE
 50
0.000000
 41
1.052632
 51
0.000000
  7
STANDARD
  0
TEXT
  8
0
 10
-186.892654
 20
104.550003
 40
4.500000
  1
MODEL:SGDAQ16*ST(10)
 50
0.000000
 41
1.052632
 51
0.000000
  7
STANDARD
  0
TEXT
  8
0
 10
-181.557144
 20
-96.879997
 40
3.200000
  1
STROKE
 50
0.000000
 41
1.052631
 51
0.000000
  7
STANDARD
  0
TEXT
  8
0
 10
-173.557144
 20
-113.379997
 40
3.200000
  1
A
 50
0.000000
 41
1.052631
 51
0.000000
  7
STANDARD
  0
TEXT
  8
0
 10
-184.496872
 20
-101.019997
 40
3.200000
  1
STRETCH
 50
0.000000
 41
1.052631
 51
0.000000
  7
STANDARD
  0
TEXT
  8
0
 10
-184.496872
 20
-105.820000
 40
3.200000
  1
  PLACE
 50
0.000000
 41
1.052631
 51
0.000000
  7
STANDARD
  0
TEXT
  8
0
 10
-156.657150
 20
-101.879997
 40
3.200000
  1
10
 50
0.000000
 41
1.052631
 51
0.000000
  7
STANDARD
  0
TEXT
  8
0
 10
-144.657150
 20
-101.879997
 40
3.200000
  1
20
 50
0.000000
 41
1.052631
 51
0.000000
  7
STANDARD
  0
TEXT
  8
0
 10
-132.657150
 20
-101.879997
 40
3.200000
  1
30
 50
0.000000
 41
1.052631
 51
0.000000
  7
STANDARD
  0
TEXT
  8
0
 10
-120.657158
 20
-101.879997
 40
3.200000
  1
50
 50
0.000000
 41
1.052631
 51
0.000000
  7
STANDARD
  0
TEXT
  8
0
 10
-108.657158
 20
-101.879997
 40
3.200000
  1
75
 50
0.000000
 41
1.052631
 51
0.000000
  7
STANDARD
  0
TEXT
  8
0
 10
-98.257156
 20
-101.879997
 40
3.200000
  1
100
 50
0.000000
 41
1.052631
 51
0.000000
  7
STANDARD
  0
TEXT
  8
0
 10
-99.857140
 20
-91.379997
 40
3.200000
  1
(mm)
 50
0.000000
 41
1.052631
 51
0.000000
  7
STANDARD
  0
TEXT
  8
0
 10
-155.157135
 20
-91.379997
 40
3.200000
  1
STRETCH LIST
 50
0.000000
 41
1.052631
 51
0.000000
  7
STANDARD
  0
TEXT
  8
0
 10
-173.557007
 20
-121.379997
 40
3.200000
  1
B
 50
0.000000
 41
1.052632
 51
0.000000
  7
STANDARD
  0
TEXT
  8
0
 10
-159.892654
 20
97.550003
 40
4.500000
  1
SGDAFQ16*ST(10)
 50
0.000000
 41
1.052632
 51
0.000000
  7
STANDARD
  0
TEXT
  8
0
 62
     3
 10
-0.307142
 20
59.119999
 40
3.200000
  1
STRETCH LINE A
 50
0.000000
 41
1.052631
 51
0.000000
  7
STANDARD
  0
TEXT
  8
0
 62
     3
 10
-13.307000
 20
66.120003
 40
3.200000
  1
STRETCH LINE B
 50
0.000000
 41
1.052632
 51
0.000000
  7
STANDARD
  0
TEXT
  8
0
 10
-155.057007
 20
-113.379997
 40
3.200000
  1
0
 50
0.000000
 41
1.052632
 51
0.000000
  7
STANDARD
  0
TEXT
  8
0
 10
-143.057007
 20
-113.379997
 40
3.200000
  1
0
 50
0.000000
 41
1.052632
 51
0.000000
  7
STANDARD
  0
TEXT
  8
0
 10
-131.057007
 20
-113.379997
 40
3.200000
  1
0
 50
0.000000
 41
1.052632
 51
0.000000
  7
STANDARD
  0
TEXT
  8
0
 10
-119.056999
 20
-113.379997
 40
3.200000
  1
0
 50
0.000000
 41
1.052632
 51
0.000000
  7
STANDARD
  0
TEXT
  8
0
 10
-108.656998
 20
-113.379997
 40
3.200000
  1
25
 50
0.000000
 41
1.052632
 51
0.000000
  7
STANDARD
  0
TEXT
  8
0
 10
-96.656998
 20
-113.379997
 40
3.200000
  1
50
 50
0.000000
 41
1.052632
 51
0.000000
  7
STANDARD
  0
TEXT
  8
0
 10
-155.057007
 20
-121.379997
 40
3.200000
  1
0
 50
0.000000
 41
1.052632
 51
0.000000
  7
STANDARD
  0
TEXT
  8
0
 10
-144.656998
 20
-121.379997
 40
3.200000
  1
10
 50
0.000000
 41
1.052632
 51
0.000000
  7
STANDARD
  0
TEXT
  8
0
 10
-132.656998
 20
-121.379997
 40
3.200000
  1
20
 50
0.000000
 41
1.052632
 51
0.000000
  7
STANDARD
  0
TEXT
  8
0
 10
-120.656998
 20
-121.379997
 40
3.200000
  1
40
 50
0.000000
 41
1.052632
 51
0.000000
  7
STANDARD
  0
TEXT
  8
0
 10
-108.656998
 20
-121.379997
 40
3.200000
  1
40
 50
0.000000
 41
1.052632
 51
0.000000
  7
STANDARD
  0
TEXT
  8
0
 10
-96.656998
 20
-121.379997
 40
3.200000
  1
40
 50
0.000000
 41
1.052632
 51
0.000000
  7
STANDARD
  0
TEXT
  8
0
 62
     2
 10
45.833508
 20
-32.000000
 40
3.200000
  1
STROKE=75-100
 50
0.000000
 41
1.052632
 51
0.000000
  7
STANDARD
  0
LINE
  8
0
 62
     2
 10
41.000000
 20
-33.000000
 11
87.183510
 21
-33.000000
  0
LINE
  8
0
 62
     2
 10
18.000008
 20
-33.000000
 11
41.000000
 21
-33.000000
  0
LINE
  8
0
 62
     2
 10
18.000008
 20
-33.000000
 11
20.897785
 21
-32.223541
  0
LINE
  8
0
 62
     2
 10
18.000008
 20
-33.000000
 11
20.897785
 21
-33.776459
  0
LINE
  8
0
 62
     2
 10
41.000000
 20
-33.000000
 11
38.102222
 21
-33.776459
  0
LINE
  8
0
 62
     2
 10
41.000000
 20
-33.000000
 11
38.102222
 21
-32.223541
  0
LINE
  8
0
 62
     2
 10
18.000008
 20
-17.500000
 11
18.000008
 21
-34.500000
  0
LINE
  8
0
 62
     2
 10
41.000000
 20
-12.000000
 11
41.000000
 21
-34.500000
  0
ENDSEC
  0
EOF
