  0
SECTION
  2
HEADER
  0
ENDSEC
  0
SECTION
  2
TABLES
  0
TABLE
  2
LTYPE
 70
     4
  0
LTYPE
  2
CONTINUOUS
 70
    64
  3
Solid line
 72
    65
 73
     0
 40
0.000000
  0
LTYPE
  2
DASHED
 70
    64
  3
__ __ __ __ __ __ __ __ __ __ __ __ __ __ __
 72
    65
 73
     2
 40
3.500000
 49
2.000000
 49
-1.500000
  0
LTYPE
  2
CENTER
 70
    64
  3
____ _ ____ _ ____ _ ____ _ ____ _ ____ _ ____
 72
    65
 73
     4
 40
17.500000
 49
13.000000
 49
-1.500000
 49
1.500000
 49
-1.500000
  0
LTYPE
  2
PHANTOM
 70
    64
  3
_____ _ _ _____ _ _ _____ _ _ _____ _ _ ____  
 72
    65
 73
     6
 40
15.500000
 49
8.000000
 49
-1.500000
 49
1.500000
 49
-1.500000
 49
1.500000
 49
-1.500000
  0
LTYPE
  2
DASHED1
 70
    64
  3
__ __ __ __ __ __ __ __ __ __ __ __ __ __ __
 72
    65
 73
     2
 40
1.500000
 49
1.000000
 49
-0.500000
  0
LTYPE
  2
DASHED2
 70
    64
  3
__ __ __ __ __ __ __ __ __ __ __ __ __ __ __
 72
    65
 73
     2
 40
3.500000
 49
2.500000
 49
-1.000000
  0
LTYPE
  2
DASHED3
 70
    64
  3
__ __ __ __ __ __ __ __ __ __ __ __ __ __ __
 72
    65
 73
     2
 40
6.000000
 49
4.000000
 49
-2.000000
  0
LTYPE
  2
DASHED4
 70
    64
  3
__ __ __ __ __ __ __ __ __ __ __ __ __ __ __
 72
    65
 73
     2
 40
12.000000
 49
10.000000
 49
-2.000000
  0
LTYPE
  2
DASHED5
 70
    64
  3
__ __ __ __ __ __ __ __ __ __ __ __ __ __ __
 72
    65
 73
     2
 40
17.000000
 49
15.000000
 49
-2.000000
  0
LTYPE
  2
DASHED6
 70
    64
  3
__ __ __ __ __ __ __ __ __ __ __ __ __ __ __
 72
    65
 73
     2
 40
29.000000
 49
27.000000
 49
-2.000000
  0
LTYPE
  2
PHANTOM1
 70
    64
  3
_____ _ _ _____ _ _ _____ _ _ _____ _ _ ____  
 72
    65
 73
     6
 40
31.000000
 49
25.000000
 49
-1.500000
 49
1.000000
 49
-1.000000
 49
1.000000
 49
-1.500000
  0
LTYPE
  2
PHANTOM2
 70
    64
  3
_____ _ _ _____ _ _ _____ _ _ _____ _ _ ____  
 72
    65
 73
     6
 40
36.000000
 49
27.000000
 49
-1.500000
 49
2.500000
 49
-1.000000
 49
2.500000
 49
-1.500000
  0
LTYPE
  2
PHANTOM3
 70
    64
  3
_____ _ _ _____ _ _ _____ _ _ _____ _ _ ____  
 72
    65
 73
     6
 40
78.000000
 49
64.000000
 49
-2.000000
 49
4.000000
 49
-2.000000
 49
4.000000
 49
-2.000000
  0
LTYPE
  2
CENTER1
 70
    64
  3
____ _ ____ _ ____ _ ____ _ ____ _ ____ _ ____
 72
    65
 73
     4
 40
19.000000
 49
14.000000
 49
-1.000000
 49
3.000000
 49
-1.000000
  0
LTYPE
  2
CENTER2
 70
    64
  3
____ _ ____ _ ____ _ ____ _ ____ _ ____ _ ____
 72
    65
 73
     4
 40
28.500000
 49
25.000000
 49
-1.000000
 49
1.500000
 49
-1.000000
  0
LTYPE
  2
CENTER3
 70
    64
  3
____ _ ____ _ ____ _ ____ _ ____ _ ____ _ ____
 72
    65
 73
     4
 40
31.500000
 49
27.000000
 49
-1.000000
 49
2.500000
 49
-1.000000
  0
LTYPE
  2
CENTER4
 70
    64
  3
____ _ ____ _ ____ _ ____ _ ____ _ ____ _ ____
 72
    65
 73
     4
 40
50.000000
 49
45.000000
 49
-1.000000
 49
3.000000
 49
-1.000000
  0
LTYPE
  2
CENTER5
 70
    64
  3
____ _ ____ _ ____ _ ____ _ ____ _ ____ _ ____
 72
    65
 73
     4
 40
100.000000
 49
92.000000
 49
-2.000000
 49
4.000000
 49
-2.000000
  0
LTYPE
  2
SBK1
 70
    64
  3
______ _ _ _ ______ _ _ _ ______ _ _ _ _____  
 72
    65
 73
     8
 40
60.500000
 49
45.000000
 49
-2.000000
 49
2.500000
 49
-2.000000
 49
2.500000
 49
-2.000000
 49
2.500000
 49
-2.000000
  0
LTYPE
  2
SBK2
 70
    64
  3
______ _ _ _ ______ _ _ _ ______ _ _ _ _____  
 72
    65
 73
     8
 40
84.000000
 49
64.000000
 49
-2.000000
 49
4.000000
 49
-2.000000
 49
4.000000
 49
-2.000000
 49
4.000000
 49
-2.000000
  0
LTYPE
  2
STCH
 70
    64
  3
__ __ __ __ __ __ __ __ __ __ __ __ __ __ __
 72
    65
 73
     2
 40
3.000000
 49
1.000000
 49
-2.000000
  0
LTYPE
  2
MTCH
 70
    64
  3
_____ _ _ _____ _ _ _____ _ _ _____ _ _ ____  
 72
    65
 73
     6
 40
80.000000
 49
66.000000
 49
-2.000000
 49
4.000000
 49
-2.000000
 49
4.000000
 49
-2.000000
  0
ENDTAB
  0
TABLE
  2
LAYER
 70
     1
  0
LAYER
  2
0
 70
     0
 62
     7
  6
CONTINUOUS
  0
ENDTAB
  0
TABLE
  2
STYLE
 70
     1
  0
STYLE
  2
STANDARD
 70
     0
 40
0.000000
 41
1.000000
 50
0.000000
 71
     0
 42
0.200000
  3
txt
  4
BIGFONT
  0
ENDTAB
  0
TABLE
  2
VIEW
 70
     0
  0
ENDTAB
  0
ENDSEC
  0
SECTION
  2
BLOCKS
  0
ENDSEC
  0
SECTION
  2
ENTITIES
  0
LINE
  8
0
  6
CENTER
 62
     2
 10
-42.610386
 20
10.000000
 11
18.970627
 21
10.000000
  0
LINE
  8
0
 10
-29.000000
 20
38.500008
 11
-29.000000
 21
-18.499954
  0
LINE
  8
0
 10
-28.500000
 20
39.000000
 11
15.500000
 21
39.000000
  0
LINE
  8
0
  6
CENTER
 62
     2
 10
-42.265816
 20
31.000000
 11
-26.901367
 21
31.000000
  0
LINE
  8
0
 10
-32.000000
 20
13.000000
 11
-29.000000
 21
13.000000
  0
LINE
  8
0
 10
-32.000000
 20
7.000000
 11
-29.000000
 21
7.000000
  0
LINE
  8
0
 10
-39.500000
 20
-18.000000
 11
-32.499992
 21
-18.000000
  0
LINE
  8
0
 10
-32.000000
 20
-17.500000
 11
-32.000000
 21
37.500038
  0
LINE
  8
0
 10
-40.000000
 20
-17.500000
 11
-40.000000
 21
37.499954
  0
LINE
  8
0
 10
-28.500006
 20
39.000000
 11
-29.000006
 21
38.500000
  0
LINE
  8
0
 10
15.499995
 20
39.000004
 11
15.999995
 21
38.500004
  0
LINE
  8
0
 10
-30.500000
 20
11.658339
 11
-30.500000
 21
8.341690
  0
LINE
  8
0
 10
-32.000000
 20
8.341690
 11
-30.500000
 21
8.341690
  0
LINE
  8
0
 10
-32.000046
 20
9.170842
 11
-30.500021
 21
11.658352
  0
LINE
  8
0
 10
-32.000004
 20
10.829097
 11
-30.500036
 21
8.341678
  0
LINE
  8
0
 10
-39.999969
 20
-17.499987
 11
-39.499969
 21
-17.999987
  0
LINE
  8
0
 10
-31.999987
 20
-17.500021
 11
-32.499969
 21
-18.000013
  0
LINE
  8
0
  6
CENTER
 62
     2
 10
-42.267570
 20
-11.000000
 11
-26.735527
 21
-11.000000
  0
LINE
  8
0
 10
-29.000000
 20
11.649986
 11
16.000000
 21
11.649986
  0
LINE
  8
0
 10
-29.000000
 20
14.849983
 11
16.000000
 21
14.849983
  0
LINE
  8
0
 10
-32.000000
 20
11.658339
 11
-30.500000
 21
11.658339
  0
LINE
  8
0
 10
-29.000000
 20
38.000008
 11
16.000000
 21
38.000008
  0
LINE
  8
0
  6
CENTER
 62
     2
 10
-29.712475
 20
21.000000
 11
-18.645687
 21
21.000000
  0
LINE
  8
0
  6
DASHED
 62
     2
 10
31.000000
 20
-8.500004
 11
31.000000
 21
-13.500000
  0
LINE
  8
0
  6
DASHED
 62
     2
 10
16.000000
 20
-14.000000
 11
30.500000
 21
-14.000000
  0
LINE
  8
0
  6
DASHED
 62
     2
 10
30.499994
 20
-8.000002
 11
30.999996
 21
-8.500004
  0
LINE
  8
0
  6
DASHED
 62
     2
 10
30.999996
 20
-13.499999
 11
30.499994
 21
-14.000000
  0
LINE
  8
0
  6
DASHED
 62
     2
 10
30.500000
 20
-8.000004
 11
30.500000
 21
-14.000000
  0
LINE
  8
0
  6
DASHED
 62
     2
 10
31.000000
 20
33.500000
 11
31.000000
 21
28.500000
  0
LINE
  8
0
  6
DASHED
 62
     2
 10
16.000000
 20
28.000000
 11
30.500000
 21
28.000000
  0
LINE
  8
0
  6
DASHED
 62
     2
 10
16.000000
 20
34.000000
 11
30.500000
 21
34.000000
  0
LINE
  8
0
  6
DASHED
 62
     2
 10
30.499998
 20
33.999996
 11
30.999996
 21
33.500000
  0
LINE
  8
0
  6
DASHED
 62
     2
 10
30.999998
 20
28.500002
 11
30.499998
 21
28.000000
  0
LINE
  8
0
  6
DASHED
 62
     2
 10
30.500000
 20
34.000000
 11
30.500000
 21
28.000000
  0
LINE
  8
0
 10
-31.999983
 20
37.500027
 11
-32.499966
 21
38.000019
  0
LINE
  8
0
 10
-39.500000
 20
38.000000
 11
-32.499992
 21
38.000000
  0
LINE
  8
0
 10
-39.999969
 20
37.499985
 11
-39.499969
 21
37.999985
  0
LINE
  8
0
 10
-29.000000
 20
8.350014
 11
16.000000
 21
8.350014
  0
LINE
  8
0
 10
-29.000000
 20
5.150017
 11
16.000000
 21
5.150017
  0
LINE
  8
0
  6
CENTER
 62
     2
 10
-9.000000
 20
-3.415239
 11
-9.000000
 21
-10.585136
  0
LINE
  8
0
  6
DASHED
 62
     2
 10
-12.000000
 20
-17.269794
 11
-12.000000
 21
-19.000000
  0
LINE
  8
0
  6
DASHED
 62
     2
 10
-8.000000
 20
-17.269794
 11
-8.000000
 21
-19.000000
  0
LINE
  8
0
  6
DASHED
 62
     2
 10
-7.500000
 20
-17.269794
 11
-7.500000
 21
-19.000000
  0
LINE
  8
0
  6
DASHED
 62
     2
 10
-12.500000
 20
-17.269794
 11
-12.500000
 21
-19.000000
  0
LINE
  8
0
  6
DASHED
 62
     2
 10
0.000000
 20
-17.269794
 11
0.000000
 21
-19.000000
  0
LINE
  8
0
  6
DASHED
 62
     2
 10
4.000000
 20
-17.269794
 11
4.000000
 21
-19.000000
  0
LINE
  8
0
  6
DASHED
 62
     2
 10
4.500000
 20
-17.269794
 11
4.500000
 21
-19.000000
  0
LINE
  8
0
  6
DASHED
 62
     2
 10
-0.500000
 20
-17.269794
 11
-0.500000
 21
-19.000000
  0
LINE
  8
0
  6
CENTER
 62
     2
 10
10.000000
 20
-3.541532
 11
10.000000
 21
-10.585136
  0
LINE
  8
0
  6
CENTER
 62
     2
 10
-12.305964
 20
-7.000000
 11
-5.803162
 21
-7.000000
  0
LINE
  8
0
  6
CENTER
 62
     2
 10
6.637939
 20
-7.000000
 11
13.405716
 21
-7.000000
  0
LINE
  8
0
 10
-29.000000
 20
-14.193901
 11
16.000000
 21
-14.193901
  0
LINE
  8
0
 10
-29.000000
 20
-16.932701
 11
15.999996
 21
-16.932701
  0
LINE
  8
0
 10
-29.000000
 20
-18.000000
 11
16.000000
 21
-18.000000
  0
LINE
  8
0
 10
-28.500000
 20
-19.000000
 11
15.500000
 21
-19.000000
  0
LINE
  8
0
  6
CENTER
 62
     2
 10
-28.873180
 20
-1.000000
 11
-19.268295
 21
-1.000000
  0
LINE
  8
0
  6
CENTER
 62
     2
 10
-24.000000
 20
3.783443
 11
-24.000000
 21
-6.065514
  0
LINE
  8
0
  6
CENTER
 62
     2
 10
6.294140
 20
-1.000000
 11
-4.324692
 21
-1.000000
  0
LINE
  8
0
  6
CENTER
 62
     2
 10
1.000000
 20
3.775612
 11
1.000000
 21
-6.206734
  0
LINE
  8
0
 10
-28.999971
 20
-18.499983
 11
-28.499971
 21
-18.999983
  0
LINE
  8
0
 10
16.000006
 20
-18.499998
 11
15.500006
 21
-18.999998
  0
LINE
  8
0
  6
CENTER
 62
     2
 10
2.000000
 20
-15.914539
 11
2.000000
 21
-19.699860
  0
LINE
  8
0
 10
15.999996
 20
38.499992
 11
15.999996
 21
-18.500000
  0
LINE
  8
0
  6
CENTER
 62
     2
 10
-24.000000
 20
26.005264
 11
-24.000000
 21
16.167206
  0
LINE
  8
0
  6
CENTER
 62
     2
 10
-4.210594
 20
21.000000
 11
5.898235
 21
21.000000
  0
LINE
  8
0
  6
CENTER
 62
     2
 10
1.000000
 20
25.915009
 11
1.000000
 21
16.257462
  0
LINE
  8
0
 10
-29.000000
 20
26.849998
 11
16.000000
 21
26.849998
  0
LINE
  8
0
 10
-29.000000
 20
30.150002
 11
16.000000
 21
30.150002
  0
LINE
  8
0
  6
CENTER
 62
     2
 10
-10.000000
 20
-16.312248
 11
-10.000000
 21
-19.000000
  0
LINE
  8
0
 10
-32.000000
 20
34.000000
 11
-29.000000
 21
34.000000
  0
LINE
  8
0
 10
-32.000000
 20
28.000000
 11
-29.000000
 21
28.000000
  0
LINE
  8
0
 10
-32.000000
 20
-8.000000
 11
-29.000000
 21
-8.000000
  0
LINE
  8
0
 10
-32.000000
 20
-14.000000
 11
-29.000000
 21
-14.000000
  0
LINE
  8
0
  6
DASHED
 62
     2
 10
16.000000
 20
-8.000000
 11
30.500000
 21
-8.000000
  0
LINE
  8
0
  6
PHANTOM
 62
     3
 10
6.500000
 20
47.000000
 11
6.500000
 21
-8.000000
  0
LINE
  8
0
  6
PHANTOM
 62
     3
 10
-1.500000
 20
-8.000000
 11
-1.500000
 21
-24.000000
  0
LINE
  8
0
  6
PHANTOM
 62
     3
 10
-5.000000
 20
54.000000
 11
-5.000000
 21
-24.000000
  0
LINE
  8
0
  6
PHANTOM
 62
     3
 10
-1.500000
 20
-8.000000
 11
6.500000
 21
-8.000000
  0
LINE
  8
0
 10
-29.000000
 20
-12.000000
 11
15.999996
 21
-12.000000
  0
LINE
  8
0
 10
-29.000000
 20
4.000000
 11
15.999996
 21
4.000000
  0
LINE
  8
0
 10
-29.000000
 20
16.000000
 11
15.999996
 21
16.000000
  0
LINE
  8
0
 62
     2
 10
-131.081955
 20
10.000000
 11
-137.717438
 21
10.000000
  0
LINE
  8
0
 10
-127.000031
 20
38.999985
 11
-153.000031
 21
38.999985
  0
LINE
  8
0
 10
-127.000031
 20
-19.000000
 11
-153.000031
 21
-19.000000
  0
LINE
  8
0
 10
-154.000015
 20
-18.000000
 11
-154.000015
 21
-11.149994
  0
LINE
  8
0
 10
-152.999985
 20
-19.000019
 11
-153.999985
 21
-18.000017
  0
LINE
  8
0
 10
-154.000015
 20
37.999977
 11
-153.000015
 21
38.999977
  0
LINE
  8
0
 10
-127.000000
 20
39.000057
 11
-126.000000
 21
38.000053
  0
LINE
  8
0
 10
-126.000031
 20
30.650002
 11
-126.000031
 21
37.999985
  0
LINE
  8
0
 10
-153.500031
 20
26.350006
 11
-151.500031
 21
26.350006
  0
LINE
  8
0
 10
-153.500031
 20
30.649994
 11
-151.500031
 21
30.649994
  0
LINE
  8
0
 10
-151.500031
 20
32.149994
 11
-151.000000
 21
32.149994
  0
LINE
  8
0
 10
-151.500015
 20
24.850006
 11
-151.000000
 21
24.850006
  0
LINE
  8
0
 10
-154.000015
 20
-5.850006
 11
-154.000015
 21
3.500000
  0
LINE
  8
0
 10
-154.000015
 20
31.149994
 11
-154.000015
 21
37.999985
  0
LINE
  8
0
 10
-152.000015
 20
8.799988
 11
-152.000015
 21
11.200012
  0
LINE
  8
0
 10
-151.700027
 20
14.700012
 11
-151.500031
 21
14.700012
  0
LINE
  8
0
 10
-151.700027
 20
11.500000
 11
-151.500031
 21
11.500000
  0
LINE
  8
0
 10
-150.999985
 20
11.000030
 11
-151.499969
 21
11.500022
  0
LINE
  8
0
 10
-151.500076
 20
14.700022
 11
-151.000076
 21
15.200023
  0
LINE
  8
0
 10
-152.000015
 20
15.000000
 11
-152.000015
 21
16.000000
  0
LINE
  8
0
 10
-151.700027
 20
5.299988
 11
-151.500031
 21
5.299988
  0
LINE
  8
0
 10
-151.700027
 20
8.500000
 11
-151.500031
 21
8.500000
  0
LINE
  8
0
 10
-151.000061
 20
9.000047
 11
-151.500061
 21
8.500046
  0
LINE
  8
0
 10
-151.500031
 20
5.300030
 11
-151.000046
 21
4.800038
  0
LINE
  8
0
 10
-152.000015
 20
5.000000
 11
-152.000015
 21
4.000000
  0
LINE
  8
0
 10
-153.500031
 20
16.000000
 11
-152.000031
 21
16.000000
  0
LINE
  8
0
 10
-153.500031
 20
4.000000
 11
-152.000031
 21
4.000000
  0
LINE
  8
0
 10
-154.000015
 20
16.500000
 11
-154.000015
 21
25.850006
  0
LINE
  8
0
 10
-151.500015
 20
24.850006
 11
-151.500015
 21
26.350006
  0
LINE
  8
0
 10
-151.500015
 20
30.649994
 11
-151.500015
 21
32.149994
  0
LINE
  8
0
 10
-151.500015
 20
-10.649994
 11
-151.500015
 21
-12.149994
  0
LINE
  8
0
 10
-153.500031
 20
-6.350006
 11
-151.500031
 21
-6.350006
  0
LINE
  8
0
 10
-153.500031
 20
-10.649994
 11
-151.500031
 21
-10.649994
  0
LINE
  8
0
 10
-151.500031
 20
-12.149994
 11
-151.000000
 21
-12.149994
  0
LINE
  8
0
 10
-151.500031
 20
-4.850006
 11
-151.000000
 21
-4.850006
  0
LINE
  8
0
 10
-151.500015
 20
-4.850006
 11
-151.500015
 21
-6.350006
  0
LINE
  8
0
 10
-127.500031
 20
25.599998
 11
-127.500031
 21
26.849998
  0
LINE
  8
0
 10
-127.500031
 20
30.150002
 11
-127.500031
 21
31.400002
  0
LINE
  8
0
 10
-128.000031
 20
8.799988
 11
-128.000031
 21
11.200012
  0
LINE
  8
0
 10
-128.300034
 20
14.700012
 11
-128.500031
 21
14.700012
  0
LINE
  8
0
 10
-128.300034
 20
11.500000
 11
-128.500031
 21
11.500000
  0
LINE
  8
0
 10
-129.000107
 20
11.000037
 11
-128.500107
 21
11.500028
  0
LINE
  8
0
 10
-128.500000
 20
14.700077
 11
-129.000000
 21
15.200078
  0
LINE
  8
0
 10
-128.000031
 20
15.000000
 11
-128.000031
 21
16.000000
  0
LINE
  8
0
 10
-128.300034
 20
5.299988
 11
-128.500031
 21
5.299988
  0
LINE
  8
0
 10
-128.300034
 20
8.500000
 11
-128.500031
 21
8.500000
  0
LINE
  8
0
 10
-129.000000
 20
9.000081
 11
-128.499985
 21
8.500067
  0
LINE
  8
0
 10
-128.500061
 20
5.299988
 11
-129.000061
 21
4.799988
  0
LINE
  8
0
 10
-128.000031
 20
5.000000
 11
-128.000031
 21
4.000000
  0
LINE
  8
0
 10
-126.500031
 20
16.000000
 11
-128.000031
 21
16.000000
  0
LINE
  8
0
 10
-126.500031
 20
4.000000
 11
-128.000031
 21
4.000000
  0
LINE
  8
0
 10
-126.000031
 20
16.500000
 11
-126.000031
 21
26.349998
  0
LINE
  8
0
 10
-126.000031
 20
-11.999931
 11
-126.000031
 21
3.500000
  0
LINE
  8
0
 10
-128.349045
 20
-13.971049
 11
-126.000015
 21
-11.999975
  0
LINE
  8
0
 10
-126.000046
 20
-16.770487
 11
-128.349075
 21
-13.971020
  0
LINE
  8
0
 10
-126.000031
 20
-18.000008
 11
-126.000031
 21
-16.770485
  0
LINE
  8
0
 10
-127.000046
 20
-18.999983
 11
-126.042274
 21
-18.042212
  0
LINE
  8
0
  6
CENTER
 62
     2
 10
-152.739960
 20
10.000000
 11
-127.349335
 21
10.000000
  0
LINE
  8
0
  6
CENTER
 62
     2
 10
-140.000000
 20
39.688095
 11
-140.000000
 21
-19.739683
  0
LINE
  8
0
 10
-149.999985
 20
37.999981
 11
-150.999985
 21
36.999989
  0
LINE
  8
0
 10
-129.999985
 20
38.000004
 11
-128.999985
 21
37.000000
  0
LINE
  8
0
 10
-129.000000
 20
-16.999998
 11
-130.000000
 21
-18.000000
  0
LINE
  8
0
 10
-151.000000
 20
-17.000004
 11
-150.000000
 21
-17.999996
  0
LINE
  8
0
 10
-151.000000
 20
36.999996
 11
-151.000000
 21
-17.000002
  0
LINE
  8
0
 10
-129.000000
 20
36.999989
 11
-129.000000
 21
-16.999996
  0
LINE
  8
0
 10
-150.000000
 20
-17.999998
 11
-130.000000
 21
-17.999998
  0
LINE
  8
0
 10
-150.000000
 20
37.999996
 11
-130.000000
 21
37.999996
  0
LINE
  8
0
  6
CENTER
 62
     2
 10
-150.211716
 20
34.000000
 11
-143.584320
 21
34.000000
  0
LINE
  8
0
  6
CENTER
 62
     2
 10
-147.000000
 20
-11.015022
 11
-147.000000
 21
-16.887241
  0
LINE
  8
0
  6
CENTER
 62
     2
 10
-133.000000
 20
-10.804045
 11
-133.000000
 21
-16.887241
  0
LINE
  8
0
  6
CENTER
 62
     2
 10
-150.352722
 20
-14.000000
 11
-144.007339
 21
-14.000000
  0
LINE
  8
0
 10
-139.999985
 20
-9.556632
 11
-141.249985
 21
-10.278322
  0
LINE
  8
0
 10
-141.250000
 20
-10.278313
 11
-141.250000
 21
-11.721687
  0
LINE
  8
0
 10
-139.999985
 20
-12.443377
 11
-141.249985
 21
-11.721690
  0
LINE
  8
0
 10
-138.749985
 20
-11.721686
 11
-139.999985
 21
-12.443374
  0
LINE
  8
0
 10
-138.750000
 20
-10.278313
 11
-138.750000
 21
-11.721687
  0
LINE
  8
0
 10
-139.999985
 20
-9.556624
 11
-138.749969
 21
-10.278317
  0
LINE
  8
0
 10
-141.250000
 20
31.721687
 11
-141.250000
 21
30.278313
  0
LINE
  8
0
 10
-140.000000
 20
29.556625
 11
-141.250000
 21
30.278313
  0
LINE
  8
0
 10
-138.750000
 20
30.278315
 11
-140.000000
 21
29.556627
  0
LINE
  8
0
 10
-138.750000
 20
31.721687
 11
-138.750000
 21
30.278313
  0
LINE
  8
0
 10
-140.000000
 20
32.443378
 11
-138.749985
 21
31.721685
  0
LINE
  8
0
 10
-139.999985
 20
32.443367
 11
-141.249985
 21
31.721678
  0
LINE
  8
0
 10
-141.250000
 20
10.721687
 11
-141.250000
 21
9.278313
  0
LINE
  8
0
 10
-140.000000
 20
8.556617
 11
-141.250000
 21
9.278303
  0
LINE
  8
0
 10
-138.749985
 20
9.278321
 11
-139.999985
 21
8.556635
  0
LINE
  8
0
 10
-138.750000
 20
10.721687
 11
-138.750000
 21
9.278313
  0
LINE
  8
0
 10
-139.999985
 20
11.443381
 11
-138.749985
 21
10.721685
  0
LINE
  8
0
 10
-139.999985
 20
11.443365
 11
-141.249985
 21
10.721678
  0
LINE
  8
0
  6
CENTER
 62
     2
 10
-145.248413
 20
-11.000000
 11
-134.418213
 21
-11.000000
  0
LINE
  8
0
  6
CENTER
 62
     2
 10
-136.106033
 20
-14.000000
 11
-129.847031
 21
-14.000000
  0
LINE
  8
0
  6
CENTER
 62
     2
 10
-145.015015
 20
31.000000
 11
-135.005096
 21
31.000000
  0
LINE
  8
0
  6
CENTER
 62
     2
 10
-135.953003
 20
34.000000
 11
-130.000137
 21
34.000000
  0
LINE
  8
0
  6
CENTER
 62
     2
 10
-133.000000
 20
36.973804
 11
-133.000000
 21
31.096767
  0
LINE
  8
0
  6
CENTER
 62
     2
 10
-147.000000
 20
36.897968
 11
-147.000000
 21
31.096767
  0
LINE
  8
0
 10
-126.500031
 20
26.849998
 11
-127.500031
 21
26.849998
  0
LINE
  8
0
 10
-126.500031
 20
30.150002
 11
-127.500031
 21
30.150002
  0
LINE
  8
0
 10
-127.500031
 20
31.400002
 11
-129.000000
 21
31.400002
  0
LINE
  8
0
 10
-127.500031
 20
25.599998
 11
-129.000000
 21
25.599998
  0
LINE
  8
0
  6
CENTER
 62
     2
 10
120.000015
 20
-22.005547
 11
120.000015
 21
40.448971
  0
LINE
  8
0
  6
CENTER
 62
     2
 10
113.655807
 20
31.000000
 11
126.152130
 21
31.000000
  0
LINE
  8
0
  6
CENTER
 62
     2
 10
113.843071
 20
-11.000000
 11
126.020775
 21
-11.000000
  0
LINE
  8
0
 10
107.000031
 20
38.999985
 11
133.000031
 21
38.999985
  0
LINE
  8
0
 10
134.000015
 20
-17.999941
 11
134.000015
 21
-11.149994
  0
LINE
  8
0
 10
132.999969
 20
-19.000011
 11
133.999969
 21
-18.000010
  0
LINE
  8
0
 10
134.000015
 20
37.999985
 11
133.000000
 21
38.999985
  0
LINE
  8
0
 10
106.999969
 20
39.000080
 11
105.999969
 21
38.000080
  0
LINE
  8
0
 10
133.500031
 20
26.350006
 11
131.500031
 21
26.350006
  0
LINE
  8
0
 10
133.500031
 20
30.649994
 11
131.500031
 21
30.649994
  0
LINE
  8
0
 10
131.500031
 20
32.149994
 11
128.000031
 21
32.149994
  0
LINE
  8
0
 10
131.500031
 20
24.850006
 11
128.000031
 21
24.850006
  0
LINE
  8
0
 10
134.000015
 20
-5.850006
 11
134.000015
 21
3.499999
  0
LINE
  8
0
 10
134.000015
 20
31.149994
 11
134.000015
 21
38.000000
  0
LINE
  8
0
 10
131.000031
 20
11.000000
 11
129.400024
 21
11.000000
  0
LINE
  8
0
 10
131.000031
 20
15.200012
 11
129.400024
 21
15.200012
  0
LINE
  8
0
 10
132.000015
 20
8.799988
 11
132.000015
 21
11.200012
  0
LINE
  8
0
 10
131.700027
 20
14.700012
 11
131.500031
 21
14.700012
  0
LINE
  8
0
 10
131.700027
 20
11.500000
 11
131.500031
 21
11.500000
  0
LINE
  8
0
 10
131.000015
 20
11.000031
 11
131.500000
 21
11.500023
  0
LINE
  8
0
 10
131.500061
 20
14.700017
 11
131.000061
 21
15.200017
  0
LINE
  8
0
 10
132.000015
 20
15.000000
 11
132.000015
 21
16.000000
  0
LINE
  8
0
 10
131.000031
 20
9.000000
 11
129.400024
 21
9.000000
  0
LINE
  8
0
 10
131.000031
 20
4.799988
 11
129.400024
 21
4.799988
  0
LINE
  8
0
 10
131.700027
 20
5.299988
 11
131.500031
 21
5.299988
  0
LINE
  8
0
 10
131.700027
 20
8.500000
 11
131.500031
 21
8.500000
  0
LINE
  8
0
 10
131.000076
 20
9.000038
 11
131.500061
 21
8.500043
  0
LINE
  8
0
 10
131.500015
 20
5.300014
 11
131.000031
 21
4.800020
  0
LINE
  8
0
 10
132.000015
 20
5.000000
 11
132.000015
 21
4.000000
  0
LINE
  8
0
 10
133.500031
 20
16.000000
 11
132.000031
 21
16.000000
  0
LINE
  8
0
 10
133.500031
 20
4.000000
 11
132.000031
 21
4.000000
  0
LINE
  8
0
 10
134.000015
 20
16.500000
 11
134.000015
 21
25.850006
  0
LINE
  8
0
 10
128.000015
 20
24.850006
 11
128.000015
 21
32.149994
  0
LINE
  8
0
 10
131.500015
 20
24.850006
 11
131.500015
 21
26.350006
  0
LINE
  8
0
 10
131.500015
 20
30.649994
 11
131.500015
 21
32.149994
  0
LINE
  8
0
 10
131.500015
 20
-10.649994
 11
131.500015
 21
-12.149994
  0
LINE
  8
0
 10
133.500031
 20
-6.350006
 11
131.500031
 21
-6.350006
  0
LINE
  8
0
 10
133.500031
 20
-10.649994
 11
131.500031
 21
-10.649994
  0
LINE
  8
0
 10
131.500031
 20
-12.149994
 11
128.000031
 21
-12.149994
  0
LINE
  8
0
 10
131.500031
 20
-4.850006
 11
128.000031
 21
-4.850006
  0
LINE
  8
0
 10
128.000015
 20
-4.850006
 11
128.000015
 21
-12.149994
  0
LINE
  8
0
 10
131.500015
 20
-4.850006
 11
131.500015
 21
-6.350006
  0
LINE
  8
0
  6
CENTER
 62
     2
 10
106.286751
 20
10.000000
 11
133.693527
 21
10.000000
  0
LINE
  8
0
 10
109.000031
 20
11.000000
 11
110.600037
 21
11.000000
  0
LINE
  8
0
 10
109.000031
 20
15.200012
 11
110.600037
 21
15.200012
  0
LINE
  8
0
 10
108.000031
 20
8.799988
 11
108.000031
 21
11.200012
  0
LINE
  8
0
 10
108.300034
 20
14.700012
 11
108.500031
 21
14.700012
  0
LINE
  8
0
 10
108.300034
 20
11.500000
 11
108.500031
 21
11.500000
  0
LINE
  8
0
 10
109.000053
 20
11.000004
 11
108.500053
 21
11.500005
  0
LINE
  8
0
 10
108.499977
 20
14.700044
 11
108.999985
 21
15.200047
  0
LINE
  8
0
 10
108.000031
 20
15.000000
 11
108.000031
 21
16.000000
  0
LINE
  8
0
 10
109.000031
 20
9.000000
 11
110.600037
 21
9.000000
  0
LINE
  8
0
 10
109.000031
 20
4.799988
 11
110.600037
 21
4.799988
  0
LINE
  8
0
 10
108.300034
 20
5.299988
 11
108.500031
 21
5.299988
  0
LINE
  8
0
 10
108.300034
 20
8.500000
 11
108.500031
 21
8.500000
  0
LINE
  8
0
 10
108.999992
 20
9.000051
 11
108.499992
 21
8.500050
  0
LINE
  8
0
 10
108.500046
 20
5.300002
 11
109.000046
 21
4.800001
  0
LINE
  8
0
 10
108.000031
 20
5.000000
 11
108.000031
 21
4.000000
  0
LINE
  8
0
 10
106.500031
 20
16.000000
 11
108.000031
 21
16.000000
  0
LINE
  8
0
 10
106.500031
 20
4.000000
 11
108.000031
 21
4.000000
  0
LINE
  8
0
  6
CENTER
 62
     2
 10
129.000015
 20
32.024734
 11
129.000015
 21
38.885159
  0
LINE
  8
0
  6
CENTER
 62
     2
 10
125.652000
 20
35.500000
 11
132.287491
 21
35.500000
  0
LINE
  8
0
  6
CENTER
 62
     2
 10
111.000015
 20
32.024734
 11
111.000015
 21
38.885159
  0
LINE
  8
0
  6
CENTER
 62
     2
 10
114.348030
 20
35.500000
 11
107.712540
 21
35.500000
  0
LINE
  8
0
  6
CENTER
 62
     2
 10
111.000015
 20
-12.024734
 11
111.000015
 21
-18.885159
  0
LINE
  8
0
  6
CENTER
 62
     2
 10
107.652000
 20
-15.500000
 11
114.287491
 21
-15.500000
  0
LINE
  8
0
 10
106.000053
 20
-17.077078
 11
108.500053
 21
-14.097691
  0
LINE
  8
0
 10
107.000031
 20
-19.000000
 11
133.000031
 21
-19.000000
  0
LINE
  8
0
 10
107.000015
 20
-18.999985
 11
106.042236
 21
-18.042204
  0
LINE
  8
0
 10
106.000031
 20
-18.000008
 11
106.000031
 21
-17.077072
  0
LINE
  8
0
  6
CENTER
 62
     2
 10
111.500015
 20
-19.871136
 11
111.500015
 21
-16.717283
  0
LINE
  8
0
  6
DASHED
 62
     2
 10
109.000015
 20
-19.000000
 11
109.000015
 21
-17.269794
  0
LINE
  8
0
  6
DASHED
 62
     2
 10
114.000015
 20
-19.000000
 11
114.000015
 21
-17.269794
  0
LINE
  8
0
  6
DASHED
 62
     2
 10
113.600014
 20
-19.000000
 11
113.600014
 21
-17.269794
  0
LINE
  8
0
  6
DASHED
 62
     2
 10
109.400017
 20
-19.000000
 11
109.400017
 21
-17.269794
  0
LINE
  8
0
 10
108.500008
 20
-14.097680
 11
106.000008
 21
-11.999929
  0
LINE
  8
0
 10
106.000031
 20
-11.999933
 11
106.000031
 21
3.500000
  0
LINE
  8
0
  6
CENTER
 62
     2
 10
129.698730
 20
-8.500000
 11
127.092094
 21
-8.500000
  0
LINE
  8
0
 10
128.000015
 20
-10.000000
 11
125.000000
 21
-10.000000
  0
LINE
  8
0
 10
128.000015
 20
-7.000000
 11
123.000031
 21
-7.000000
  0
LINE
  8
0
  6
CENTER
 62
     2
 10
129.567383
 20
28.500000
 11
126.868645
 21
28.500000
  0
LINE
  8
0
 10
128.000015
 20
27.000000
 11
123.000031
 21
27.000000
  0
LINE
  8
0
 10
128.000015
 20
30.000000
 11
124.899010
 21
30.000000
  0
LINE
  8
0
  6
CENTER
 62
     2
 10
106.453865
 20
28.500000
 11
111.467300
 21
28.500000
  0
LINE
  8
0
  6
CENTER
 62
     2
 10
129.000015
 20
-12.024734
 11
129.000015
 21
-18.885159
  0
LINE
  8
0
  6
CENTER
 62
     2
 10
125.652000
 20
-15.500000
 11
132.287491
 21
-15.500000
  0
LINE
  8
0
 10
131.000015
 20
-12.149994
 11
131.000015
 21
-4.850006
  0
LINE
  8
0
 10
109.000015
 20
4.800020
 11
109.000015
 21
9.000000
  0
LINE
  8
0
 10
109.000015
 20
25.599998
 11
109.000015
 21
31.400002
  0
LINE
  8
0
 10
109.000015
 20
11.000000
 11
109.000015
 21
15.200012
  0
LINE
  8
0
 10
131.000015
 20
11.000000
 11
131.000015
 21
15.200012
  0
LINE
  8
0
 10
131.000015
 20
24.850006
 11
131.000015
 21
32.149994
  0
LINE
  8
0
 10
131.000015
 20
4.799988
 11
131.000015
 21
9.000000
  0
LINE
  8
0
 10
106.000031
 20
30.650002
 11
106.000031
 21
38.000099
  0
LINE
  8
0
 10
106.500031
 20
30.150002
 11
107.500031
 21
30.150002
  0
LINE
  8
0
 10
107.500031
 20
30.150002
 11
107.500031
 21
31.400002
  0
LINE
  8
0
 10
107.500031
 20
31.400002
 11
110.500031
 21
31.400002
  0
LINE
  8
0
 10
110.500031
 20
25.599998
 11
110.500031
 21
31.400002
  0
LINE
  8
0
 10
107.500031
 20
25.599998
 11
110.500031
 21
25.599998
  0
LINE
  8
0
 10
107.500031
 20
25.599998
 11
107.500031
 21
26.849998
  0
LINE
  8
0
 10
106.500031
 20
26.849998
 11
107.500031
 21
26.849998
  0
LINE
  8
0
 10
106.000031
 20
16.500000
 11
106.000031
 21
26.349998
  0
LINE
  8
0
  6
CENTER
 62
     2
 10
111.500015
 20
-5.490856
 11
111.500015
 21
-8.585133
  0
LINE
  8
0
  6
CENTER
 62
     2
 10
109.976486
 20
-6.999998
 11
113.070763
 21
-6.999998
  0
LINE
  8
0
 10
-194.250000
 20
132.600006
 11
194.800003
 21
132.600006
  0
LINE
  8
0
 10
194.800003
 20
132.600006
 11
194.800003
 21
-133.500000
  0
LINE
  8
0
 10
-194.250000
 20
132.600006
 11
-194.250000
 21
-133.500000
  0
LINE
  8
0
 10
-194.250000
 20
-133.500000
 11
194.800003
 21
-133.500000
  0
LINE
  8
0
 10
109.800003
 20
-118.500000
 11
109.800003
 21
-133.500000
  0
LINE
  8
0
 10
109.800003
 20
-118.500000
 11
194.800003
 21
-118.500000
  0
LINE
  8
0
 10
109.800003
 20
132.600006
 11
109.800003
 21
117.600006
  0
LINE
  8
0
 10
109.800003
 20
117.600006
 11
194.800003
 21
117.600006
  0
LINE
  8
0
 10
-194.250000
 20
117.600006
 11
-84.250000
 21
117.600006
  0
LINE
  8
0
 10
-84.250000
 20
132.600006
 11
-84.250000
 21
117.600006
  0
LINE
  8
0
 10
-184.250000
 20
-123.500000
 11
-87.250000
 21
-123.500000
  0
LINE
  8
0
 10
-184.250000
 20
-123.500000
 11
-184.250000
 21
-92.500000
  0
LINE
  8
0
 10
-184.250000
 20
-115.500000
 11
-87.250000
 21
-115.500000
  0
LINE
  8
0
 10
-184.250000
 20
-107.500000
 11
-87.250000
 21
-107.500000
  0
LINE
  8
0
 10
-159.250000
 20
-123.500000
 11
-159.250000
 21
-92.500000
  0
LINE
  8
0
 10
-135.250000
 20
-123.500000
 11
-135.250000
 21
-92.500000
  0
LINE
  8
0
 10
-147.250000
 20
-123.500000
 11
-147.250000
 21
-92.500000
  0
LINE
  8
0
 10
-123.250000
 20
-123.500000
 11
-123.250000
 21
-92.500000
  0
LINE
  8
0
 10
-111.250000
 20
-123.500000
 11
-111.250000
 21
-92.500000
  0
LINE
  8
0
 10
-99.250000
 20
-123.500000
 11
-99.250000
 21
-92.500000
  0
LINE
  8
0
 10
-159.250046
 20
-107.500015
 11
-161.929535
 21
-97.500023
  0
LINE
  8
0
 10
-184.250000
 20
-97.500000
 11
-161.929489
 21
-97.500000
  0
LINE
  8
0
 10
-184.250000
 20
-92.500000
 11
-87.250000
 21
-92.500000
  0
LINE
  8
0
 10
-87.250000
 20
-123.500000
 11
-87.250000
 21
-92.500000
  0
CIRCLE
  8
0
  6
DASHED
 62
     2
 10
-24.000000
 20
-1.000000
 40
2.500000
  0
CIRCLE
  8
0
  6
DASHED
 62
     2
 10
1.000000
 20
-1.000000
 40
2.500000
  0
CIRCLE
  8
0
  6
DASHED
 62
     2
 10
-24.000000
 20
21.000000
 40
2.500000
  0
CIRCLE
  8
0
 10
-24.000000
 20
21.000000
 40
2.100000
  0
CIRCLE
  8
0
  6
DASHED
 62
     2
 10
1.000000
 20
21.000000
 40
2.500000
  0
CIRCLE
  8
0
 10
1.000000
 20
21.000000
 40
2.100000
  0
ARC
  8
0
 10
-33.000008
 20
10.000000
 40
3.000005
 50
326.442810
 51
33.557175
  0
CIRCLE
  8
0
 10
-24.000000
 20
21.000000
 40
4.000000
  0
CIRCLE
  8
0
 10
1.000000
 20
21.000000
 40
4.000000
  0
CIRCLE
  8
0
 62
     2
 10
-9.000000
 20
-7.000000
 40
2.500000
  0
CIRCLE
  8
0
 62
     2
 10
10.000000
 20
-7.000000
 40
2.500000
  0
CIRCLE
  8
0
 10
-24.000000
 20
-1.000000
 40
4.000000
  0
CIRCLE
  8
0
 10
1.000000
 20
-1.000000
 40
4.000000
  0
CIRCLE
  8
0
 10
1.000000
 20
-1.000000
 40
2.100000
  0
CIRCLE
  8
0
 10
-24.000000
 20
-1.000000
 40
2.100000
  0
CIRCLE
  8
0
 10
-9.000000
 20
-7.000000
 40
2.100000
  0
CIRCLE
  8
0
 10
10.000000
 20
-7.000000
 40
2.100000
  0
ARC
  8
0
 10
-126.500031
 20
26.349998
 40
0.500000
 50
0.000000
 51
90.000000
  0
CIRCLE
  8
0
 10
-147.000000
 20
34.000000
 40
1.650000
  0
ARC
  8
0
 10
-126.500031
 20
30.650002
 40
0.500000
 50
270.000000
 51
0.000000
  0
CIRCLE
  8
0
 62
     2
 10
-147.000000
 20
34.000000
 40
2.000000
  0
ARC
  8
0
 10
-153.500031
 20
31.149994
 40
0.500000
 50
180.000000
 51
270.000000
  0
ARC
  8
0
 10
-153.500031
 20
25.850006
 40
0.500000
 50
90.000000
 51
180.000000
  0
ARC
  8
0
 10
-153.500031
 20
-5.850006
 40
0.500000
 50
180.000000
 51
270.000000
  0
ARC
  8
0
 10
-153.500031
 20
-11.149994
 40
0.500000
 50
90.000000
 51
180.000000
  0
ARC
  8
0
 10
-153.500031
 20
16.500000
 40
0.500000
 50
180.000000
 51
270.000000
  0
ARC
  8
0
 10
-153.500031
 20
3.500000
 40
0.500000
 50
90.000000
 51
180.000076
  0
ARC
  8
0
 10
-151.700027
 20
5.000000
 40
0.300000
 50
90.000000
 51
180.000092
  0
ARC
  8
0
 10
-151.700027
 20
15.000000
 40
0.300003
 50
180.000000
 51
270.000000
  0
ARC
  8
0
 10
-151.700027
 20
11.200012
 40
0.300000
 50
90.000000
 51
180.000000
  0
ARC
  8
0
 10
-151.700027
 20
8.799988
 40
0.300003
 50
180.000000
 51
270.000000
  0
ARC
  8
0
 10
-128.300034
 20
5.000000
 40
0.300003
 50
0.000091
 51
90.000000
  0
ARC
  8
0
 10
-126.500031
 20
16.500000
 40
0.500000
 50
270.000000
 51
0.000000
  0
ARC
  8
0
 10
-126.500031
 20
3.500000
 40
0.500000
 50
0.000055
 51
90.000000
  0
ARC
  8
0
 10
-128.300034
 20
15.000000
 40
0.300000
 50
270.000000
 51
0.000000
  0
ARC
  8
0
 10
-128.300034
 20
11.200012
 40
0.300003
 50
0.000000
 51
90.000000
  0
ARC
  8
0
 10
-128.300034
 20
8.799988
 40
0.300000
 50
270.000000
 51
0.000000
  0
CIRCLE
  8
0
 10
-140.000000
 20
31.000000
 40
4.000000
  0
CIRCLE
  8
0
 10
-140.000000
 20
10.000000
 40
4.000000
  0
CIRCLE
  8
0
 10
-140.000000
 20
-11.000000
 40
4.000000
  0
CIRCLE
  8
0
 62
     2
 10
-133.000000
 20
34.000000
 40
2.000000
  0
CIRCLE
  8
0
 10
-133.000000
 20
34.000000
 40
1.650000
  0
CIRCLE
  8
0
 62
     2
 10
-133.000000
 20
-14.000000
 40
2.000000
  0
CIRCLE
  8
0
 10
-133.000000
 20
-14.000000
 40
1.650000
  0
CIRCLE
  8
0
 62
     2
 10
-147.000000
 20
-14.000000
 40
2.000000
  0
CIRCLE
  8
0
 10
-147.000000
 20
-14.000000
 40
1.650000
  0
CIRCLE
  8
0
 10
-140.000000
 20
-11.000000
 40
3.800000
  0
CIRCLE
  8
0
 10
-140.000000
 20
-11.000000
 40
2.350000
  0
CIRCLE
  8
0
 10
-140.000000
 20
31.000000
 40
3.800000
  0
CIRCLE
  8
0
 10
-140.000000
 20
31.000000
 40
2.350000
  0
CIRCLE
  8
0
 10
-140.000000
 20
10.000000
 40
3.800000
  0
CIRCLE
  8
0
 10
-140.000000
 20
10.000000
 40
2.350000
  0
CIRCLE
  8
0
 10
120.000015
 20
31.000000
 40
3.000000
  0
CIRCLE
  8
0
 10
120.000015
 20
-11.000000
 40
3.000000
  0
CIRCLE
  8
0
 10
120.000031
 20
-11.000000
 40
5.000000
  0
CIRCLE
  8
0
 10
120.000031
 20
31.000000
 40
5.000000
  0
ARC
  8
0
 10
133.500031
 20
31.149994
 40
0.500000
 50
270.000000
 51
0.000000
  0
ARC
  8
0
 10
133.500031
 20
25.850006
 40
0.500000
 50
0.000000
 51
90.000000
  0
ARC
  8
0
 10
133.500031
 20
-5.850008
 40
0.500000
 50
270.000000
 51
359.999939
  0
ARC
  8
0
 10
133.500031
 20
-11.149996
 40
0.500000
 50
0.000000
 51
90.000000
  0
ARC
  8
0
 10
133.500031
 20
16.500000
 40
0.500000
 50
270.000000
 51
0.000000
  0
ARC
  8
0
 10
133.500031
 20
3.499999
 40
0.500000
 50
359.999878
 51
90.000000
  0
ARC
  8
0
 10
131.700027
 20
4.999999
 40
0.300003
 50
359.999908
 51
90.000000
  0
ARC
  8
0
 10
129.400024
 20
13.100006
 40
2.100000
 50
90.000000
 51
270.000000
  0
ARC
  8
0
 10
131.700027
 20
15.000000
 40
0.300000
 50
270.000000
 51
359.999817
  0
ARC
  8
0
 10
131.700027
 20
11.200012
 40
0.300003
 50
359.999817
 51
90.000000
  0
ARC
  8
0
 10
131.700027
 20
8.799988
 40
0.300000
 50
270.000000
 51
359.999817
  0
ARC
  8
0
 10
129.400024
 20
6.899994
 40
2.100000
 50
90.000000
 51
270.000000
  0
ARC
  8
0
 10
108.300034
 20
5.000001
 40
0.300000
 50
90.000000
 51
179.999908
  0
ARC
  8
0
 10
106.500031
 20
16.500000
 40
0.500000
 50
180.000000
 51
270.000000
  0
ARC
  8
0
 10
106.500031
 20
3.500001
 40
0.500000
 50
90.000000
 51
179.999924
  0
ARC
  8
0
 10
110.600037
 20
13.100006
 40
2.100000
 50
270.000000
 51
90.000000
  0
ARC
  8
0
 10
108.300034
 20
15.000000
 40
0.300003
 50
180.000000
 51
270.000000
  0
ARC
  8
0
 10
108.300034
 20
11.200012
 40
0.300000
 50
90.000000
 51
180.000000
  0
ARC
  8
0
 10
108.300034
 20
8.799988
 40
0.300003
 50
180.000000
 51
270.000000
  0
ARC
  8
0
 10
110.600037
 20
6.899994
 40
2.100000
 50
270.000000
 51
90.000000
  0
CIRCLE
  8
0
 10
120.000000
 20
10.000000
 40
6.000000
  0
CIRCLE
  8
0
 10
120.000000
 20
10.000000
 40
6.500000
  0
CIRCLE
  8
0
 10
120.000000
 20
10.000000
 40
7.450000
  0
ARC
  8
0
 10
120.000000
 20
10.000000
 40
9.099998
 50
29.999331
 51
150.000381
  0
ARC
  8
0
 10
120.000000
 20
10.000000
 40
9.100003
 50
353.691010
 51
6.504435
  0
ARC
  8
0
 10
120.000000
 20
10.000000
 40
9.099998
 50
209.999619
 51
330.000671
  0
ARC
  8
0
 10
120.000000
 20
10.000000
 40
9.100003
 50
173.691040
 51
186.308945
  0
CIRCLE
  8
0
 10
111.500015
 20
-6.999998
 40
1.000000
  0
CIRCLE
  8
0
 62
     2
 10
111.000015
 20
35.500000
 40
2.000000
  0
CIRCLE
  8
0
 62
     2
 10
129.000015
 20
35.500000
 40
2.000000
  0
CIRCLE
  8
0
 62
     2
 10
111.000015
 20
-15.500000
 40
2.000000
  0
CIRCLE
  8
0
 62
     2
 10
129.000015
 20
-15.500000
 40
2.000000
  0
ARC
  8
0
 10
106.500031
 20
30.650002
 40
0.500000
 50
180.000000
 51
270.000000
  0
ARC
  8
0
 10
106.500031
 20
26.349998
 40
0.500000
 50
90.000000
 51
180.000000
  0
CIRCLE
  8
0
 10
111.000015
 20
35.500000
 40
1.650000
  0
CIRCLE
  8
0
 10
129.000015
 20
35.500000
 40
1.650000
  0
CIRCLE
  8
0
 10
111.000015
 20
-15.500000
 40
1.650000
  0
CIRCLE
  8
0
 10
129.000015
 20
-15.500000
 40
1.650000
  0
ARC
  8
0
 10
10.582371
 20
-13.229691
 40
0.417629
 50
344.498383
 51
15.501630
  0
ARC
  8
0
 10
10.427795
 20
-13.292028
 40
0.583544
 50
17.343668
 51
54.574329
  0
ARC
  8
0
 10
10.000000
 20
-13.979581
 40
1.392674
 50
56.629360
 51
123.370644
  0
ARC
  8
0
 10
9.572205
 20
-13.292028
 40
0.583544
 50
125.425667
 51
162.656326
  0
ARC
  8
0
 10
9.417629
 20
-13.229691
 40
0.417629
 50
164.498367
 51
195.501633
  0
ARC
  8
0
 10
9.572205
 20
-13.167353
 40
0.583544
 50
197.343674
 51
234.574326
  0
ARC
  8
0
 10
10.000000
 20
-12.479800
 40
1.392674
 50
236.629364
 51
303.370636
  0
ARC
  8
0
 10
10.427795
 20
-13.167353
 40
0.583544
 50
305.425659
 51
342.656342
  0
ARC
  8
0
 10
-8.417629
 20
-13.229691
 40
0.417629
 50
344.498383
 51
15.501630
  0
ARC
  8
0
 10
-8.572205
 20
-13.292028
 40
0.583544
 50
17.343668
 51
54.574329
  0
ARC
  8
0
 10
-9.000000
 20
-13.979581
 40
1.392674
 50
56.629360
 51
123.370644
  0
ARC
  8
0
 10
-9.427795
 20
-13.292028
 40
0.583544
 50
125.425667
 51
162.656326
  0
ARC
  8
0
 10
-9.582371
 20
-13.229691
 40
0.417629
 50
164.498367
 51
195.501633
  0
ARC
  8
0
 10
-9.427795
 20
-13.167353
 40
0.583544
 50
197.343674
 51
234.574326
  0
ARC
  8
0
 10
-9.000000
 20
-12.479800
 40
1.392674
 50
236.629364
 51
303.370636
  0
ARC
  8
0
 10
-8.572205
 20
-13.167353
 40
0.583544
 50
305.425659
 51
342.656342
  0
TEXT
  8
0
 10
133.907150
 20
122.050003
 40
4.500000
  1
Ver. 1.0
 50
0.000000
 41
1.052631
 51
0.000000
  7
STANDARD
  0
TEXT
  8
0
 10
113.700279
 20
-130.669998
 40
6.300000
  1
KOGANEI CORP.
 50
0.000000
 41
1.052632
 51
0.000000
  7
STANDARD
  0
TEXT
  8
0
 10
-191.392654
 20
122.050003
 40
4.500000
  1
JIG CYLINDER WITH GUIDE
 50
0.000000
 41
1.052632
 51
0.000000
  7
STANDARD
  0
TEXT
  8
0
 10
-186.892654
 20
104.550003
 40
4.500000
  1
MODEL:SGDAQY12*ST(10)
 50
0.000000
 41
1.052632
 51
0.000000
  7
STANDARD
  0
TEXT
  8
0
 10
-181.557144
 20
-96.879997
 40
3.200000
  1
STROKE
 50
0.000000
 41
1.052631
 51
0.000000
  7
STANDARD
  0
TEXT
  8
0
 10
-173.557144
 20
-113.379997
 40
3.200000
  1
A
 50
0.000000
 41
1.052631
 51
0.000000
  7
STANDARD
  0
TEXT
  8
0
 10
-184.496872
 20
-101.019997
 40
3.200000
  1
STRETCH
 50
0.000000
 41
1.052631
 51
0.000000
  7
STANDARD
  0
TEXT
  8
0
 10
-184.496872
 20
-105.820000
 40
3.200000
  1
  PLACE
 50
0.000000
 41
1.052631
 51
0.000000
  7
STANDARD
  0
TEXT
  8
0
 10
-156.657150
 20
-101.879997
 40
3.200000
  1
10
 50
0.000000
 41
1.052631
 51
0.000000
  7
STANDARD
  0
TEXT
  8
0
 10
-144.657150
 20
-101.879997
 40
3.200000
  1
20
 50
0.000000
 41
1.052631
 51
0.000000
  7
STANDARD
  0
TEXT
  8
0
 10
-132.657150
 20
-101.879997
 40
3.200000
  1
30
 50
0.000000
 41
1.052631
 51
0.000000
  7
STANDARD
  0
TEXT
  8
0
 10
-120.657158
 20
-101.879997
 40
3.200000
  1
50
 50
0.000000
 41
1.052631
 51
0.000000
  7
STANDARD
  0
TEXT
  8
0
 10
-108.657158
 20
-101.879997
 40
3.200000
  1
75
 50
0.000000
 41
1.052631
 51
0.000000
  7
STANDARD
  0
TEXT
  8
0
 10
-98.257156
 20
-101.879997
 40
3.200000
  1
100
 50
0.000000
 41
1.052631
 51
0.000000
  7
STANDARD
  0
TEXT
  8
0
 10
-99.857140
 20
-91.379997
 40
3.200000
  1
(mm)
 50
0.000000
 41
1.052631
 51
0.000000
  7
STANDARD
  0
TEXT
  8
0
 10
-155.157135
 20
-91.379997
 40
3.200000
  1
STRETCH LIST
 50
0.000000
 41
1.052631
 51
0.000000
  7
STANDARD
  0
TEXT
  8
0
 10
-173.557007
 20
-121.379997
 40
3.200000
  1
B
 50
0.000000
 41
1.052632
 51
0.000000
  7
STANDARD
  0
TEXT
  8
0
 10
-159.892654
 20
97.550003
 40
4.500000
  1
SGDAFQY12*ST(10)
 50
0.000000
 41
1.052632
 51
0.000000
  7
STANDARD
  0
TEXT
  8
0
 62
     3
 10
-2.307142
 20
48.119999
 40
3.200000
  1
STRETCH LINE A
 50
0.000000
 41
1.052631
 51
0.000000
  7
STANDARD
  0
TEXT
  8
0
 62
     3
 10
-16.307001
 20
55.119999
 40
3.200000
  1
STRETCH LINE B
 50
0.000000
 41
1.052632
 51
0.000000
  7
STANDARD
  0
TEXT
  8
0
 10
-155.057022
 20
-113.379997
 40
3.200000
  1
0
 50
0.000000
 41
1.052632
 51
0.000000
  7
STANDARD
  0
TEXT
  8
0
 10
-143.057022
 20
-113.379997
 40
3.200000
  1
0
 50
0.000000
 41
1.052632
 51
0.000000
  7
STANDARD
  0
TEXT
  8
0
 10
-131.057022
 20
-113.379997
 40
3.200000
  1
0
 50
0.000000
 41
1.052632
 51
0.000000
  7
STANDARD
  0
TEXT
  8
0
 10
-119.057014
 20
-113.379997
 40
3.200000
  1
0
 50
0.000000
 41
1.052632
 51
0.000000
  7
STANDARD
  0
TEXT
  8
0
 10
-108.657013
 20
-113.379997
 40
3.200000
  1
25
 50
0.000000
 41
1.052632
 51
0.000000
  7
STANDARD
  0
TEXT
  8
0
 10
-96.657013
 20
-113.379997
 40
3.200000
  1
50
 50
0.000000
 41
1.052632
 51
0.000000
  7
STANDARD
  0
TEXT
  8
0
 10
-155.057022
 20
-121.379997
 40
3.200000
  1
0
 50
0.000000
 41
1.052632
 51
0.000000
  7
STANDARD
  0
TEXT
  8
0
 10
-144.657013
 20
-121.379997
 40
3.200000
  1
10
 50
0.000000
 41
1.052632
 51
0.000000
  7
STANDARD
  0
TEXT
  8
0
 10
-132.657013
 20
-121.379997
 40
3.200000
  1
20
 50
0.000000
 41
1.052632
 51
0.000000
  7
STANDARD
  0
TEXT
  8
0
 10
-120.657013
 20
-121.379997
 40
3.200000
  1
40
 50
0.000000
 41
1.052632
 51
0.000000
  7
STANDARD
  0
TEXT
  8
0
 10
-108.657013
 20
-121.379997
 40
3.200000
  1
40
 50
0.000000
 41
1.052632
 51
0.000000
  7
STANDARD
  0
TEXT
  8
0
 10
-96.657013
 20
-121.379997
 40
3.200000
  1
40
 50
0.000000
 41
1.052632
 51
0.000000
  7
STANDARD
  0
TEXT
  8
0
 62
     2
 10
34.834988
 20
-33.000000
 40
3.200000
  1
STROKE=75-100
 50
0.000000
 41
1.052632
 51
0.000000
  7
STANDARD
  0
LINE
  8
0
 62
     2
 10
31.000000
 20
-34.000000
 11
76.184990
 21
-34.000000
  0
LINE
  8
0
 62
     2
 10
15.999996
 20
-34.000000
 11
31.000000
 21
-34.000000
  0
LINE
  8
0
 62
     2
 10
15.999996
 20
-34.000000
 11
18.897774
 21
-33.223541
  0
LINE
  8
0
 62
     2
 10
15.999996
 20
-34.000000
 11
18.897774
 21
-34.776459
  0
LINE
  8
0
 62
     2
 10
31.000000
 20
-34.000000
 11
28.102222
 21
-34.776459
  0
LINE
  8
0
 62
     2
 10
31.000000
 20
-34.000000
 11
28.102222
 21
-33.223541
  0
LINE
  8
0
 62
     2
 10
15.999996
 20
-18.500000
 11
15.999996
 21
-35.500000
  0
LINE
  8
0
 62
     2
 10
31.000000
 20
-13.500000
 11
31.000000
 21
-35.500000
  0
ENDSEC
  0
EOF
