  0
SECTION
  2
HEADER
  0
ENDSEC
  0
SECTION
  2
TABLES
  0
TABLE
  2
LTYPE
 70
     4
  0
LTYPE
  2
CONTINUOUS
 70
    64
  3
Solid line
 72
    65
 73
     0
 40
0.000000
  0
LTYPE
  2
DASHED
 70
    64
  3
__ __ __ __ __ __ __ __ __ __ __ __ __ __ __
 72
    65
 73
     2
 40
3.500000
 49
2.000000
 49
-1.500000
  0
LTYPE
  2
CENTER
 70
    64
  3
____ _ ____ _ ____ _ ____ _ ____ _ ____ _ ____
 72
    65
 73
     4
 40
17.500000
 49
13.000000
 49
-1.500000
 49
1.500000
 49
-1.500000
  0
LTYPE
  2
PHANTOM
 70
    64
  3
_____ _ _ _____ _ _ _____ _ _ _____ _ _ ____  
 72
    65
 73
     6
 40
15.500000
 49
8.000000
 49
-1.500000
 49
1.500000
 49
-1.500000
 49
1.500000
 49
-1.500000
  0
LTYPE
  2
DASHED1
 70
    64
  3
__ __ __ __ __ __ __ __ __ __ __ __ __ __ __
 72
    65
 73
     2
 40
1.500000
 49
1.000000
 49
-0.500000
  0
LTYPE
  2
DASHED2
 70
    64
  3
__ __ __ __ __ __ __ __ __ __ __ __ __ __ __
 72
    65
 73
     2
 40
3.500000
 49
2.500000
 49
-1.000000
  0
LTYPE
  2
DASHED3
 70
    64
  3
__ __ __ __ __ __ __ __ __ __ __ __ __ __ __
 72
    65
 73
     2
 40
6.000000
 49
4.000000
 49
-2.000000
  0
LTYPE
  2
DASHED4
 70
    64
  3
__ __ __ __ __ __ __ __ __ __ __ __ __ __ __
 72
    65
 73
     2
 40
12.000000
 49
10.000000
 49
-2.000000
  0
LTYPE
  2
DASHED5
 70
    64
  3
__ __ __ __ __ __ __ __ __ __ __ __ __ __ __
 72
    65
 73
     2
 40
17.000000
 49
15.000000
 49
-2.000000
  0
LTYPE
  2
DASHED6
 70
    64
  3
__ __ __ __ __ __ __ __ __ __ __ __ __ __ __
 72
    65
 73
     2
 40
29.000000
 49
27.000000
 49
-2.000000
  0
LTYPE
  2
PHANTOM1
 70
    64
  3
_____ _ _ _____ _ _ _____ _ _ _____ _ _ ____  
 72
    65
 73
     6
 40
31.000000
 49
25.000000
 49
-1.500000
 49
1.000000
 49
-1.000000
 49
1.000000
 49
-1.500000
  0
LTYPE
  2
PHANTOM2
 70
    64
  3
_____ _ _ _____ _ _ _____ _ _ _____ _ _ ____  
 72
    65
 73
     6
 40
36.000000
 49
27.000000
 49
-1.500000
 49
2.500000
 49
-1.000000
 49
2.500000
 49
-1.500000
  0
LTYPE
  2
PHANTOM3
 70
    64
  3
_____ _ _ _____ _ _ _____ _ _ _____ _ _ ____  
 72
    65
 73
     6
 40
78.000000
 49
64.000000
 49
-2.000000
 49
4.000000
 49
-2.000000
 49
4.000000
 49
-2.000000
  0
LTYPE
  2
CENTER1
 70
    64
  3
____ _ ____ _ ____ _ ____ _ ____ _ ____ _ ____
 72
    65
 73
     4
 40
19.000000
 49
14.000000
 49
-1.000000
 49
3.000000
 49
-1.000000
  0
LTYPE
  2
CENTER2
 70
    64
  3
____ _ ____ _ ____ _ ____ _ ____ _ ____ _ ____
 72
    65
 73
     4
 40
28.500000
 49
25.000000
 49
-1.000000
 49
1.500000
 49
-1.000000
  0
LTYPE
  2
CENTER3
 70
    64
  3
____ _ ____ _ ____ _ ____ _ ____ _ ____ _ ____
 72
    65
 73
     4
 40
31.500000
 49
27.000000
 49
-1.000000
 49
2.500000
 49
-1.000000
  0
LTYPE
  2
CENTER4
 70
    64
  3
____ _ ____ _ ____ _ ____ _ ____ _ ____ _ ____
 72
    65
 73
     4
 40
50.000000
 49
45.000000
 49
-1.000000
 49
3.000000
 49
-1.000000
  0
LTYPE
  2
CENTER5
 70
    64
  3
____ _ ____ _ ____ _ ____ _ ____ _ ____ _ ____
 72
    65
 73
     4
 40
100.000000
 49
92.000000
 49
-2.000000
 49
4.000000
 49
-2.000000
  0
LTYPE
  2
SBK1
 70
    64
  3
______ _ _ _ ______ _ _ _ ______ _ _ _ _____  
 72
    65
 73
     8
 40
60.500000
 49
45.000000
 49
-2.000000
 49
2.500000
 49
-2.000000
 49
2.500000
 49
-2.000000
 49
2.500000
 49
-2.000000
  0
LTYPE
  2
SBK2
 70
    64
  3
______ _ _ _ ______ _ _ _ ______ _ _ _ _____  
 72
    65
 73
     8
 40
84.000000
 49
64.000000
 49
-2.000000
 49
4.000000
 49
-2.000000
 49
4.000000
 49
-2.000000
 49
4.000000
 49
-2.000000
  0
LTYPE
  2
STCH
 70
    64
  3
__ __ __ __ __ __ __ __ __ __ __ __ __ __ __
 72
    65
 73
     2
 40
3.000000
 49
1.000000
 49
-2.000000
  0
LTYPE
  2
MTCH
 70
    64
  3
_____ _ _ _____ _ _ _____ _ _ _____ _ _ ____  
 72
    65
 73
     6
 40
80.000000
 49
66.000000
 49
-2.000000
 49
4.000000
 49
-2.000000
 49
4.000000
 49
-2.000000
  0
ENDTAB
  0
TABLE
  2
LAYER
 70
     1
  0
LAYER
  2
0
 70
     0
 62
     7
  6
CONTINUOUS
  0
ENDTAB
  0
TABLE
  2
STYLE
 70
     1
  0
STYLE
  2
STANDARD
 70
     0
 40
0.000000
 41
1.000000
 50
0.000000
 71
     0
 42
0.200000
  3
txt
  4
BIGFONT
  0
ENDTAB
  0
TABLE
  2
VIEW
 70
     0
  0
ENDTAB
  0
ENDSEC
  0
SECTION
  2
BLOCKS
  0
ENDSEC
  0
SECTION
  2
ENTITIES
  0
LINE
  8
0
  6
CENTER
 62
     2
 10
-38.622551
 20
16.000000
 11
25.072990
 21
16.000000
  0
LINE
  8
0
 10
-27.000000
 20
20.000000
 11
-24.000000
 21
20.000000
  0
LINE
  8
0
  6
CENTER
 62
     2
 10
-38.446678
 20
39.500000
 11
-22.409863
 21
39.500000
  0
LINE
  8
0
 10
-23.500000
 20
50.000000
 11
22.500000
 21
50.000000
  0
LINE
  8
0
 10
-27.000000
 20
-16.500000
 11
-27.000000
 21
48.500015
  0
LINE
  8
0
 10
-37.000000
 20
48.500000
 11
-37.000000
 21
-16.500000
  0
LINE
  8
0
 10
-36.500000
 20
-17.000000
 11
-27.500000
 21
-17.000000
  0
LINE
  8
0
 10
-36.500000
 20
49.000000
 11
-27.500000
 21
49.000000
  0
LINE
  8
0
 10
-27.000000
 20
12.000000
 11
-24.000000
 21
12.000000
  0
LINE
  8
0
  6
CENTER
 62
     2
 10
-38.446678
 20
-7.500000
 11
-22.061066
 21
-7.500000
  0
LINE
  8
0
 10
-27.000000
 20
14.063507
 11
-25.500000
 21
14.063507
  0
LINE
  8
0
 10
-25.500000
 20
17.936495
 11
-25.500000
 21
14.063507
  0
LINE
  8
0
 62
     2
 10
-26.999996
 20
16.968285
 11
-25.499975
 21
14.063505
  0
LINE
  8
0
 62
     2
 10
-25.499992
 20
17.936506
 11
-27.000013
 21
15.031731
  0
LINE
  8
0
 10
-36.999996
 20
-16.499969
 11
-36.499996
 21
-16.999969
  0
LINE
  8
0
 10
-27.000015
 20
-16.500004
 11
-27.500008
 21
-16.999994
  0
LINE
  8
0
 10
-36.499977
 20
48.999985
 11
-36.999977
 21
48.499985
  0
LINE
  8
0
 10
-27.500004
 20
49.000019
 11
-27.000004
 21
48.500015
  0
LINE
  8
0
 10
-23.499973
 20
49.999981
 11
-23.999973
 21
49.499981
  0
LINE
  8
0
 10
22.499989
 20
49.999981
 11
22.999985
 21
49.499985
  0
LINE
  8
0
 10
-24.000000
 20
17.900002
 11
23.000000
 21
17.900002
  0
LINE
  8
0
 10
-24.000000
 20
20.700012
 11
23.000000
 21
20.700012
  0
LINE
  8
0
 10
-24.000000
 20
22.500015
 11
23.000000
 21
22.500015
  0
LINE
  8
0
 10
-24.000000
 20
49.000000
 11
23.000000
 21
49.000000
  0
LINE
  8
0
 10
-24.000000
 20
40.150002
 11
23.000000
 21
40.150002
  0
LINE
  8
0
 10
-24.000000
 20
35.849998
 11
23.000000
 21
35.849998
  0
LINE
  8
0
 10
-27.000000
 20
17.936510
 11
-25.500000
 21
17.936510
  0
LINE
  8
0
  6
CENTER
 62
     2
 10
-24.000000
 20
29.000000
 11
-13.971458
 21
29.000000
  0
LINE
  8
0
  6
DASHED
 62
     2
 10
46.000000
 20
-11.000000
 11
46.000000
 21
-4.000015
  0
LINE
  8
0
  6
DASHED
 62
     2
 10
23.000000
 20
-3.500000
 11
45.500000
 21
-3.500000
  0
LINE
  8
0
  6
DASHED
 62
     2
 10
23.000000
 20
-11.500000
 11
45.500000
 21
-11.500000
  0
LINE
  8
0
  6
DASHED
 62
     2
 10
45.499989
 20
-3.500010
 11
45.999989
 21
-4.000002
  0
LINE
  8
0
  6
DASHED
 62
     2
 10
45.999985
 20
-10.999991
 11
45.499985
 21
-11.499991
  0
LINE
  8
0
  6
DASHED
 62
     2
 10
45.500000
 20
-3.500000
 11
45.500000
 21
-11.500000
  0
LINE
  8
0
  6
DASHED
 62
     2
 10
46.000000
 20
36.000000
 11
46.000000
 21
43.000004
  0
LINE
  8
0
  6
DASHED
 62
     2
 10
23.000000
 20
43.500000
 11
45.500000
 21
43.500000
  0
LINE
  8
0
  6
DASHED
 62
     2
 10
23.000000
 20
35.500000
 11
45.500000
 21
35.500000
  0
LINE
  8
0
  6
DASHED
 62
     2
 10
45.499989
 20
43.499985
 11
45.999989
 21
42.999992
  0
LINE
  8
0
  6
DASHED
 62
     2
 10
46.000000
 20
36.000004
 11
45.500000
 21
35.500004
  0
LINE
  8
0
  6
DASHED
 62
     2
 10
45.500000
 20
43.499996
 11
45.500000
 21
35.500000
  0
LINE
  8
0
 10
-24.000000
 20
24.000023
 11
23.000000
 21
24.000023
  0
LINE
  8
0
  6
CENTER
 62
     2
 10
-24.000000
 20
3.000000
 11
-14.333664
 21
3.000000
  0
LINE
  8
0
  6
CENTER
 62
     2
 10
-19.000000
 20
-2.201691
 11
-19.000000
 21
7.835175
  0
LINE
  8
0
  6
CENTER
 62
     2
 10
1.184097
 20
3.000000
 11
11.111519
 21
3.000000
  0
LINE
  8
0
  6
CENTER
 62
     2
 10
6.000015
 20
-2.201691
 11
6.000015
 21
7.754852
  0
LINE
  8
0
 10
-24.000000
 20
14.100006
 11
23.000008
 21
14.100006
  0
LINE
  8
0
  6
CENTER
 62
     2
 10
-0.979294
 20
-3.000000
 11
-7.053421
 21
-3.000000
  0
LINE
  8
0
  6
CENTER
 62
     2
 10
19.134968
 20
-3.000000
 11
12.126236
 21
-3.000000
  0
LINE
  8
0
  6
CENTER
 62
     2
 10
15.500008
 20
-6.576025
 11
15.500008
 21
0.375147
  0
LINE
  8
0
 10
-23.500000
 20
-18.000000
 11
22.500008
 21
-18.000000
  0
LINE
  8
0
 10
-24.000000
 20
-17.500000
 11
-24.000000
 21
49.500000
  0
LINE
  8
0
  6
DASHED
 62
     2
 10
4.500015
 20
-18.000000
 11
4.500015
 21
-15.692692
  0
LINE
  8
0
  6
DASHED
 62
     2
 10
9.500008
 20
-18.000000
 11
9.500008
 21
-15.692692
  0
LINE
  8
0
  6
DASHED
 62
     2
 10
4.900009
 20
-18.000000
 11
4.900009
 21
-15.692692
  0
LINE
  8
0
  6
DASHED
 62
     2
 10
9.099998
 20
-18.000000
 11
9.099998
 21
-15.692692
  0
LINE
  8
0
  6
CENTER
 62
     2
 10
-4.000000
 20
-6.638294
 11
-4.000000
 21
0.375147
  0
LINE
  8
0
  6
DASHED
 62
     2
 10
-7.500000
 20
-18.000000
 11
-7.500000
 21
-15.692692
  0
LINE
  8
0
  6
DASHED
 62
     2
 10
-2.500000
 20
-18.000000
 11
-2.500000
 21
-15.692692
  0
LINE
  8
0
  6
DASHED
 62
     2
 10
-7.099991
 20
-18.000000
 11
-7.099991
 21
-15.692692
  0
LINE
  8
0
  6
DASHED
 62
     2
 10
-2.900009
 20
-18.000000
 11
-2.900009
 21
-15.692692
  0
LINE
  8
0
 10
-24.000000
 20
-17.000000
 11
23.000008
 21
-17.000000
  0
LINE
  8
0
 10
-24.000000
 20
8.000015
 11
23.000008
 21
8.000015
  0
LINE
  8
0
 10
-24.000000
 20
-8.500000
 11
23.000008
 21
-8.500000
  0
LINE
  8
0
 10
-24.000000
 20
-11.017288
 11
23.000008
 21
-11.017288
  0
LINE
  8
0
 10
-24.000000
 20
-14.592545
 11
23.000008
 21
-14.592545
  0
LINE
  8
0
 10
-24.000000
 20
11.299988
 11
23.000008
 21
11.299988
  0
LINE
  8
0
 10
-24.000000
 20
9.499985
 11
23.000008
 21
9.499985
  0
LINE
  8
0
 10
23.000011
 20
-17.500004
 11
22.500011
 21
-18.000006
  0
LINE
  8
0
 10
-23.999969
 20
-17.499977
 11
-23.499981
 21
-17.999966
  0
LINE
  8
0
  6
CENTER
 62
     2
 10
7.000008
 20
-19.017120
 11
7.000008
 21
-14.723778
  0
LINE
  8
0
 10
23.000008
 20
-17.500000
 11
23.000008
 21
49.500000
  0
LINE
  8
0
  6
CENTER
 62
     2
 10
6.000000
 20
33.957390
 11
6.000000
 21
24.026604
  0
LINE
  8
0
  6
CENTER
 62
     2
 10
-19.000000
 20
33.878262
 11
-19.000000
 21
24.066168
  0
LINE
  8
0
  6
CENTER
 62
     2
 10
0.998383
 20
29.000000
 11
11.126995
 21
29.000000
  0
LINE
  8
0
  6
CENTER
 62
     2
 10
-5.000000
 20
-18.000000
 11
-5.000000
 21
-14.866489
  0
LINE
  8
0
 10
-27.000000
 20
-11.500000
 11
-24.000000
 21
-11.500000
  0
LINE
  8
0
 10
-27.000000
 20
-3.500000
 11
-24.000000
 21
-3.500000
  0
LINE
  8
0
 10
-27.000000
 20
35.500000
 11
-24.000000
 21
35.500000
  0
LINE
  8
0
 10
-27.000000
 20
43.500000
 11
-24.000000
 21
43.500000
  0
LINE
  8
0
  6
PHANTOM
 62
     3
 10
11.500000
 20
58.000000
 11
11.500000
 21
-6.000000
  0
LINE
  8
0
  6
PHANTOM
 62
     3
 10
0.500000
 20
65.000000
 11
0.500000
 21
-23.000000
  0
LINE
  8
0
  6
PHANTOM
 62
     3
 10
3.000000
 20
-6.000000
 11
3.000000
 21
-23.000000
  0
LINE
  8
0
  6
PHANTOM
 62
     3
 10
3.000000
 20
-6.000000
 11
11.500000
 21
-6.000000
  0
LINE
  8
0
 10
-145.500015
 20
17.000002
 11
-145.000000
 21
17.000002
  0
LINE
  8
0
 10
-145.500015
 20
21.200014
 11
-145.000000
 21
21.200014
  0
LINE
  8
0
 10
-146.500015
 20
14.799990
 11
-146.500015
 21
17.200014
  0
LINE
  8
0
 10
-146.200012
 20
20.700014
 11
-146.000015
 21
20.700014
  0
LINE
  8
0
 10
-146.200012
 20
17.500002
 11
-146.000015
 21
17.500002
  0
LINE
  8
0
 10
-145.500000
 20
16.999994
 11
-145.999985
 21
17.499981
  0
LINE
  8
0
 10
-146.000107
 20
20.700113
 11
-145.500092
 21
21.200123
  0
LINE
  8
0
 10
-146.500015
 20
21.000002
 11
-146.500015
 21
22.500017
  0
LINE
  8
0
 10
-145.500015
 20
15.000002
 11
-145.000000
 21
15.000002
  0
LINE
  8
0
 10
-145.500015
 20
10.799990
 11
-145.000000
 21
10.799990
  0
LINE
  8
0
 10
-146.200012
 20
11.299990
 11
-146.000015
 21
11.299990
  0
LINE
  8
0
 10
-146.200012
 20
14.500002
 11
-146.000015
 21
14.500002
  0
LINE
  8
0
 10
-145.500107
 20
15.000097
 11
-146.000107
 21
14.500108
  0
LINE
  8
0
 10
-146.000061
 20
11.299973
 11
-145.500061
 21
10.799973
  0
LINE
  8
0
 10
-146.500076
 20
22.499992
 11
-148.000046
 21
23.999971
  0
LINE
  8
0
 10
-146.500015
 20
11.000002
 11
-146.500015
 21
9.499987
  0
LINE
  8
0
 10
-146.500076
 20
9.500040
 11
-148.000061
 21
8.000062
  0
LINE
  8
0
 10
-148.000000
 20
24.000002
 11
-148.000000
 21
35.550003
  0
LINE
  8
0
 10
-147.000000
 20
50.000000
 11
-117.000000
 21
50.000000
  0
LINE
  8
0
 10
-146.999939
 20
49.999943
 11
-147.999939
 21
48.999939
  0
LINE
  8
0
 10
-148.000000
 20
40.449997
 11
-148.000000
 21
49.000000
  0
LINE
  8
0
 10
-118.999924
 20
41.650002
 11
-117.500000
 21
41.650002
  0
LINE
  8
0
 10
-118.999924
 20
34.349998
 11
-117.500000
 21
34.349998
  0
LINE
  8
0
 10
-117.500000
 20
40.150002
 11
-116.300003
 21
40.150002
  0
LINE
  8
0
 10
-117.500000
 20
35.849998
 11
-116.300003
 21
35.849998
  0
LINE
  8
0
 10
-117.500000
 20
34.349998
 11
-117.500000
 21
35.849998
  0
LINE
  8
0
 10
-117.500000
 20
40.150002
 11
-117.500000
 21
41.650002
  0
LINE
  8
0
 10
-116.000000
 20
40.449997
 11
-116.000000
 21
49.000000
  0
LINE
  8
0
 10
-116.999992
 20
49.999992
 11
-115.999992
 21
48.999989
  0
LINE
  8
0
 10
-118.499985
 20
17.000002
 11
-118.999924
 21
17.000002
  0
LINE
  8
0
 10
-118.499985
 20
21.200014
 11
-118.999924
 21
21.200014
  0
LINE
  8
0
 10
-117.499985
 20
14.799990
 11
-117.499985
 21
17.200014
  0
LINE
  8
0
 10
-117.799988
 20
20.700014
 11
-117.999985
 21
20.700014
  0
LINE
  8
0
 10
-117.799988
 20
17.500002
 11
-117.999985
 21
17.500002
  0
LINE
  8
0
 10
-118.500053
 20
17.000036
 11
-118.000069
 21
17.500017
  0
LINE
  8
0
 10
-117.999931
 20
20.700087
 11
-118.499931
 21
21.200087
  0
LINE
  8
0
 10
-117.499985
 20
21.000002
 11
-117.499985
 21
22.500017
  0
LINE
  8
0
 10
-118.499985
 20
15.000002
 11
-118.999924
 21
15.000002
  0
LINE
  8
0
 10
-118.499985
 20
10.799990
 11
-118.999924
 21
10.799990
  0
LINE
  8
0
 10
-117.799988
 20
11.299990
 11
-117.999985
 21
11.299990
  0
LINE
  8
0
 10
-117.799988
 20
14.500002
 11
-117.999985
 21
14.500002
  0
LINE
  8
0
 10
-118.499931
 20
15.000068
 11
-117.999916
 21
14.500059
  0
LINE
  8
0
 10
-118.000015
 20
11.300005
 11
-118.500031
 21
10.799991
  0
LINE
  8
0
 10
-116.000000
 20
-17.000010
 11
-116.000000
 21
-14.592543
  0
LINE
  8
0
 10
-117.499992
 20
22.500038
 11
-115.999992
 21
24.000038
  0
LINE
  8
0
 10
-117.499985
 20
11.000002
 11
-117.499985
 21
9.499987
  0
LINE
  8
0
 10
-117.499992
 20
9.499992
 11
-116.000000
 21
7.999998
  0
LINE
  8
0
 10
-116.000000
 20
24.000002
 11
-116.000000
 21
35.550003
  0
LINE
  8
0
 10
-117.000008
 20
-17.999939
 11
-116.000023
 21
-16.999954
  0
LINE
  8
0
 10
-148.000000
 20
8.000002
 11
-148.000000
 21
-3.550001
  0
LINE
  8
0
 10
-147.000000
 20
-17.999998
 11
-117.000000
 21
-17.999998
  0
LINE
  8
0
 10
-146.999969
 20
-17.999985
 11
-147.999969
 21
-16.999981
  0
LINE
  8
0
 10
-148.000000
 20
-8.449995
 11
-148.000000
 21
-16.999994
  0
LINE
  8
0
 10
-116.000000
 20
-14.592570
 11
-119.000008
 21
-11.017301
  0
LINE
  8
0
 10
-118.999992
 20
-11.017301
 11
-115.999977
 21
-8.499993
  0
LINE
  8
0
 10
-116.000000
 20
-8.499990
 11
-116.000000
 21
8.000010
  0
LINE
  8
0
 10
-145.000000
 20
40.150002
 11
-147.699997
 21
40.150002
  0
LINE
  8
0
 10
-145.000000
 20
35.849998
 11
-147.699997
 21
35.849998
  0
LINE
  8
0
 10
-145.000000
 20
-8.150000
 11
-147.699997
 21
-8.150000
  0
LINE
  8
0
 10
-145.000000
 20
-3.849997
 11
-147.699997
 21
-3.849997
  0
LINE
  8
0
 10
-144.000000
 20
49.000000
 11
-120.000000
 21
49.000000
  0
LINE
  8
0
 10
-144.000000
 20
-16.999998
 11
-120.000000
 21
-16.999998
  0
LINE
  8
0
 10
-143.999939
 20
48.999966
 11
-144.999939
 21
47.999966
  0
LINE
  8
0
 10
-119.999954
 20
49.000088
 11
-118.999939
 21
48.000084
  0
LINE
  8
0
 10
-144.999985
 20
-15.999985
 11
-143.999985
 21
-16.999987
  0
LINE
  8
0
 10
-119.000008
 20
-15.999976
 11
-120.000000
 21
-16.999971
  0
LINE
  8
0
  6
CENTER
 62
     2
 10
-149.162216
 20
16.000002
 11
-114.874069
 21
16.000002
  0
LINE
  8
0
  6
CENTER
 62
     2
 10
-132.000000
 20
52.375366
 11
-132.000000
 21
-20.272448
  0
LINE
  8
0
  6
CENTER
 62
     2
 10
-136.733643
 20
44.000000
 11
-143.459274
 21
44.000000
  0
LINE
  8
0
  6
CENTER
 62
     2
 10
-124.000000
 20
-15.547087
 11
-124.000000
 21
-8.476542
  0
LINE
  8
0
  6
CENTER
 62
     2
 10
-140.000000
 20
-15.547087
 11
-140.000000
 21
-8.476542
  0
LINE
  8
0
  6
CENTER
 62
     2
 10
-136.733643
 20
-11.999998
 11
-143.459274
 21
-11.999998
  0
LINE
  8
0
 10
-145.000000
 20
48.000008
 11
-145.000000
 21
-16.000006
  0
LINE
  8
0
 10
-118.999924
 20
48.000107
 11
-118.999924
 21
-15.999865
  0
LINE
  8
0
 10
-132.000046
 20
41.232121
 11
-133.500031
 21
40.366096
  0
LINE
  8
0
 10
-133.500000
 20
40.366028
 11
-133.500000
 21
38.633980
  0
LINE
  8
0
 10
-132.000031
 20
37.767921
 11
-133.500015
 21
38.633949
  0
LINE
  8
0
 10
-130.500046
 20
38.634041
 11
-132.000046
 21
37.768013
  0
LINE
  8
0
 10
-130.500000
 20
40.366028
 11
-130.500000
 21
38.633980
  0
LINE
  8
0
 10
-132.000015
 20
41.232037
 11
-130.500015
 21
40.366005
  0
LINE
  8
0
 10
-132.000015
 20
-5.767904
 11
-133.500015
 21
-6.633930
  0
LINE
  8
0
 10
-133.500000
 20
-6.633974
 11
-133.500000
 21
-8.366022
  0
LINE
  8
0
 10
-132.000031
 20
-9.232095
 11
-133.500031
 21
-8.366074
  0
LINE
  8
0
 10
-130.500031
 20
-8.365993
 11
-132.000046
 21
-9.232020
  0
LINE
  8
0
 10
-130.500000
 20
-6.633974
 11
-130.500000
 21
-8.366022
  0
LINE
  8
0
 10
-132.000015
 20
-5.767992
 11
-130.500015
 21
-6.634023
  0
LINE
  8
0
 10
-132.000031
 20
17.732121
 11
-133.500015
 21
16.866100
  0
LINE
  8
0
 10
-133.500000
 20
16.866026
 11
-133.500000
 21
15.133978
  0
LINE
  8
0
 10
-132.000031
 20
14.267909
 11
-133.500031
 21
15.133931
  0
LINE
  8
0
 10
-130.500031
 20
15.134018
 11
-132.000046
 21
14.267990
  0
LINE
  8
0
 10
-130.500000
 20
16.866026
 11
-130.500000
 21
15.133978
  0
LINE
  8
0
 10
-132.000015
 20
17.732023
 11
-130.500000
 21
16.865993
  0
LINE
  8
0
  6
CENTER
 62
     2
 10
-140.000000
 20
47.225426
 11
-140.000000
 21
40.794838
  0
LINE
  8
0
  6
CENTER
 62
     2
 10
-124.000000
 20
47.114555
 11
-124.000000
 21
40.831795
  0
LINE
  8
0
  6
CENTER
 62
     2
 10
-127.285614
 20
44.000000
 11
-120.781120
 21
44.000000
  0
LINE
  8
0
  6
CENTER
 62
     2
 10
-138.261978
 20
39.500000
 11
-125.770370
 21
39.500000
  0
LINE
  8
0
  6
CENTER
 62
     2
 10
-138.296707
 20
-7.499998
 11
-125.570450
 21
-7.499998
  0
LINE
  8
0
  6
CENTER
 62
     2
 10
-127.430756
 20
-11.999998
 11
-120.370010
 21
-11.999998
  0
LINE
  8
0
  6
CENTER
 62
     2
 10
112.500015
 20
-18.871132
 11
112.500015
 21
-14.903593
  0
LINE
  8
0
  6
DASHED
 62
     2
 10
110.000015
 20
-17.999992
 11
110.000015
 21
-15.692684
  0
LINE
  8
0
  6
DASHED
 62
     2
 10
115.000015
 20
-17.999992
 11
115.000015
 21
-15.692684
  0
LINE
  8
0
  6
DASHED
 62
     2
 10
110.000015
 20
-13.999992
 11
115.000015
 21
-13.999992
  0
LINE
  8
0
  6
DASHED
 62
     2
 10
114.600014
 20
-17.999992
 11
114.600014
 21
-15.692684
  0
LINE
  8
0
  6
DASHED
 62
     2
 10
110.400017
 20
-17.999992
 11
110.400017
 21
-15.692684
  0
LINE
  8
0
  6
CENTER
 62
     2
 10
122.000015
 20
-20.312202
 11
122.000015
 21
53.121086
  0
LINE
  8
0
  6
CENTER
 62
     2
 10
103.795776
 20
16.000008
 11
139.343033
 21
16.000008
  0
LINE
  8
0
 10
135.500031
 20
17.000008
 11
133.900024
 21
17.000008
  0
LINE
  8
0
 10
135.500031
 20
21.200020
 11
133.900024
 21
21.200020
  0
LINE
  8
0
 10
136.500031
 20
14.799995
 11
136.500031
 21
17.200020
  0
LINE
  8
0
 10
136.200027
 20
20.700020
 11
136.000031
 21
20.700020
  0
LINE
  8
0
 10
136.200027
 20
17.500008
 11
136.000031
 21
17.500008
  0
LINE
  8
0
 10
135.500015
 20
17.000023
 11
136.000015
 21
17.500013
  0
LINE
  8
0
 10
136.000107
 20
20.700089
 11
135.500107
 21
21.200089
  0
LINE
  8
0
 10
136.500031
 20
21.000008
 11
136.500031
 21
22.500023
  0
LINE
  8
0
 10
135.500031
 20
15.000008
 11
133.900024
 21
15.000008
  0
LINE
  8
0
 10
135.500031
 20
10.799995
 11
133.900024
 21
10.799995
  0
LINE
  8
0
 10
136.200027
 20
11.299995
 11
136.000031
 21
11.299995
  0
LINE
  8
0
 10
136.200027
 20
14.500008
 11
136.000031
 21
14.500008
  0
LINE
  8
0
 10
135.500122
 20
15.000092
 11
136.000122
 21
14.500091
  0
LINE
  8
0
 10
136.000046
 20
11.299990
 11
135.500046
 21
10.799989
  0
LINE
  8
0
 10
136.500046
 20
22.500034
 11
138.000031
 21
24.000013
  0
LINE
  8
0
 10
136.500031
 20
11.000008
 11
136.500031
 21
9.499992
  0
LINE
  8
0
 10
136.500061
 20
9.500029
 11
138.000046
 21
8.000043
  0
LINE
  8
0
 10
137.000015
 20
50.000008
 11
107.000015
 21
50.000008
  0
LINE
  8
0
 10
136.999985
 20
50.000011
 11
137.999985
 21
49.000004
  0
LINE
  8
0
 10
111.000015
 20
41.650002
 11
107.500015
 21
41.650002
  0
LINE
  8
0
 10
111.000015
 20
34.350014
 11
107.500015
 21
34.350014
  0
LINE
  8
0
 10
107.500015
 20
40.150002
 11
106.300018
 21
40.150002
  0
LINE
  8
0
 10
107.500015
 20
35.850014
 11
106.300018
 21
35.850014
  0
LINE
  8
0
 10
111.000015
 20
34.350014
 11
111.000015
 21
41.650002
  0
LINE
  8
0
 10
107.500015
 20
34.350014
 11
107.500015
 21
35.850014
  0
LINE
  8
0
 10
107.500015
 20
40.150002
 11
107.500015
 21
41.650002
  0
LINE
  8
0
 10
106.000015
 20
40.450005
 11
106.000015
 21
49.000008
  0
LINE
  8
0
 10
106.999992
 20
50.000000
 11
105.999985
 21
49.000004
  0
LINE
  8
0
 62
     2
 10
129.292252
 20
39.500008
 11
114.660240
 21
39.500008
  0
LINE
  8
0
 10
108.500000
 20
17.000008
 11
110.100006
 21
17.000008
  0
LINE
  8
0
 10
108.500000
 20
21.200020
 11
110.100006
 21
21.200020
  0
LINE
  8
0
 10
107.500000
 20
14.799995
 11
107.500000
 21
17.200020
  0
LINE
  8
0
 10
107.800003
 20
20.700020
 11
108.000000
 21
20.700020
  0
LINE
  8
0
 10
107.800003
 20
17.500008
 11
108.000000
 21
17.500008
  0
LINE
  8
0
 10
108.500031
 20
17.000038
 11
108.000046
 21
17.500025
  0
LINE
  8
0
 10
107.999924
 20
20.700092
 11
108.499924
 21
21.200094
  0
LINE
  8
0
 10
107.500000
 20
21.000008
 11
107.500000
 21
22.500023
  0
LINE
  8
0
 10
108.500000
 20
15.000008
 11
110.100006
 21
15.000008
  0
LINE
  8
0
 10
108.500000
 20
10.799995
 11
110.100006
 21
10.799995
  0
LINE
  8
0
 10
107.800003
 20
11.299995
 11
108.000000
 21
11.299995
  0
LINE
  8
0
 10
107.800003
 20
14.500008
 11
108.000000
 21
14.500008
  0
LINE
  8
0
 10
108.499924
 20
15.000081
 11
107.999924
 21
14.500080
  0
LINE
  8
0
 10
107.999992
 20
11.299990
 11
108.499992
 21
10.799989
  0
LINE
  8
0
 10
107.499985
 20
22.500038
 11
105.999992
 21
24.000029
  0
LINE
  8
0
 10
107.500000
 20
11.000008
 11
107.500000
 21
9.499992
  0
LINE
  8
0
 10
107.499969
 20
9.499990
 11
105.999977
 21
8.000000
  0
LINE
  8
0
 10
106.000015
 20
24.000008
 11
106.000015
 21
35.550011
  0
LINE
  8
0
 10
137.000000
 20
-17.999958
 11
138.000000
 21
-16.999954
  0
LINE
  8
0
  6
CENTER
 62
     2
 10
129.428131
 20
-7.499992
 11
114.986725
 21
-7.499992
  0
LINE
  8
0
  6
CENTER
 62
     2
 10
112.000015
 20
49.204292
 11
112.000015
 21
42.590614
  0
LINE
  8
0
  6
CENTER
 62
     2
 10
108.643608
 20
46.000008
 11
115.182961
 21
46.000008
  0
LINE
  8
0
  6
CENTER
 62
     2
 10
112.000015
 20
-17.204277
 11
112.000015
 21
-10.590614
  0
LINE
  8
0
  6
CENTER
 62
     2
 10
115.356422
 20
-13.999992
 11
108.817070
 21
-13.999992
  0
LINE
  8
0
  6
CENTER
 62
     2
 10
132.000015
 20
49.204292
 11
132.000015
 21
42.590614
  0
LINE
  8
0
  6
CENTER
 62
     2
 10
135.356415
 20
46.000008
 11
128.817078
 21
46.000008
  0
LINE
  8
0
 10
138.000015
 20
24.000008
 11
138.000015
 21
35.550011
  0
LINE
  8
0
 10
138.000015
 20
40.450005
 11
138.000015
 21
49.000008
  0
LINE
  8
0
 10
138.000015
 20
8.000008
 11
138.000015
 21
-3.549995
  0
LINE
  8
0
 10
138.000015
 20
-8.449989
 11
138.000015
 21
-16.999992
  0
LINE
  8
0
 10
131.500015
 20
41.650002
 11
135.000015
 21
41.650002
  0
LINE
  8
0
 10
131.500015
 20
34.350014
 11
135.000015
 21
34.350014
  0
LINE
  8
0
 10
135.000015
 20
40.150002
 11
137.700012
 21
40.150002
  0
LINE
  8
0
 10
135.000015
 20
35.850014
 11
137.700012
 21
35.850014
  0
LINE
  8
0
 10
131.500015
 20
34.350014
 11
131.500015
 21
41.650002
  0
LINE
  8
0
 10
135.000015
 20
34.350014
 11
135.000015
 21
35.850014
  0
LINE
  8
0
 10
135.000015
 20
40.150002
 11
135.000015
 21
41.650002
  0
LINE
  8
0
 10
131.500015
 20
-2.349998
 11
131.500015
 21
-9.649986
  0
LINE
  8
0
 10
131.500015
 20
-9.649986
 11
135.000015
 21
-9.649986
  0
LINE
  8
0
 10
131.500015
 20
-2.349998
 11
135.000015
 21
-2.349998
  0
LINE
  8
0
 10
135.000015
 20
-8.149986
 11
137.700012
 21
-8.149986
  0
LINE
  8
0
 10
135.000015
 20
-3.849998
 11
137.700012
 21
-3.849998
  0
LINE
  8
0
 10
135.000015
 20
-2.349998
 11
135.000015
 21
-3.849998
  0
LINE
  8
0
 10
135.000015
 20
-8.149986
 11
135.000015
 21
-9.649986
  0
LINE
  8
0
  6
CENTER
 62
     2
 10
110.966087
 20
-2.999992
 11
114.102722
 21
-2.999992
  0
LINE
  8
0
 10
137.000015
 20
-17.999992
 11
107.000015
 21
-17.999992
  0
LINE
  8
0
 10
107.000000
 20
-17.999996
 11
106.000008
 21
-17.000002
  0
LINE
  8
0
 10
106.000015
 20
-17.000008
 11
106.000015
 21
-14.592537
  0
LINE
  8
0
 10
108.999992
 20
-11.017296
 11
106.000008
 21
-8.500012
  0
LINE
  8
0
 10
106.000015
 20
-8.499992
 11
106.000015
 21
8.000023
  0
LINE
  8
0
 10
106.000015
 20
-14.592519
 11
109.000015
 21
-11.017258
  0
LINE
  8
0
  6
CENTER
 62
     2
 10
130.350510
 20
38.000008
 11
133.597015
 21
38.000008
  0
LINE
  8
0
  6
CENTER
 62
     2
 10
130.223953
 20
-5.999992
 11
133.435638
 21
-5.999992
  0
LINE
  8
0
 10
127.196167
 20
-4.499992
 11
131.500015
 21
-4.499992
  0
LINE
  8
0
 10
128.000015
 20
-7.499992
 11
131.500015
 21
-7.499992
  0
LINE
  8
0
 10
127.196167
 20
36.500008
 11
131.500015
 21
36.500008
  0
LINE
  8
0
 10
128.000015
 20
39.500008
 11
131.500015
 21
39.500008
  0
LINE
  8
0
  6
CENTER
 62
     2
 10
112.109596
 20
38.000008
 11
106.834938
 21
38.000008
  0
LINE
  8
0
  6
CENTER
 62
     2
 10
112.500015
 20
-4.634407
 11
112.500015
 21
-1.455040
  0
LINE
  8
0
  6
CENTER
 62
     2
 10
132.000015
 20
-17.204277
 11
132.000015
 21
-10.590614
  0
LINE
  8
0
  6
CENTER
 62
     2
 10
135.356415
 20
-13.999992
 11
128.817078
 21
-13.999992
  0
LINE
  8
0
 10
135.000015
 20
-8.149986
 11
135.000015
 21
-3.849998
  0
LINE
  8
0
 10
109.000015
 20
10.799995
 11
109.000015
 21
14.688862
  0
LINE
  8
0
 10
109.000015
 20
34.350014
 11
109.000015
 21
41.650002
  0
LINE
  8
0
 10
109.000015
 20
17.000008
 11
109.000015
 21
21.200020
  0
LINE
  8
0
 10
135.000015
 20
35.850014
 11
135.000015
 21
40.150002
  0
LINE
  8
0
 10
135.000015
 20
17.000008
 11
135.000015
 21
21.200020
  0
LINE
  8
0
 10
135.000015
 20
10.799995
 11
135.000015
 21
15.000008
  0
LINE
  8
0
 10
-194.250000
 20
132.600006
 11
194.800003
 21
132.600006
  0
LINE
  8
0
 10
194.800003
 20
132.600006
 11
194.800003
 21
-133.500000
  0
LINE
  8
0
 10
-194.250000
 20
132.600006
 11
-194.250000
 21
-133.500000
  0
LINE
  8
0
 10
-194.250000
 20
-133.500000
 11
194.800003
 21
-133.500000
  0
LINE
  8
0
 10
109.800003
 20
-118.500000
 11
109.800003
 21
-133.500000
  0
LINE
  8
0
 10
109.800003
 20
-118.500000
 11
194.800003
 21
-118.500000
  0
LINE
  8
0
 10
109.800003
 20
132.600006
 11
109.800003
 21
117.600006
  0
LINE
  8
0
 10
109.800003
 20
117.600006
 11
194.800003
 21
117.600006
  0
LINE
  8
0
 10
-194.250000
 20
117.600006
 11
-84.250000
 21
117.600006
  0
LINE
  8
0
 10
-84.250000
 20
132.600006
 11
-84.250000
 21
117.600006
  0
LINE
  8
0
 10
-184.250000
 20
-123.500000
 11
-87.250000
 21
-123.500000
  0
LINE
  8
0
 10
-184.250000
 20
-123.500000
 11
-184.250000
 21
-92.500000
  0
LINE
  8
0
 10
-184.250000
 20
-115.500000
 11
-87.250000
 21
-115.500000
  0
LINE
  8
0
 10
-184.250000
 20
-107.500000
 11
-87.250000
 21
-107.500000
  0
LINE
  8
0
 10
-159.250000
 20
-123.500000
 11
-159.250000
 21
-92.500000
  0
LINE
  8
0
 10
-135.250000
 20
-123.500000
 11
-135.250000
 21
-92.500000
  0
LINE
  8
0
 10
-147.250000
 20
-123.500000
 11
-147.250000
 21
-92.500000
  0
LINE
  8
0
 10
-123.250000
 20
-123.500000
 11
-123.250000
 21
-92.500000
  0
LINE
  8
0
 10
-111.250000
 20
-123.500000
 11
-111.250000
 21
-92.500000
  0
LINE
  8
0
 10
-99.250000
 20
-123.500000
 11
-99.250000
 21
-92.500000
  0
LINE
  8
0
 10
-159.250046
 20
-107.500015
 11
-161.929535
 21
-97.500023
  0
LINE
  8
0
 10
-184.250000
 20
-97.500000
 11
-161.929489
 21
-97.500000
  0
LINE
  8
0
 10
-184.250000
 20
-92.500000
 11
-87.250000
 21
-92.500000
  0
LINE
  8
0
 10
-87.250000
 20
-123.500000
 11
-87.250000
 21
-92.500000
  0
CIRCLE
  8
0
 62
     2
 10
15.500008
 20
-3.000000
 40
2.500000
  0
ARC
  8
0
 10
-29.000000
 20
16.000000
 40
4.000002
 50
331.044983
 51
28.955065
  0
CIRCLE
  8
0
 10
-19.000000
 20
29.000000
 40
4.000000
  0
CIRCLE
  8
0
 10
-19.000000
 20
29.000000
 40
2.100000
  0
CIRCLE
  8
0
  6
DASHED
 62
     2
 10
-19.000000
 20
29.000000
 40
2.500000
  0
CIRCLE
  8
0
 10
6.000000
 20
29.000000
 40
4.000000
  0
CIRCLE
  8
0
 10
6.000000
 20
29.000000
 40
2.100000
  0
CIRCLE
  8
0
  6
DASHED
 62
     2
 10
6.000000
 20
29.000000
 40
2.500000
  0
CIRCLE
  8
0
 10
-19.000000
 20
3.000000
 40
4.000000
  0
CIRCLE
  8
0
 10
-19.000000
 20
3.000000
 40
2.100000
  0
CIRCLE
  8
0
  6
DASHED
 62
     2
 10
-19.000000
 20
3.000000
 40
2.500000
  0
CIRCLE
  8
0
 10
6.000015
 20
3.000000
 40
4.000000
  0
CIRCLE
  8
0
 10
6.000015
 20
3.000000
 40
2.100000
  0
CIRCLE
  8
0
  6
DASHED
 62
     2
 10
6.000015
 20
3.000000
 40
2.500000
  0
CIRCLE
  8
0
 62
     2
 10
-4.000000
 20
-3.000000
 40
2.500000
  0
CIRCLE
  8
0
 10
-4.000000
 20
-3.000000
 40
2.100000
  0
CIRCLE
  8
0
 10
15.500008
 20
-3.000000
 40
2.100000
  0
CIRCLE
  8
0
 10
-132.000000
 20
16.000002
 40
4.750000
  0
CIRCLE
  8
0
 10
-132.000000
 20
39.500000
 40
4.750000
  0
CIRCLE
  8
0
 10
-132.000000
 20
16.000002
 40
2.850000
  0
CIRCLE
  8
0
 10
-132.000000
 20
39.500000
 40
2.850000
  0
ARC
  8
0
 10
-146.200012
 20
11.000002
 40
0.300000
 50
90.000000
 51
180.000000
  0
ARC
  8
0
 10
-146.200012
 20
21.000002
 40
0.300003
 50
180.000000
 51
270.000000
  0
ARC
  8
0
 10
-146.200012
 20
17.200014
 40
0.299999
 50
90.000000
 51
180.000000
  0
ARC
  8
0
 10
-146.200012
 20
14.799990
 40
0.300003
 50
180.000000
 51
270.000000
  0
ARC
  8
0
 10
-116.300003
 20
40.449997
 40
0.299999
 50
270.000000
 51
0.000000
  0
ARC
  8
0
 10
-116.300003
 20
35.550003
 40
0.300003
 50
0.000000
 51
90.000000
  0
ARC
  8
0
 10
-117.799988
 20
11.000002
 40
0.300003
 50
0.000000
 51
90.000000
  0
ARC
  8
0
 10
-117.799988
 20
21.000002
 40
0.299999
 50
270.000000
 51
0.000000
  0
ARC
  8
0
 10
-117.799988
 20
17.200014
 40
0.300003
 50
0.000000
 51
90.000000
  0
ARC
  8
0
 10
-117.799988
 20
14.799990
 40
0.300000
 50
270.000000
 51
0.000000
  0
ARC
  8
0
 10
-147.699997
 20
40.449997
 40
0.300003
 50
180.000000
 51
270.000000
  0
ARC
  8
0
 10
-147.699997
 20
35.550003
 40
0.299999
 50
90.000000
 51
180.000000
  0
ARC
  8
0
 10
-147.699997
 20
-3.550001
 40
0.300003
 50
180.000046
 51
270.000000
  0
ARC
  8
0
 10
-147.699997
 20
-8.449995
 40
0.300000
 50
90.000000
 51
180.000000
  0
CIRCLE
  8
0
 10
-132.000000
 20
39.500000
 40
5.250000
  0
CIRCLE
  8
0
 10
-132.000000
 20
16.000002
 40
5.250000
  0
CIRCLE
  8
0
 10
-132.000000
 20
-7.499998
 40
5.250000
  0
CIRCLE
  8
0
 62
     2
 10
-124.000000
 20
44.000000
 40
2.500000
  0
CIRCLE
  8
0
 10
-124.000000
 20
44.000000
 40
2.100000
  0
CIRCLE
  8
0
 62
     2
 10
-140.000000
 20
44.000000
 40
2.500000
  0
CIRCLE
  8
0
 10
-140.000000
 20
44.000000
 40
2.100000
  0
CIRCLE
  8
0
 62
     2
 10
-124.000000
 20
-11.999998
 40
2.500000
  0
CIRCLE
  8
0
 10
-124.000000
 20
-11.999998
 40
2.100000
  0
CIRCLE
  8
0
 62
     2
 10
-140.000000
 20
-11.999998
 40
2.500000
  0
CIRCLE
  8
0
 10
-140.000000
 20
-11.999998
 40
2.100000
  0
CIRCLE
  8
0
 10
-132.000000
 20
-7.499998
 40
4.750000
  0
CIRCLE
  8
0
 10
-132.000000
 20
-7.499998
 40
2.850000
  0
CIRCLE
  8
0
 10
122.000015
 20
-7.499992
 40
4.000000
  0
CIRCLE
  8
0
 10
122.000015
 20
39.500008
 40
4.000000
  0
CIRCLE
  8
0
 10
122.000015
 20
16.000008
 40
9.000000
  0
ARC
  8
0
 10
136.200027
 20
11.000008
 40
0.300003
 50
0.000000
 51
90.000000
  0
ARC
  8
0
 10
133.900024
 20
19.100014
 40
2.100000
 50
90.000000
 51
270.000000
  0
ARC
  8
0
 10
136.200027
 20
21.000008
 40
0.299999
 50
270.000000
 51
0.000000
  0
ARC
  8
0
 10
136.200027
 20
17.200020
 40
0.300003
 50
0.000000
 51
90.000000
  0
ARC
  8
0
 10
136.200027
 20
14.799995
 40
0.300000
 50
270.000000
 51
0.000000
  0
ARC
  8
0
 10
133.900024
 20
12.900002
 40
2.100000
 50
90.000000
 51
270.000000
  0
ARC
  8
0
 10
106.300018
 20
40.450005
 40
0.300003
 50
180.000000
 51
270.000000
  0
ARC
  8
0
 10
106.300018
 20
35.550011
 40
0.299999
 50
90.000000
 51
180.000000
  0
CIRCLE
  8
0
 10
122.000015
 20
39.500008
 40
6.000000
  0
ARC
  8
0
 10
110.100006
 20
12.900002
 40
2.100000
 50
270.000000
 51
90.000000
  0
ARC
  8
0
 10
107.800003
 20
11.000008
 40
0.300000
 50
90.000000
 51
180.000000
  0
ARC
  8
0
 10
110.100006
 20
19.100014
 40
2.100000
 50
270.000000
 51
90.000000
  0
ARC
  8
0
 10
107.800003
 20
21.000008
 40
0.300003
 50
180.000000
 51
270.000000
  0
ARC
  8
0
 10
107.800003
 20
17.200020
 40
0.299999
 50
90.000000
 51
180.000000
  0
ARC
  8
0
 10
107.800003
 20
14.799995
 40
0.300003
 50
180.000000
 51
270.000000
  0
CIRCLE
  8
0
 10
122.000015
 20
-7.499992
 40
6.000000
  0
CIRCLE
  8
0
 62
     2
 10
112.000015
 20
46.000008
 40
2.500000
  0
CIRCLE
  8
0
 10
112.000015
 20
46.000008
 40
2.100000
  0
CIRCLE
  8
0
 62
     2
 10
112.000015
 20
-13.999992
 40
2.500000
  0
CIRCLE
  8
0
 10
112.000015
 20
-13.999992
 40
2.100000
  0
CIRCLE
  8
0
 62
     2
 10
132.000015
 20
46.000008
 40
2.500000
  0
CIRCLE
  8
0
 10
132.000015
 20
46.000008
 40
2.100000
  0
ARC
  8
0
 10
137.700012
 20
-3.549995
 40
0.300000
 50
270.000000
 51
0.000000
  0
ARC
  8
0
 10
137.700012
 20
-8.449989
 40
0.300003
 50
0.000000
 51
90.000000
  0
ARC
  8
0
 10
137.700012
 20
40.450005
 40
0.299999
 50
270.000000
 51
0.000000
  0
ARC
  8
0
 10
137.700012
 20
35.550011
 40
0.300003
 50
0.000000
 51
90.000000
  0
CIRCLE
  8
0
 10
112.500015
 20
-2.999992
 40
1.000000
  0
CIRCLE
  8
0
 10
132.000015
 20
-13.999992
 40
2.100000
  0
CIRCLE
  8
0
 62
     2
 10
132.000015
 20
-13.999992
 40
2.500000
  0
ARC
  8
0
 10
16.082359
 20
-9.504692
 40
0.417649
 50
344.498688
 51
15.501308
  0
ARC
  8
0
 10
15.927789
 20
-9.567026
 40
0.583557
 50
17.343161
 51
54.573513
  0
ARC
  8
0
 10
15.500008
 20
-10.254539
 40
1.392647
 50
56.628605
 51
123.371399
  0
ARC
  8
0
 10
15.072227
 20
-9.567026
 40
0.583557
 50
125.426491
 51
162.656845
  0
ARC
  8
0
 10
14.917656
 20
-9.504692
 40
0.417649
 50
164.498688
 51
195.501312
  0
ARC
  8
0
 10
15.072227
 20
-9.442358
 40
0.583557
 50
197.343155
 51
234.573517
  0
ARC
  8
0
 10
15.500008
 20
-8.754845
 40
1.392647
 50
236.628601
 51
303.371399
  0
ARC
  8
0
 10
15.927789
 20
-9.442358
 40
0.583557
 50
305.426483
 51
342.656830
  0
ARC
  8
0
 10
-3.417649
 20
-9.504692
 40
0.417649
 50
344.498688
 51
15.501308
  0
ARC
  8
0
 10
-3.572219
 20
-9.567026
 40
0.583557
 50
17.343166
 51
54.573532
  0
ARC
  8
0
 10
-4.000000
 20
-10.254539
 40
1.392646
 50
56.628613
 51
123.371399
  0
ARC
  8
0
 10
-4.427781
 20
-9.567026
 40
0.583557
 50
125.426491
 51
162.656845
  0
ARC
  8
0
 10
-4.582352
 20
-9.504692
 40
0.417649
 50
164.498688
 51
195.501312
  0
ARC
  8
0
 10
-4.427781
 20
-9.442358
 40
0.583557
 50
197.343155
 51
234.573517
  0
ARC
  8
0
 10
-4.000000
 20
-8.754845
 40
1.392647
 50
236.628601
 51
303.371399
  0
ARC
  8
0
 10
-3.572219
 20
-9.442358
 40
0.583557
 50
305.426483
 51
342.656830
  0
TEXT
  8
0
 10
133.907150
 20
122.050003
 40
4.500000
  1
Ver. 1.0
 50
0.000000
 41
1.052631
 51
0.000000
  7
STANDARD
  0
TEXT
  8
0
 10
113.700279
 20
-130.669998
 40
6.300000
  1
KOGANEI CORP.
 50
0.000000
 41
1.052632
 51
0.000000
  7
STANDARD
  0
TEXT
  8
0
 10
-191.392654
 20
122.050003
 40
4.500000
  1
JIG CYLINDER WITH GUIDE
 50
0.000000
 41
1.052632
 51
0.000000
  7
STANDARD
  0
TEXT
  8
0
 10
-186.892654
 20
104.550003
 40
4.500000
  1
MODEL:SGDAQY16*ST(10)
 50
0.000000
 41
1.052632
 51
0.000000
  7
STANDARD
  0
TEXT
  8
0
 10
-181.557144
 20
-96.879997
 40
3.200000
  1
STROKE
 50
0.000000
 41
1.052631
 51
0.000000
  7
STANDARD
  0
TEXT
  8
0
 10
-173.557144
 20
-113.379997
 40
3.200000
  1
A
 50
0.000000
 41
1.052631
 51
0.000000
  7
STANDARD
  0
TEXT
  8
0
 10
-184.496872
 20
-101.019997
 40
3.200000
  1
STRETCH
 50
0.000000
 41
1.052631
 51
0.000000
  7
STANDARD
  0
TEXT
  8
0
 10
-184.496872
 20
-105.820000
 40
3.200000
  1
  PLACE
 50
0.000000
 41
1.052631
 51
0.000000
  7
STANDARD
  0
TEXT
  8
0
 10
-156.657150
 20
-101.879997
 40
3.200000
  1
10
 50
0.000000
 41
1.052631
 51
0.000000
  7
STANDARD
  0
TEXT
  8
0
 10
-144.657150
 20
-101.879997
 40
3.200000
  1
20
 50
0.000000
 41
1.052631
 51
0.000000
  7
STANDARD
  0
TEXT
  8
0
 10
-132.657150
 20
-101.879997
 40
3.200000
  1
30
 50
0.000000
 41
1.052631
 51
0.000000
  7
STANDARD
  0
TEXT
  8
0
 10
-120.657158
 20
-101.879997
 40
3.200000
  1
50
 50
0.000000
 41
1.052631
 51
0.000000
  7
STANDARD
  0
TEXT
  8
0
 10
-108.657158
 20
-101.879997
 40
3.200000
  1
75
 50
0.000000
 41
1.052631
 51
0.000000
  7
STANDARD
  0
TEXT
  8
0
 10
-98.257156
 20
-101.879997
 40
3.200000
  1
100
 50
0.000000
 41
1.052631
 51
0.000000
  7
STANDARD
  0
TEXT
  8
0
 10
-99.857140
 20
-91.379997
 40
3.200000
  1
(mm)
 50
0.000000
 41
1.052631
 51
0.000000
  7
STANDARD
  0
TEXT
  8
0
 10
-155.157135
 20
-91.379997
 40
3.200000
  1
STRETCH LIST
 50
0.000000
 41
1.052631
 51
0.000000
  7
STANDARD
  0
TEXT
  8
0
 10
-173.557007
 20
-121.379997
 40
3.200000
  1
B
 50
0.000000
 41
1.052632
 51
0.000000
  7
STANDARD
  0
TEXT
  8
0
 10
-159.892654
 20
97.550003
 40
4.500000
  1
SGDAFQY16*ST(10)
 50
0.000000
 41
1.052632
 51
0.000000
  7
STANDARD
  0
TEXT
  8
0
 62
     3
 10
2.692858
 20
59.119999
 40
3.200000
  1
STRETCH LINE A
 50
0.000000
 41
1.052631
 51
0.000000
  7
STANDARD
  0
TEXT
  8
0
 10
-155.057007
 20
-113.379997
 40
3.200000
  1
0
 50
0.000000
 41
1.052632
 51
0.000000
  7
STANDARD
  0
TEXT
  8
0
 10
-143.057007
 20
-113.379997
 40
3.200000
  1
0
 50
0.000000
 41
1.052632
 51
0.000000
  7
STANDARD
  0
TEXT
  8
0
 10
-131.057007
 20
-113.379997
 40
3.200000
  1
0
 50
0.000000
 41
1.052632
 51
0.000000
  7
STANDARD
  0
TEXT
  8
0
 10
-119.056999
 20
-113.379997
 40
3.200000
  1
0
 50
0.000000
 41
1.052632
 51
0.000000
  7
STANDARD
  0
TEXT
  8
0
 10
-108.656998
 20
-113.379997
 40
3.200000
  1
25
 50
0.000000
 41
1.052632
 51
0.000000
  7
STANDARD
  0
TEXT
  8
0
 10
-96.656998
 20
-113.379997
 40
3.200000
  1
50
 50
0.000000
 41
1.052632
 51
0.000000
  7
STANDARD
  0
TEXT
  8
0
 10
-155.057007
 20
-121.379997
 40
3.200000
  1
0
 50
0.000000
 41
1.052632
 51
0.000000
  7
STANDARD
  0
TEXT
  8
0
 10
-144.656998
 20
-121.379997
 40
3.200000
  1
10
 50
0.000000
 41
1.052632
 51
0.000000
  7
STANDARD
  0
TEXT
  8
0
 10
-132.656998
 20
-121.379997
 40
3.200000
  1
20
 50
0.000000
 41
1.052632
 51
0.000000
  7
STANDARD
  0
TEXT
  8
0
 10
-120.656998
 20
-121.379997
 40
3.200000
  1
40
 50
0.000000
 41
1.052632
 51
0.000000
  7
STANDARD
  0
TEXT
  8
0
 10
-108.656998
 20
-121.379997
 40
3.200000
  1
40
 50
0.000000
 41
1.052632
 51
0.000000
  7
STANDARD
  0
TEXT
  8
0
 10
-96.656998
 20
-121.379997
 40
3.200000
  1
40
 50
0.000000
 41
1.052632
 51
0.000000
  7
STANDARD
  0
TEXT
  8
0
 62
     3
 10
-11.307000
 20
66.120003
 40
3.200000
  1
STRETCH LINE B
 50
0.000000
 41
1.052632
 51
0.000000
  7
STANDARD
  0
TEXT
  8
0
 62
     2
 10
48.851307
 20
-32.000000
 40
3.200000
  1
STROKE=75-100
 50
0.000000
 41
1.052632
 51
0.000000
  7
STANDARD
  0
LINE
  8
0
 62
     2
 10
46.000000
 20
-33.000000
 11
90.201309
 21
-33.000000
  0
LINE
  8
0
 62
     2
 10
23.000008
 20
-33.000000
 11
46.000000
 21
-33.000000
  0
LINE
  8
0
 62
     2
 10
23.000008
 20
-33.000000
 11
25.897785
 21
-32.223541
  0
LINE
  8
0
 62
     2
 10
23.000008
 20
-33.000000
 11
25.897785
 21
-33.776459
  0
LINE
  8
0
 62
     2
 10
46.000000
 20
-33.000000
 11
43.102222
 21
-33.776459
  0
LINE
  8
0
 62
     2
 10
46.000000
 20
-33.000000
 11
43.102222
 21
-32.223541
  0
LINE
  8
0
 62
     2
 10
23.000008
 20
-17.500000
 11
23.000008
 21
-34.500000
  0
LINE
  8
0
 62
     2
 10
46.000000
 20
-12.000000
 11
46.000000
 21
-34.500000
  0
ENDSEC
  0
EOF
