  0
SECTION
  2
HEADER
  0
ENDSEC
  0
SECTION
  2
TABLES
  0
TABLE
  2
LTYPE
 70
     4
  0
LTYPE
  2
CONTINUOUS
 70
    64
  3
Solid line
 72
    65
 73
     0
 40
0.000000
  0
LTYPE
  2
DASHED
 70
    64
  3
__ __ __ __ __ __ __ __ __ __ __ __ __ __ __
 72
    65
 73
     2
 40
3.500000
 49
2.000000
 49
-1.500000
  0
LTYPE
  2
CENTER
 70
    64
  3
____ _ ____ _ ____ _ ____ _ ____ _ ____ _ ____
 72
    65
 73
     4
 40
17.500000
 49
13.000000
 49
-1.500000
 49
1.500000
 49
-1.500000
  0
LTYPE
  2
PHANTOM
 70
    64
  3
_____ _ _ _____ _ _ _____ _ _ _____ _ _ ____  
 72
    65
 73
     6
 40
15.500000
 49
8.000000
 49
-1.500000
 49
1.500000
 49
-1.500000
 49
1.500000
 49
-1.500000
  0
LTYPE
  2
DASHED1
 70
    64
  3
__ __ __ __ __ __ __ __ __ __ __ __ __ __ __
 72
    65
 73
     2
 40
1.500000
 49
1.000000
 49
-0.500000
  0
LTYPE
  2
DASHED2
 70
    64
  3
__ __ __ __ __ __ __ __ __ __ __ __ __ __ __
 72
    65
 73
     2
 40
3.500000
 49
2.500000
 49
-1.000000
  0
LTYPE
  2
DASHED3
 70
    64
  3
__ __ __ __ __ __ __ __ __ __ __ __ __ __ __
 72
    65
 73
     2
 40
6.000000
 49
4.000000
 49
-2.000000
  0
LTYPE
  2
DASHED4
 70
    64
  3
__ __ __ __ __ __ __ __ __ __ __ __ __ __ __
 72
    65
 73
     2
 40
12.000000
 49
10.000000
 49
-2.000000
  0
LTYPE
  2
DASHED5
 70
    64
  3
__ __ __ __ __ __ __ __ __ __ __ __ __ __ __
 72
    65
 73
     2
 40
17.000000
 49
15.000000
 49
-2.000000
  0
LTYPE
  2
DASHED6
 70
    64
  3
__ __ __ __ __ __ __ __ __ __ __ __ __ __ __
 72
    65
 73
     2
 40
29.000000
 49
27.000000
 49
-2.000000
  0
LTYPE
  2
PHANTOM1
 70
    64
  3
_____ _ _ _____ _ _ _____ _ _ _____ _ _ ____  
 72
    65
 73
     6
 40
31.000000
 49
25.000000
 49
-1.500000
 49
1.000000
 49
-1.000000
 49
1.000000
 49
-1.500000
  0
LTYPE
  2
PHANTOM2
 70
    64
  3
_____ _ _ _____ _ _ _____ _ _ _____ _ _ ____  
 72
    65
 73
     6
 40
36.000000
 49
27.000000
 49
-1.500000
 49
2.500000
 49
-1.000000
 49
2.500000
 49
-1.500000
  0
LTYPE
  2
PHANTOM3
 70
    64
  3
_____ _ _ _____ _ _ _____ _ _ _____ _ _ ____  
 72
    65
 73
     6
 40
78.000000
 49
64.000000
 49
-2.000000
 49
4.000000
 49
-2.000000
 49
4.000000
 49
-2.000000
  0
LTYPE
  2
CENTER1
 70
    64
  3
____ _ ____ _ ____ _ ____ _ ____ _ ____ _ ____
 72
    65
 73
     4
 40
19.000000
 49
14.000000
 49
-1.000000
 49
3.000000
 49
-1.000000
  0
LTYPE
  2
CENTER2
 70
    64
  3
____ _ ____ _ ____ _ ____ _ ____ _ ____ _ ____
 72
    65
 73
     4
 40
28.500000
 49
25.000000
 49
-1.000000
 49
1.500000
 49
-1.000000
  0
LTYPE
  2
CENTER3
 70
    64
  3
____ _ ____ _ ____ _ ____ _ ____ _ ____ _ ____
 72
    65
 73
     4
 40
31.500000
 49
27.000000
 49
-1.000000
 49
2.500000
 49
-1.000000
  0
LTYPE
  2
CENTER4
 70
    64
  3
____ _ ____ _ ____ _ ____ _ ____ _ ____ _ ____
 72
    65
 73
     4
 40
50.000000
 49
45.000000
 49
-1.000000
 49
3.000000
 49
-1.000000
  0
LTYPE
  2
CENTER5
 70
    64
  3
____ _ ____ _ ____ _ ____ _ ____ _ ____ _ ____
 72
    65
 73
     4
 40
100.000000
 49
92.000000
 49
-2.000000
 49
4.000000
 49
-2.000000
  0
LTYPE
  2
SBK1
 70
    64
  3
______ _ _ _ ______ _ _ _ ______ _ _ _ _____  
 72
    65
 73
     8
 40
60.500000
 49
45.000000
 49
-2.000000
 49
2.500000
 49
-2.000000
 49
2.500000
 49
-2.000000
 49
2.500000
 49
-2.000000
  0
LTYPE
  2
SBK2
 70
    64
  3
______ _ _ _ ______ _ _ _ ______ _ _ _ _____  
 72
    65
 73
     8
 40
84.000000
 49
64.000000
 49
-2.000000
 49
4.000000
 49
-2.000000
 49
4.000000
 49
-2.000000
 49
4.000000
 49
-2.000000
  0
LTYPE
  2
STCH
 70
    64
  3
__ __ __ __ __ __ __ __ __ __ __ __ __ __ __
 72
    65
 73
     2
 40
3.000000
 49
1.000000
 49
-2.000000
  0
LTYPE
  2
MTCH
 70
    64
  3
_____ _ _ _____ _ _ _____ _ _ _____ _ _ ____  
 72
    65
 73
     6
 40
80.000000
 49
66.000000
 49
-2.000000
 49
4.000000
 49
-2.000000
 49
4.000000
 49
-2.000000
  0
ENDTAB
  0
TABLE
  2
LAYER
 70
     1
  0
LAYER
  2
0
 70
     0
 62
     7
  6
CONTINUOUS
  0
ENDTAB
  0
TABLE
  2
STYLE
 70
     1
  0
STYLE
  2
STANDARD
 70
     0
 40
0.000000
 41
1.000000
 50
0.000000
 71
     0
 42
0.200000
  3
txt
  4
BIGFONT
  0
ENDTAB
  0
TABLE
  2
VIEW
 70
     0
  0
ENDTAB
  0
ENDSEC
  0
SECTION
  2
BLOCKS
  0
ENDSEC
  0
SECTION
  2
ENTITIES
  0
LINE
  8
0
 10
-31.000000
 20
20.000000
 11
-27.000000
 21
20.000000
  0
LINE
  8
0
 10
-31.000000
 20
-30.000000
 11
-31.000000
 21
58.000000
  0
LINE
  8
0
 10
-43.000000
 20
58.000000
 11
-43.000000
 21
-30.000000
  0
LINE
  8
0
 10
-29.500000
 20
17.316628
 11
-29.500000
 21
10.683372
  0
LINE
  8
0
 10
-31.000000
 20
10.683380
 11
-29.500000
 21
10.683380
  0
LINE
  8
0
 10
-31.000051
 20
12.341691
 11
-29.500019
 21
17.316742
  0
LINE
  8
0
 10
-29.500067
 20
10.683340
 11
-31.000015
 21
15.658105
  0
LINE
  8
0
 10
-31.000000
 20
8.000000
 11
-27.000000
 21
8.000000
  0
LINE
  8
0
 10
-42.000000
 20
-31.000000
 11
-32.000000
 21
-31.000000
  0
LINE
  8
0
 10
-42.000000
 20
59.000000
 11
-32.000000
 21
59.000000
  0
LINE
  8
0
 10
-42.999973
 20
-29.999979
 11
-41.999969
 21
-30.999983
  0
LINE
  8
0
 10
-31.000004
 20
-30.000006
 11
-32.000004
 21
-31.000008
  0
LINE
  8
0
 10
-42.000038
 20
59.000057
 11
-43.000038
 21
58.000057
  0
LINE
  8
0
 10
-32.000000
 20
59.000000
 11
-30.999992
 21
57.999989
  0
LINE
  8
0
 10
-26.500000
 20
60.000000
 11
30.500000
 21
60.000000
  0
LINE
  8
0
 10
-27.000000
 20
18.500000
 11
31.000000
 21
18.500000
  0
LINE
  8
0
 10
-27.000000
 20
21.699997
 11
31.000000
 21
21.699997
  0
LINE
  8
0
 10
-27.000000
 20
24.000000
 11
31.000000
 21
24.000000
  0
LINE
  8
0
 10
-27.000000
 20
25.000000
 11
31.000000
 21
25.000000
  0
LINE
  8
0
 10
-26.499996
 20
59.999943
 11
-26.999998
 21
59.499943
  0
LINE
  8
0
 10
30.499966
 20
60.000027
 11
30.999973
 21
59.500027
  0
LINE
  8
0
 10
-27.000000
 20
58.000000
 11
31.000000
 21
58.000000
  0
LINE
  8
0
 10
-27.000000
 20
43.149994
 11
31.000000
 21
43.149994
  0
LINE
  8
0
 10
-27.000000
 20
38.850006
 11
31.000000
 21
38.850006
  0
LINE
  8
0
  6
CENTER
 62
     2
 10
-26.684387
 20
30.500000
 11
-14.723743
 21
30.500000
  0
LINE
  8
0
  6
CENTER
 62
     2
 10
-45.505138
 20
45.500000
 11
-24.173477
 21
45.500000
  0
LINE
  8
0
  6
CENTER
 62
     2
 10
-45.505138
 20
-17.500000
 11
-24.173477
 21
-17.500000
  0
LINE
  8
0
 10
-31.000000
 20
17.316628
 11
-29.500000
 21
17.316628
  0
LINE
  8
0
  6
DASHED
 62
     2
 10
59.000000
 20
-11.000004
 11
59.000000
 21
-24.000000
  0
LINE
  8
0
  6
DASHED
 62
     2
 10
31.000000
 20
-10.500000
 11
58.500000
 21
-10.500000
  0
LINE
  8
0
  6
DASHED
 62
     2
 10
31.000000
 20
-24.500000
 11
58.500000
 21
-24.500000
  0
LINE
  8
0
  6
DASHED
 62
     2
 10
58.500000
 20
-10.500006
 11
59.000004
 21
-11.000005
  0
LINE
  8
0
  6
DASHED
 62
     2
 10
58.999977
 20
-23.999985
 11
58.499977
 21
-24.499985
  0
LINE
  8
0
  6
DASHED
 62
     2
 10
58.500000
 20
-10.500000
 11
58.500000
 21
-24.500000
  0
LINE
  8
0
  6
DASHED
 62
     2
 10
59.000000
 20
51.999989
 11
59.000000
 21
39.000000
  0
LINE
  8
0
  6
DASHED
 62
     2
 10
31.000000
 20
52.500000
 11
58.500000
 21
52.500000
  0
LINE
  8
0
  6
DASHED
 62
     2
 10
31.000000
 20
38.500000
 11
58.500000
 21
38.500000
  0
LINE
  8
0
  6
DASHED
 62
     2
 10
58.499989
 20
52.499989
 11
58.999989
 21
51.999989
  0
LINE
  8
0
  6
DASHED
 62
     2
 10
58.999996
 20
39.000000
 11
58.499996
 21
38.500000
  0
LINE
  8
0
  6
DASHED
 62
     2
 10
58.500000
 20
52.500000
 11
58.500000
 21
38.500000
  0
LINE
  8
0
  6
CENTER
 62
     2
 10
9.000000
 20
-8.537125
 11
9.000000
 21
4.202271
  0
LINE
  8
0
  6
CENTER
 62
     2
 10
-26.684387
 20
-2.500000
 11
-15.198090
 21
-2.500000
  0
LINE
  8
0
  6
CENTER
 62
     2
 10
-21.000000
 20
-8.537125
 11
-21.000000
 21
3.452881
  0
LINE
  8
0
 10
-27.000000
 20
3.000000
 11
31.000000
 21
3.000000
  0
LINE
  8
0
 10
-27.000000
 20
4.000000
 11
31.000000
 21
4.000000
  0
LINE
  8
0
 10
-27.000000
 20
9.500000
 11
31.000000
 21
9.500000
  0
LINE
  8
0
 10
-27.000000
 20
6.300003
 11
31.000000
 21
6.300003
  0
LINE
  8
0
  6
CENTER
 62
     2
 10
21.000000
 20
-22.325974
 11
21.000000
 21
-9.244629
  0
LINE
  8
0
 10
-27.000000
 20
-31.500000
 11
-27.000000
 21
59.500000
  0
LINE
  8
0
  6
CENTER
 62
     2
 10
2.835266
 20
-2.500000
 11
15.000000
 21
-2.500000
  0
LINE
  8
0
 10
31.000000
 20
59.500000
 11
31.000000
 21
-31.500000
  0
LINE
  8
0
 10
-26.500000
 20
-32.000000
 11
30.500000
 21
-32.000000
  0
LINE
  8
0
  6
DASHED
 62
     2
 10
5.717010
 20
-29.183239
 11
5.717010
 21
-32.000000
  0
LINE
  8
0
  6
DASHED
 62
     2
 10
5.268012
 20
-29.183241
 11
5.136034
 21
-32.000004
  0
LINE
  8
0
  6
DASHED
 62
     2
 10
14.282990
 20
-29.183239
 11
14.282990
 21
-32.000000
  0
LINE
  8
0
  6
DASHED
 62
     2
 10
14.732145
 20
-29.183241
 11
14.864122
 21
-31.999998
  0
LINE
  8
0
 10
-27.000000
 20
-31.000000
 11
31.000000
 21
-31.000000
  0
LINE
  8
0
  6
CENTER
 62
     2
 10
15.311066
 20
-15.000000
 11
27.180939
 21
-15.000000
  0
LINE
  8
0
  6
CENTER
 62
     2
 10
-5.000000
 20
-21.436726
 11
-5.000000
 21
-8.899372
  0
LINE
  8
0
  6
DASHED
 62
     2
 10
-9.283005
 20
-29.183239
 11
-9.283005
 21
-32.000000
  0
LINE
  8
0
  6
DASHED
 62
     2
 10
-9.732031
 20
-29.183241
 11
-9.864009
 21
-32.000015
  0
LINE
  8
0
  6
DASHED
 62
     2
 10
-0.717010
 20
-29.183239
 11
-0.717010
 21
-32.000000
  0
LINE
  8
0
  6
DASHED
 62
     2
 10
-0.267913
 20
-29.183241
 11
-0.135936
 21
-31.999985
  0
LINE
  8
0
  6
CENTER
 62
     2
 10
-10.583229
 20
-15.000000
 11
0.810261
 21
-15.000000
  0
LINE
  8
0
  6
CENTER
 62
     2
 10
-45.452652
 20
14.000000
 11
33.806305
 21
14.000000
  0
LINE
  8
0
 10
31.000010
 20
-31.499994
 11
30.500008
 21
-31.999994
  0
LINE
  8
0
 10
-27.000004
 20
-31.499962
 11
-26.500004
 21
-31.999964
  0
LINE
  8
0
  6
CENTER
 62
     2
 10
-5.000000
 20
-33.913498
 11
-5.000000
 21
-27.715897
  0
LINE
  8
0
  6
CENTER
 62
     2
 10
9.000000
 20
36.796261
 11
9.000000
 21
24.243965
  0
LINE
  8
0
  6
CENTER
 62
     2
 10
-21.000000
 20
36.677841
 11
-21.000000
 21
24.243965
  0
LINE
  8
0
  6
CENTER
 62
     2
 10
2.825768
 20
30.500000
 11
15.259644
 21
30.500000
  0
LINE
  8
0
 10
-31.000000
 20
52.500000
 11
-27.000000
 21
52.500000
  0
LINE
  8
0
 10
-31.000000
 20
38.500000
 11
-27.000000
 21
38.500000
  0
LINE
  8
0
 10
-31.000000
 20
-10.500000
 11
-27.000000
 21
-10.500000
  0
LINE
  8
0
 10
-31.000000
 20
-24.500000
 11
-27.000000
 21
-24.500000
  0
LINE
  8
0
  6
CENTER
 62
     2
 10
10.000000
 20
-33.913498
 11
10.000000
 21
-27.715897
  0
LINE
  8
0
  6
PHANTOM
 62
     3
 10
16.599998
 20
64.400002
 11
16.599998
 21
-10.400002
  0
LINE
  8
0
  6
PHANTOM
 62
     3
 10
1.400002
 20
72.800003
 11
1.400002
 21
-37.000000
  0
LINE
  8
0
  6
PHANTOM
 62
     3
 10
3.900002
 20
-10.400002
 11
3.900002
 21
-37.000000
  0
LINE
  8
0
  6
PHANTOM
 62
     3
 10
3.900002
 20
-10.400002
 11
16.599998
 21
-10.400002
  0
LINE
  8
0
 10
-147.000000
 20
58.000000
 11
-147.000000
 21
43.949997
  0
LINE
  8
0
 10
-106.000000
 20
-32.000000
 11
-145.000000
 21
-32.000000
  0
LINE
  8
0
 10
-107.000000
 20
60.000000
 11
-145.000000
 21
60.000000
  0
LINE
  8
0
  6
CENTER
 62
     2
 10
-102.173523
 20
14.000000
 11
-149.777618
 21
14.000000
  0
LINE
  8
0
 10
-105.000000
 20
3.000000
 11
-105.000000
 21
-31.000000
  0
LINE
  8
0
 10
-147.000000
 20
38.050003
 11
-147.000000
 21
25.000000
  0
LINE
  8
0
 10
-106.999908
 20
60.000069
 11
-104.999908
 21
58.000065
  0
LINE
  8
0
 10
-145.000046
 20
-32.000057
 11
-147.000046
 21
-30.000053
  0
LINE
  8
0
 10
-145.000046
 20
60.000034
 11
-147.000061
 21
58.000011
  0
LINE
  8
0
 10
-106.000000
 20
21.699997
 11
-106.500000
 21
21.699997
  0
LINE
  8
0
 10
-106.500053
 20
21.699993
 11
-107.000061
 21
22.200006
  0
LINE
  8
0
 10
-106.000000
 20
18.500000
 11
-106.500000
 21
18.500000
  0
LINE
  8
0
 10
-106.499985
 20
18.499929
 11
-107.000000
 21
17.999920
  0
LINE
  8
0
 10
-105.000000
 20
58.000031
 11
-105.000000
 21
43.449997
  0
LINE
  8
0
 10
-106.000000
 20
24.422653
 11
-106.000000
 21
21.699997
  0
LINE
  8
0
 10
-106.000000
 20
18.500000
 11
-106.000000
 21
9.500000
  0
LINE
  8
0
 10
-145.000000
 20
43.649994
 11
-146.700012
 21
43.649994
  0
LINE
  8
0
 10
-145.000000
 20
38.350006
 11
-146.700012
 21
38.350006
  0
LINE
  8
0
 10
-105.299988
 20
38.850006
 11
-107.000000
 21
38.850006
  0
LINE
  8
0
 10
-105.299988
 20
43.149994
 11
-107.000000
 21
43.149994
  0
LINE
  8
0
 10
-105.000000
 20
38.550003
 11
-105.000000
 21
25.000000
  0
LINE
  8
0
 10
-104.999962
 20
-30.999958
 11
-105.999985
 21
-31.999981
  0
LINE
  8
0
 10
-106.000000
 20
6.300003
 11
-106.500000
 21
6.300003
  0
LINE
  8
0
 10
-106.500076
 20
6.300026
 11
-107.000092
 21
5.800017
  0
LINE
  8
0
 10
-106.000000
 20
9.500000
 11
-106.500000
 21
9.500000
  0
LINE
  8
0
 10
-106.499977
 20
9.500059
 11
-106.999985
 21
10.000068
  0
LINE
  8
0
 10
-106.000000
 20
3.577354
 11
-106.000000
 21
6.300003
  0
LINE
  8
0
 10
-106.000008
 20
24.422682
 11
-105.000015
 21
25.000031
  0
LINE
  8
0
 10
-106.000015
 20
3.577329
 11
-104.999992
 21
2.999969
  0
LINE
  8
0
 10
-146.000015
 20
3.577374
 11
-147.000061
 21
3.000000
  0
LINE
  8
0
 10
-146.000000
 20
21.699997
 11
-145.500000
 21
21.699997
  0
LINE
  8
0
 10
-145.500031
 20
21.700043
 11
-145.000015
 21
22.200052
  0
LINE
  8
0
 10
-146.000000
 20
18.500000
 11
-145.500000
 21
18.500000
  0
LINE
  8
0
 10
-145.500000
 20
18.499966
 11
-145.000000
 21
17.999966
  0
LINE
  8
0
 10
-146.000000
 20
24.422653
 11
-146.000000
 21
21.699997
  0
LINE
  8
0
 10
-146.000000
 20
18.500000
 11
-146.000000
 21
9.500000
  0
LINE
  8
0
 10
-146.000000
 20
6.300003
 11
-145.500000
 21
6.300003
  0
LINE
  8
0
 10
-145.500015
 20
6.300001
 11
-145.000015
 21
5.799990
  0
LINE
  8
0
 10
-146.000000
 20
9.500000
 11
-145.500000
 21
9.500000
  0
LINE
  8
0
 10
-145.499969
 20
9.500008
 11
-144.999954
 21
10.000016
  0
LINE
  8
0
 10
-146.000000
 20
3.577354
 11
-146.000000
 21
6.300003
  0
LINE
  8
0
 10
-146.000000
 20
24.422621
 11
-147.000015
 21
24.999977
  0
LINE
  8
0
 10
-147.000000
 20
-30.000000
 11
-147.000000
 21
-15.949997
  0
LINE
  8
0
 10
-145.000000
 20
-15.650002
 11
-146.700012
 21
-15.650002
  0
LINE
  8
0
 10
-145.000000
 20
-10.349998
 11
-146.700012
 21
-10.349998
  0
LINE
  8
0
 10
-144.000000
 20
59.000000
 11
-108.000000
 21
59.000000
  0
LINE
  8
0
 10
-144.000000
 20
-31.000000
 11
-108.000000
 21
-31.000000
  0
LINE
  8
0
 10
-143.999985
 20
58.999977
 11
-144.999985
 21
57.999977
  0
LINE
  8
0
 10
-107.999901
 20
59.000103
 11
-106.999901
 21
58.000111
  0
LINE
  8
0
 10
-144.999985
 20
-29.999996
 11
-143.999969
 21
-30.999994
  0
LINE
  8
0
 10
-107.000008
 20
-29.999981
 11
-108.000008
 21
-30.999983
  0
LINE
  8
0
  6
CENTER
 62
     2
 10
-139.000000
 20
-28.603226
 11
-139.000000
 21
-19.512543
  0
LINE
  8
0
  6
CENTER
 62
     2
 10
-144.428070
 20
-24.000000
 11
-134.033188
 21
-24.000000
  0
LINE
  8
0
  6
CENTER
 62
     2
 10
-143.710083
 20
52.000000
 11
-134.225800
 21
52.000000
  0
LINE
  8
0
  6
CENTER
 62
     2
 10
-113.000000
 20
-28.603226
 11
-113.000000
 21
-19.512543
  0
LINE
  8
0
 10
-125.999985
 20
-15.190615
 11
-127.999977
 21
-16.345308
  0
LINE
  8
0
 10
-128.000000
 20
-16.345299
 11
-128.000000
 21
-18.654701
  0
LINE
  8
0
 10
-125.999992
 20
-19.809372
 11
-127.999969
 21
-18.654680
  0
LINE
  8
0
 10
-123.999977
 20
-18.654730
 11
-125.999985
 21
-19.809431
  0
LINE
  8
0
 10
-124.000000
 20
-16.345299
 11
-124.000000
 21
-18.654701
  0
LINE
  8
0
 10
-125.999969
 20
-15.190585
 11
-123.999985
 21
-16.345280
  0
LINE
  8
0
 10
-125.999992
 20
16.309378
 11
-127.999977
 21
15.154683
  0
LINE
  8
0
 10
-128.000000
 20
15.154701
 11
-128.000000
 21
12.845301
  0
LINE
  8
0
 10
-125.999977
 20
11.690618
 11
-127.999977
 21
12.845320
  0
LINE
  8
0
 10
-123.999992
 20
12.845277
 11
-125.999992
 21
11.690579
  0
LINE
  8
0
 10
-124.000000
 20
15.154699
 11
-124.000000
 21
12.845299
  0
LINE
  8
0
 10
-125.999992
 20
16.309416
 11
-123.999992
 21
15.154714
  0
LINE
  8
0
 10
-125.999985
 20
47.809368
 11
-127.999962
 21
46.654678
  0
LINE
  8
0
 10
-128.000000
 20
46.654701
 11
-128.000000
 21
44.345299
  0
LINE
  8
0
 10
-126.000000
 20
43.190609
 11
-127.999977
 21
44.345299
  0
LINE
  8
0
 10
-123.999969
 20
44.345276
 11
-125.999977
 21
43.190571
  0
LINE
  8
0
 10
-124.000000
 20
46.654701
 11
-124.000000
 21
44.345299
  0
LINE
  8
0
 10
-125.999985
 20
47.809406
 11
-124.000000
 21
46.654709
  0
LINE
  8
0
  6
CENTER
 62
     2
 10
-126.000000
 20
63.872604
 11
-126.000000
 21
-35.152332
  0
LINE
  8
0
 10
-145.000000
 20
58.000000
 11
-145.000000
 21
-30.000000
  0
LINE
  8
0
 10
-107.000000
 20
58.000000
 11
-107.000000
 21
-30.000000
  0
LINE
  8
0
 10
-147.000000
 20
-10.050003
 11
-147.000000
 21
3.000000
  0
LINE
  8
0
  6
CENTER
 62
     2
 10
-139.000000
 20
56.643517
 11
-139.000000
 21
47.159233
  0
LINE
  8
0
  6
CENTER
 62
     2
 10
-113.000000
 20
56.573776
 11
-113.000000
 21
47.159233
  0
LINE
  8
0
  6
CENTER
 62
     2
 10
-117.767776
 20
52.000000
 11
-108.144012
 21
52.000000
  0
LINE
  8
0
  6
CENTER
 62
     2
 10
-133.119156
 20
45.500000
 11
-118.901382
 21
45.500000
  0
LINE
  8
0
  6
CENTER
 62
     2
 10
-132.988602
 20
-17.500000
 11
-118.622147
 21
-17.500000
  0
LINE
  8
0
  6
CENTER
 62
     2
 10
-117.225555
 20
-24.000000
 11
-108.812668
 21
-24.000000
  0
LINE
  8
0
 10
147.000000
 20
21.699997
 11
146.499985
 21
21.699997
  0
LINE
  8
0
  6
DASHED
 62
     2
 10
107.768105
 20
-29.183241
 11
107.636131
 21
-32.000000
  0
LINE
  8
0
  6
DASHED
 62
     2
 10
108.216995
 20
-29.183239
 11
108.216995
 21
-32.000000
  0
LINE
  8
0
  6
DASHED
 62
     2
 10
116.783005
 20
-29.183239
 11
116.783005
 21
-32.000000
  0
LINE
  8
0
  6
DASHED
 62
     2
 10
117.232246
 20
-29.183239
 11
117.364227
 21
-31.999987
  0
LINE
  8
0
  6
CENTER
 62
     2
 10
127.000000
 20
62.663757
 11
127.000000
 21
-35.729996
  0
LINE
  8
0
 10
148.000000
 20
58.000000
 11
148.000000
 21
43.949997
  0
LINE
  8
0
 10
107.000000
 20
-32.000000
 11
146.000000
 21
-32.000000
  0
LINE
  8
0
 10
108.000000
 20
60.000000
 11
146.000000
 21
60.000000
  0
LINE
  8
0
  6
CENTER
 62
     2
 10
116.054314
 20
45.500000
 11
138.158630
 21
45.500000
  0
LINE
  8
0
 62
     2
 10
103.173523
 20
14.000000
 11
150.777618
 21
14.000000
  0
LINE
  8
0
 10
106.000000
 20
3.000000
 11
106.000000
 21
-31.000000
  0
LINE
  8
0
 10
148.000000
 20
38.050003
 11
148.000000
 21
25.000000
  0
LINE
  8
0
 10
107.999878
 20
60.000092
 11
105.999878
 21
58.000088
  0
LINE
  8
0
 10
145.999985
 20
-32.000050
 11
147.999985
 21
-30.000046
  0
LINE
  8
0
 10
146.000015
 20
60.000015
 11
148.000031
 21
58.000000
  0
LINE
  8
0
 10
108.000015
 20
22.199997
 11
109.599991
 21
22.199997
  0
LINE
  8
0
 10
107.000000
 20
21.699997
 11
107.500015
 21
21.699997
  0
LINE
  8
0
 10
107.500053
 20
21.700016
 11
108.000046
 21
22.200003
  0
LINE
  8
0
 10
107.000000
 20
18.500000
 11
107.500015
 21
18.500000
  0
LINE
  8
0
 10
107.499969
 20
18.499918
 11
107.999977
 21
17.999918
  0
LINE
  8
0
 10
108.000015
 20
18.000000
 11
109.599991
 21
18.000000
  0
LINE
  8
0
 10
106.000000
 20
58.000031
 11
106.000000
 21
43.449997
  0
LINE
  8
0
 10
107.000000
 20
24.422653
 11
107.000000
 21
21.699997
  0
LINE
  8
0
 10
107.000000
 20
18.500000
 11
107.000000
 21
9.500000
  0
LINE
  8
0
 10
140.500000
 20
45.149994
 11
145.000000
 21
45.149994
  0
LINE
  8
0
 10
140.500000
 20
36.850006
 11
145.000000
 21
36.850006
  0
LINE
  8
0
 10
145.000000
 20
43.649994
 11
147.699997
 21
43.649994
  0
LINE
  8
0
 10
145.000000
 20
38.350006
 11
147.699997
 21
38.350006
  0
LINE
  8
0
 10
145.000000
 20
45.149994
 11
145.000000
 21
43.649994
  0
LINE
  8
0
 10
145.000000
 20
38.350006
 11
145.000000
 21
36.850006
  0
LINE
  8
0
 10
109.000000
 20
44.649994
 11
109.000000
 21
43.149994
  0
LINE
  8
0
 10
113.000000
 20
44.649994
 11
113.000000
 21
37.350006
  0
LINE
  8
0
 10
109.000000
 20
44.649994
 11
113.000000
 21
44.649994
  0
LINE
  8
0
 10
109.000000
 20
37.350006
 11
113.000000
 21
37.350006
  0
LINE
  8
0
 10
106.300003
 20
38.850006
 11
109.000000
 21
38.850006
  0
LINE
  8
0
 10
106.300003
 20
43.149994
 11
109.000000
 21
43.149994
  0
LINE
  8
0
 10
109.000000
 20
38.850006
 11
109.000000
 21
37.350006
  0
LINE
  8
0
 10
106.000000
 20
38.550003
 11
106.000000
 21
25.000000
  0
LINE
  8
0
 10
140.500000
 20
45.149994
 11
140.500000
 21
36.850006
  0
LINE
  8
0
 10
105.999985
 20
-30.999998
 11
106.999985
 21
-31.999998
  0
LINE
  8
0
 10
108.000015
 20
5.800003
 11
109.599991
 21
5.800003
  0
LINE
  8
0
 10
107.000000
 20
6.300003
 11
107.500015
 21
6.300003
  0
LINE
  8
0
 10
107.500046
 20
6.300015
 11
108.000046
 21
5.800014
  0
LINE
  8
0
 10
107.000000
 20
9.500000
 11
107.500015
 21
9.500000
  0
LINE
  8
0
 10
107.500023
 20
9.500057
 11
108.000015
 21
10.000052
  0
LINE
  8
0
 10
108.000015
 20
10.000000
 11
109.599991
 21
10.000000
  0
LINE
  8
0
 10
107.000000
 20
3.577347
 11
107.000000
 21
6.300003
  0
LINE
  8
0
 10
107.000000
 20
24.422661
 11
105.999977
 21
25.000021
  0
LINE
  8
0
 10
107.000000
 20
3.577356
 11
105.999962
 21
2.999985
  0
LINE
  8
0
 10
147.000000
 20
3.577388
 11
148.000046
 21
3.000011
  0
LINE
  8
0
 10
145.999985
 20
22.199997
 11
144.400009
 21
22.199997
  0
LINE
  8
0
 10
146.499985
 20
21.700041
 11
145.999985
 21
22.200041
  0
LINE
  8
0
 10
147.000000
 20
18.500000
 11
146.499985
 21
18.500000
  0
LINE
  8
0
 10
146.500015
 20
18.499949
 11
146.000015
 21
17.999958
  0
LINE
  8
0
 10
145.999985
 20
18.000000
 11
144.400009
 21
18.000000
  0
LINE
  8
0
 10
147.000000
 20
24.422653
 11
147.000000
 21
21.699997
  0
LINE
  8
0
 10
147.000000
 20
18.500000
 11
147.000000
 21
9.500000
  0
LINE
  8
0
 10
145.999985
 20
5.800003
 11
144.400009
 21
5.800003
  0
LINE
  8
0
 10
147.000000
 20
6.300003
 11
146.499985
 21
6.300003
  0
LINE
  8
0
 10
146.499969
 20
6.299982
 11
145.999969
 21
5.799981
  0
LINE
  8
0
 10
147.000000
 20
9.500000
 11
146.499985
 21
9.500000
  0
LINE
  8
0
 10
146.499985
 20
9.500017
 11
145.999985
 21
10.000012
  0
LINE
  8
0
 10
145.999985
 20
10.000000
 11
144.400009
 21
10.000000
  0
LINE
  8
0
 10
147.000000
 20
3.577347
 11
147.000000
 21
6.300003
  0
LINE
  8
0
 10
147.000000
 20
24.422647
 11
148.000000
 21
25.000006
  0
LINE
  8
0
 10
148.000000
 20
-30.000000
 11
148.000000
 21
-15.949997
  0
LINE
  8
0
 10
148.000000
 20
-10.050003
 11
148.000000
 21
3.000000
  0
LINE
  8
0
 10
140.500000
 20
-17.149994
 11
145.000000
 21
-17.149994
  0
LINE
  8
0
 10
140.500000
 20
-8.850006
 11
145.000000
 21
-8.850006
  0
LINE
  8
0
 10
145.000000
 20
-15.649994
 11
147.699997
 21
-15.649994
  0
LINE
  8
0
 10
145.000000
 20
-10.350006
 11
147.699997
 21
-10.350006
  0
LINE
  8
0
 10
145.000000
 20
-17.149994
 11
145.000000
 21
-15.649994
  0
LINE
  8
0
 10
145.000000
 20
-10.350006
 11
145.000000
 21
-8.850006
  0
LINE
  8
0
 10
140.500000
 20
-17.149994
 11
140.500000
 21
-8.850006
  0
LINE
  8
0
  6
CENTER
 62
     2
 10
116.054314
 20
-17.500000
 11
138.158630
 21
-17.500000
  0
LINE
  8
0
  6
CENTER
 62
     2
 10
112.000000
 20
-21.953461
 11
112.000000
 21
-30.418503
  0
LINE
  8
0
  6
CENTER
 62
     2
 10
116.278610
 20
-26.000000
 11
107.643509
 21
-26.000000
  0
LINE
  8
0
  6
CENTER
 62
     2
 10
142.000000
 20
49.953461
 11
142.000000
 21
58.418503
  0
LINE
  8
0
  6
CENTER
 62
     2
 10
146.278610
 20
54.000000
 11
137.643509
 21
54.000000
  0
LINE
  8
0
 10
133.708206
 20
-11.500000
 11
140.500000
 21
-11.500000
  0
LINE
  8
0
 10
135.485291
 20
-14.500000
 11
140.500000
 21
-14.500000
  0
LINE
  8
0
 10
133.708206
 20
39.500000
 11
140.500000
 21
39.500000
  0
LINE
  8
0
 10
135.485291
 20
42.500000
 11
140.500000
 21
42.500000
  0
LINE
  8
0
  6
CENTER
 62
     2
 10
112.000000
 20
49.953461
 11
112.000000
 21
58.418503
  0
LINE
  8
0
  6
CENTER
 62
     2
 10
107.721390
 20
54.000000
 11
116.356491
 21
54.000000
  0
LINE
  8
0
  6
CENTER
 62
     2
 10
139.241364
 20
41.000000
 11
143.158524
 21
41.000000
  0
LINE
  8
0
  6
CENTER
 62
     2
 10
139.241364
 20
-13.000000
 11
142.688660
 21
-13.000000
  0
LINE
  8
0
  6
CENTER
 62
     2
 10
109.000000
 20
41.000000
 11
115.123619
 21
41.000000
  0
LINE
  8
0
  6
CENTER
 62
     2
 10
112.500000
 20
-27.690659
 11
112.500000
 21
-33.820633
  0
LINE
  8
0
  6
CENTER
 62
     2
 10
110.510475
 20
-15.000000
 11
114.597702
 21
-15.000000
  0
LINE
  8
0
  6
CENTER
 62
     2
 10
112.500008
 20
-13.125015
 11
112.500008
 21
-17.017609
  0
LINE
  8
0
  6
CENTER
 62
     2
 10
142.000000
 20
-21.953461
 11
142.000000
 21
-30.418503
  0
LINE
  8
0
  6
CENTER
 62
     2
 10
146.278610
 20
-26.000000
 11
137.643509
 21
-26.000000
  0
LINE
  8
0
 10
108.000000
 20
43.149994
 11
108.000000
 21
38.850006
  0
LINE
  8
0
 10
146.000000
 20
43.649994
 11
146.000000
 21
38.350006
  0
LINE
  8
0
 10
108.000000
 20
22.199997
 11
108.000000
 21
18.000000
  0
LINE
  8
0
 10
108.000000
 20
10.000000
 11
108.000000
 21
5.800003
  0
LINE
  8
0
 10
146.000000
 20
22.199997
 11
146.000000
 21
18.000000
  0
LINE
  8
0
 10
146.000000
 20
10.000000
 11
146.000000
 21
5.800003
  0
LINE
  8
0
 10
146.000000
 20
-10.350006
 11
146.000000
 21
-15.649994
  0
LINE
  8
0
 10
-194.250000
 20
132.600006
 11
194.800003
 21
132.600006
  0
LINE
  8
0
 10
194.800003
 20
132.600006
 11
194.800003
 21
-133.500000
  0
LINE
  8
0
 10
-194.250000
 20
132.600006
 11
-194.250000
 21
-133.500000
  0
LINE
  8
0
 10
-194.250000
 20
-133.500000
 11
194.800003
 21
-133.500000
  0
LINE
  8
0
 10
109.800003
 20
-118.500000
 11
109.800003
 21
-133.500000
  0
LINE
  8
0
 10
109.800003
 20
-118.500000
 11
194.800003
 21
-118.500000
  0
LINE
  8
0
 10
109.800003
 20
132.600006
 11
109.800003
 21
117.600006
  0
LINE
  8
0
 10
109.800003
 20
117.600006
 11
194.800003
 21
117.600006
  0
LINE
  8
0
 10
-194.250000
 20
117.600006
 11
-84.250000
 21
117.600006
  0
LINE
  8
0
 10
-84.250000
 20
132.600006
 11
-84.250000
 21
117.600006
  0
LINE
  8
0
 10
-184.250000
 20
-123.500000
 11
-39.250000
 21
-123.500000
  0
LINE
  8
0
 10
-184.250000
 20
-115.500000
 11
-39.250000
 21
-115.500000
  0
LINE
  8
0
 10
-184.250000
 20
-107.500000
 11
-39.250000
 21
-107.500000
  0
LINE
  8
0
 10
-159.250000
 20
-123.500000
 11
-159.250000
 21
-92.500000
  0
LINE
  8
0
 10
-135.250000
 20
-123.500000
 11
-135.250000
 21
-92.500000
  0
LINE
  8
0
 10
-147.250000
 20
-123.500000
 11
-147.250000
 21
-92.500000
  0
LINE
  8
0
 10
-123.250000
 20
-123.500000
 11
-123.250000
 21
-92.500000
  0
LINE
  8
0
 10
-111.250000
 20
-123.500000
 11
-111.250000
 21
-92.500000
  0
LINE
  8
0
 10
-99.250000
 20
-123.500000
 11
-99.250000
 21
-92.500000
  0
LINE
  8
0
 10
-159.250046
 20
-107.500015
 11
-161.929535
 21
-97.500023
  0
LINE
  8
0
 10
-184.250000
 20
-97.500000
 11
-161.929489
 21
-97.500000
  0
LINE
  8
0
 10
-184.250000
 20
-92.500000
 11
-39.250000
 21
-92.500000
  0
LINE
  8
0
 10
-87.250000
 20
-123.500000
 11
-87.250000
 21
-92.500000
  0
LINE
  8
0
 10
-75.250000
 20
-123.500000
 11
-75.250000
 21
-92.500000
  0
LINE
  8
0
 10
-63.250000
 20
-123.500000
 11
-63.250000
 21
-92.500000
  0
LINE
  8
0
 10
-51.250000
 20
-123.500000
 11
-51.250000
 21
-92.500000
  0
LINE
  8
0
 10
-39.250000
 20
-123.500000
 11
-39.250000
 21
-92.500000
  0
LINE
  8
0
 10
-184.250000
 20
-123.500000
 11
-184.250000
 21
-92.500000
  0
CIRCLE
  8
0
 62
     2
 10
-5.000000
 20
-15.000000
 40
4.864004
  0
CIRCLE
  8
0
 62
     2
 10
21.000000
 20
-15.000000
 40
4.864004
  0
CIRCLE
  8
0
 10
-5.000000
 20
-15.000000
 40
4.283003
  0
CIRCLE
  8
0
 10
21.000000
 20
-15.000000
 40
4.283003
  0
ARC
  8
0
 10
-34.500000
 20
14.000000
 40
6.000000
 50
326.442688
 51
33.557331
  0
CIRCLE
  8
0
 10
9.000000
 20
30.500000
 40
4.750000
  0
CIRCLE
  8
0
 10
9.000000
 20
30.500000
 40
2.600000
  0
CIRCLE
  8
0
  6
DASHED
 62
     2
 10
9.000000
 20
30.500000
 40
3.000000
  0
CIRCLE
  8
0
 10
-21.000000
 20
30.500000
 40
4.750000
  0
CIRCLE
  8
0
  6
DASHED
 62
     2
 10
-21.000000
 20
30.500000
 40
3.000000
  0
CIRCLE
  8
0
 10
-21.000000
 20
30.500000
 40
2.600000
  0
CIRCLE
  8
0
 10
9.000000
 20
-2.500000
 40
4.750000
  0
CIRCLE
  8
0
  6
DASHED
 62
     2
 10
9.000000
 20
-2.500000
 40
3.000000
  0
CIRCLE
  8
0
 10
9.000000
 20
-2.500000
 40
2.600000
  0
CIRCLE
  8
0
 10
-21.000000
 20
-2.500000
 40
2.600000
  0
CIRCLE
  8
0
  6
DASHED
 62
     2
 10
-21.000000
 20
-2.500000
 40
3.000000
  0
CIRCLE
  8
0
 10
-21.000000
 20
-2.500000
 40
4.750000
  0
CIRCLE
  8
0
 10
-126.000000
 20
45.500000
 40
5.250000
  0
CIRCLE
  8
0
 10
-126.000000
 20
14.000000
 40
5.250000
  0
CIRCLE
  8
0
 10
-126.000000
 20
45.500000
 40
3.400000
  0
CIRCLE
  8
0
 10
-126.000000
 20
14.000000
 40
3.400000
  0
ARC
  8
0
 10
-146.700012
 20
43.949997
 40
0.300003
 50
180.000000
 51
270.000000
  0
ARC
  8
0
 10
-146.700012
 20
38.050003
 40
0.299999
 50
90.000000
 51
180.000000
  0
ARC
  8
0
 10
-146.700012
 20
-10.050003
 40
0.300003
 50
180.000000
 51
270.000000
  0
ARC
  8
0
 10
-146.700012
 20
-15.949997
 40
0.300000
 50
90.000000
 51
180.000000
  0
ARC
  8
0
 10
-105.299988
 20
43.449997
 40
0.299999
 50
270.000000
 51
0.000000
  0
ARC
  8
0
 10
-105.299988
 20
38.550003
 40
0.300003
 50
0.000000
 51
90.000000
  0
CIRCLE
  8
0
 10
-126.000000
 20
45.500000
 40
5.750000
  0
CIRCLE
  8
0
 10
-126.000000
 20
14.000000
 40
5.750000
  0
CIRCLE
  8
0
 62
     2
 10
-139.000000
 20
-24.000000
 40
3.000000
  0
CIRCLE
  8
0
 10
-139.000000
 20
-24.000000
 40
2.500000
  0
CIRCLE
  8
0
 10
-126.000000
 20
-17.500000
 40
5.750000
  0
CIRCLE
  8
0
 10
-139.000000
 20
52.000000
 40
2.500000
  0
CIRCLE
  8
0
 62
     2
 10
-139.000000
 20
52.000000
 40
3.000000
  0
CIRCLE
  8
0
 10
-113.000000
 20
-24.000000
 40
2.500000
  0
CIRCLE
  8
0
 62
     2
 10
-113.000000
 20
-24.000000
 40
3.000000
  0
CIRCLE
  8
0
 10
-113.000000
 20
52.000000
 40
2.500000
  0
CIRCLE
  8
0
 62
     2
 10
-113.000000
 20
52.000000
 40
3.000000
  0
CIRCLE
  8
0
 10
-126.000000
 20
-17.500000
 40
5.250000
  0
CIRCLE
  8
0
 10
-126.000000
 20
-17.500000
 40
3.400000
  0
CIRCLE
  8
0
 10
127.000000
 20
-17.500000
 40
7.000000
  0
CIRCLE
  8
0
 10
127.000000
 20
45.500000
 40
7.000000
  0
ARC
  8
0
 10
109.599991
 20
20.100006
 40
2.100000
 50
270.000000
 51
90.000000
  0
ARC
  8
0
 10
109.599991
 20
7.899994
 40
2.100000
 50
270.000000
 51
90.000000
  0
ARC
  8
0
 10
144.400009
 20
7.899994
 40
2.100000
 50
90.000000
 51
270.000000
  0
ARC
  8
0
 10
144.400009
 20
20.100006
 40
2.100000
 50
90.000000
 51
270.000000
  0
CIRCLE
  8
0
 10
127.000000
 20
45.500000
 40
9.000000
  0
CIRCLE
  8
0
 10
127.000000
 20
-17.500000
 40
9.000000
  0
CIRCLE
  8
0
 10
127.000000
 20
14.000000
 40
14.000001
  0
CIRCLE
  8
0
 62
     2
 10
112.000000
 20
-26.000000
 40
3.000000
  0
CIRCLE
  8
0
 10
112.000000
 20
-26.000000
 40
2.500000
  0
CIRCLE
  8
0
 62
     2
 10
142.000000
 20
54.000000
 40
3.000000
  0
CIRCLE
  8
0
 10
142.000000
 20
54.000000
 40
2.500000
  0
ARC
  8
0
 10
147.699997
 20
43.949997
 40
0.299999
 50
270.000000
 51
0.000000
  0
ARC
  8
0
 10
147.699997
 20
38.050003
 40
0.300003
 50
0.000000
 51
90.000000
  0
ARC
  8
0
 10
106.300003
 20
43.449997
 40
0.300003
 50
180.000000
 51
270.000000
  0
ARC
  8
0
 10
106.300003
 20
38.550003
 40
0.299999
 50
90.000000
 51
180.000000
  0
ARC
  8
0
 10
147.699997
 20
-15.949997
 40
0.300003
 50
0.000000
 51
90.000000
  0
ARC
  8
0
 10
147.699997
 20
-10.050003
 40
0.300000
 50
270.000000
 51
0.000000
  0
CIRCLE
  8
0
 10
112.500008
 20
-15.000000
 40
1.000000
  0
CIRCLE
  8
0
 62
     2
 10
112.000000
 20
54.000000
 40
3.000000
  0
CIRCLE
  8
0
 10
112.000000
 20
54.000000
 40
2.500000
  0
CIRCLE
  8
0
 62
     2
 10
142.000000
 20
-26.000000
 40
3.000000
  0
CIRCLE
  8
0
 10
142.000000
 20
-26.000000
 40
2.500000
  0
ARC
  8
0
 10
129.449997
 20
106.699997
 40
0.300003
 50
90.000000
 51
180.000000
  0
ARC
  8
0
 10
124.550003
 20
106.699997
 40
0.300003
 50
0.000000
 51
90.000000
  0
TEXT
  8
0
 10
133.907150
 20
122.050003
 40
4.500000
  1
Ver. 1.0
 50
0.000000
 41
1.052631
 51
0.000000
  7
STANDARD
  0
TEXT
  8
0
 10
113.700279
 20
-130.669998
 40
6.300000
  1
KOGANEI CORP.
 50
0.000000
 41
1.052632
 51
0.000000
  7
STANDARD
  0
TEXT
  8
0
 10
-191.392654
 20
122.050003
 40
4.500000
  1
JIG CYLINDER WITH GUIDE
 50
0.000000
 41
1.052632
 51
0.000000
  7
STANDARD
  0
TEXT
  8
0
 10
-186.892654
 20
104.550003
 40
4.500000
  1
MODEL:SGDAQY25*ST(10)
 50
0.000000
 41
1.052632
 51
0.000000
  7
STANDARD
  0
TEXT
  8
0
 10
-159.892654
 20
97.550003
 40
4.500000
  1
SGDAFQY25*ST(10)
 50
0.000000
 41
1.052632
 51
0.000000
  7
STANDARD
  0
TEXT
  8
0
 62
     3
 10
7.692858
 20
67.120003
 40
3.200000
  1
STRETCH LINE A
 50
0.000000
 41
1.052632
 51
0.000000
  7
STANDARD
  0
TEXT
  8
0
 62
     3
 10
-8.307000
 20
76.120003
 40
3.200000
  1
STRETCH LINE B
 50
0.000000
 41
1.052632
 51
0.000000
  7
STANDARD
  0
TEXT
  8
0
 10
-181.557144
 20
-96.879997
 40
3.200000
  1
STROKE
 50
0.000000
 41
1.052631
 51
0.000000
  7
STANDARD
  0
TEXT
  8
0
 10
-173.557144
 20
-113.379997
 40
3.200000
  1
A
 50
0.000000
 41
1.052631
 51
0.000000
  7
STANDARD
  0
TEXT
  8
0
 10
-184.496872
 20
-101.019997
 40
3.200000
  1
STRETCH
 50
0.000000
 41
1.052631
 51
0.000000
  7
STANDARD
  0
TEXT
  8
0
 10
-184.496872
 20
-105.820000
 40
3.200000
  1
  PLACE
 50
0.000000
 41
1.052631
 51
0.000000
  7
STANDARD
  0
TEXT
  8
0
 10
-156.657150
 20
-101.879997
 40
3.200000
  1
10
 50
0.000000
 41
1.052631
 51
0.000000
  7
STANDARD
  0
TEXT
  8
0
 10
-144.657150
 20
-101.879997
 40
3.200000
  1
20
 50
0.000000
 41
1.052631
 51
0.000000
  7
STANDARD
  0
TEXT
  8
0
 10
-132.657150
 20
-101.879997
 40
3.200000
  1
30
 50
0.000000
 41
1.052631
 51
0.000000
  7
STANDARD
  0
TEXT
  8
0
 10
-120.657158
 20
-101.879997
 40
3.200000
  1
50
 50
0.000000
 41
1.052631
 51
0.000000
  7
STANDARD
  0
TEXT
  8
0
 10
-108.657158
 20
-101.879997
 40
3.200000
  1
75
 50
0.000000
 41
1.052631
 51
0.000000
  7
STANDARD
  0
TEXT
  8
0
 10
-51.857143
 20
-91.379997
 40
3.200000
  1
(mm)
 50
0.000000
 41
1.052631
 51
0.000000
  7
STANDARD
  0
TEXT
  8
0
 10
-131.157135
 20
-91.379997
 40
3.200000
  1
STRETCH LIST
 50
0.000000
 41
1.052631
 51
0.000000
  7
STANDARD
  0
TEXT
  8
0
 10
-173.557007
 20
-121.379997
 40
3.200000
  1
B
 50
0.000000
 41
1.052632
 51
0.000000
  7
STANDARD
  0
TEXT
  8
0
 10
-98.257156
 20
-101.879997
 40
3.200000
  1
100
 50
0.000000
 41
1.052631
 51
0.000000
  7
STANDARD
  0
TEXT
  8
0
 10
-86.257156
 20
-101.879997
 40
3.200000
  1
125
 50
0.000000
 41
1.052631
 51
0.000000
  7
STANDARD
  0
TEXT
  8
0
 10
-74.257156
 20
-101.879997
 40
3.200000
  1
150
 50
0.000000
 41
1.052631
 51
0.000000
  7
STANDARD
  0
TEXT
  8
0
 10
-62.257156
 20
-101.879997
 40
3.200000
  1
175
 50
0.000000
 41
1.052631
 51
0.000000
  7
STANDARD
  0
TEXT
  8
0
 10
-50.257156
 20
-101.879997
 40
3.200000
  1
200
 50
0.000000
 41
1.052631
 51
0.000000
  7
STANDARD
  0
TEXT
  8
0
 10
-155.057007
 20
-113.379997
 40
3.200000
  1
0
 50
0.000000
 41
1.052632
 51
0.000000
  7
STANDARD
  0
TEXT
  8
0
 10
-143.057007
 20
-113.379997
 40
3.200000
  1
0
 50
0.000000
 41
1.052632
 51
0.000000
  7
STANDARD
  0
TEXT
  8
0
 10
-131.057007
 20
-113.379997
 40
3.200000
  1
0
 50
0.000000
 41
1.052632
 51
0.000000
  7
STANDARD
  0
TEXT
  8
0
 10
-119.056999
 20
-113.379997
 40
3.200000
  1
0
 50
0.000000
 41
1.052632
 51
0.000000
  7
STANDARD
  0
TEXT
  8
0
 10
-108.656998
 20
-113.379997
 40
3.200000
  1
25
 50
0.000000
 41
1.052632
 51
0.000000
  7
STANDARD
  0
TEXT
  8
0
 10
-96.656998
 20
-113.379997
 40
3.200000
  1
50
 50
0.000000
 41
1.052632
 51
0.000000
  7
STANDARD
  0
TEXT
  8
0
 10
-84.656998
 20
-113.379997
 40
3.200000
  1
25
 50
0.000000
 41
1.052632
 51
0.000000
  7
STANDARD
  0
TEXT
  8
0
 10
-72.656998
 20
-113.379997
 40
3.200000
  1
50
 50
0.000000
 41
1.052632
 51
0.000000
  7
STANDARD
  0
TEXT
  8
0
 10
-60.657001
 20
-113.379997
 40
3.200000
  1
75
 50
0.000000
 41
1.052632
 51
0.000000
  7
STANDARD
  0
TEXT
  8
0
 10
-50.257000
 20
-113.379997
 40
3.200000
  1
100
 50
0.000000
 41
1.052632
 51
0.000000
  7
STANDARD
  0
TEXT
  8
0
 10
-155.057007
 20
-121.379997
 40
3.200000
  1
0
 50
0.000000
 41
1.052632
 51
0.000000
  7
STANDARD
  0
TEXT
  8
0
 10
-144.656998
 20
-121.379997
 40
3.200000
  1
10
 50
0.000000
 41
1.052632
 51
0.000000
  7
STANDARD
  0
TEXT
  8
0
 10
-132.656998
 20
-121.379997
 40
3.200000
  1
20
 50
0.000000
 41
1.052632
 51
0.000000
  7
STANDARD
  0
TEXT
  8
0
 10
-120.656998
 20
-121.379997
 40
3.200000
  1
40
 50
0.000000
 41
1.052632
 51
0.000000
  7
STANDARD
  0
TEXT
  8
0
 10
-108.656998
 20
-121.379997
 40
3.200000
  1
40
 50
0.000000
 41
1.052632
 51
0.000000
  7
STANDARD
  0
TEXT
  8
0
 10
-96.656998
 20
-121.379997
 40
3.200000
  1
40
 50
0.000000
 41
1.052632
 51
0.000000
  7
STANDARD
  0
TEXT
  8
0
 10
-84.656998
 20
-121.379997
 40
3.200000
  1
90
 50
0.000000
 41
1.052632
 51
0.000000
  7
STANDARD
  0
TEXT
  8
0
 10
-72.656998
 20
-121.379997
 40
3.200000
  1
90
 50
0.000000
 41
1.052632
 51
0.000000
  7
STANDARD
  0
TEXT
  8
0
 10
-60.657001
 20
-121.379997
 40
3.200000
  1
90
 50
0.000000
 41
1.052632
 51
0.000000
  7
STANDARD
  0
TEXT
  8
0
 10
-48.657001
 20
-121.379997
 40
3.200000
  1
90
 50
0.000000
 41
1.052632
 51
0.000000
  7
STANDARD
  0
TEXT
  8
0
 62
     2
 10
60.477421
 20
-46.000000
 40
3.200000
  1
STROKE=75-200
 50
0.000000
 41
1.052632
 51
0.000000
  7
STANDARD
  0
LINE
  8
0
 62
     2
 10
59.000000
 20
-47.000000
 11
101.827423
 21
-47.000000
  0
LINE
  8
0
 62
     2
 10
31.000000
 20
-47.000000
 11
59.000000
 21
-47.000000
  0
LINE
  8
0
 62
     2
 10
31.000000
 20
-47.000000
 11
33.897778
 21
-46.223541
  0
LINE
  8
0
 62
     2
 10
31.000000
 20
-47.000000
 11
33.897778
 21
-47.776459
  0
LINE
  8
0
 62
     2
 10
59.000000
 20
-47.000000
 11
56.102222
 21
-47.776459
  0
LINE
  8
0
 62
     2
 10
59.000000
 20
-47.000000
 11
56.102222
 21
-46.223541
  0
LINE
  8
0
 62
     2
 10
31.000000
 20
-31.500000
 11
31.000000
 21
-48.500000
  0
LINE
  8
0
 62
     2
 10
59.000000
 20
-25.000000
 11
59.000000
 21
-48.500000
  0
ENDSEC
  0
EOF
