  0
SECTION
  2
HEADER
  0
ENDSEC
  0
SECTION
  2
TABLES
  0
TABLE
  2
LTYPE
 70
     4
  0
LTYPE
  2
CONTINUOUS
 70
    64
  3
Solid line
 72
    65
 73
     0
 40
0.000000
  0
LTYPE
  2
DASHED
 70
    64
  3
__ __ __ __ __ __ __ __ __ __ __ __ __ __ __
 72
    65
 73
     2
 40
3.500000
 49
2.000000
 49
-1.500000
  0
LTYPE
  2
CENTER
 70
    64
  3
____ _ ____ _ ____ _ ____ _ ____ _ ____ _ ____
 72
    65
 73
     4
 40
17.500000
 49
13.000000
 49
-1.500000
 49
1.500000
 49
-1.500000
  0
LTYPE
  2
PHANTOM
 70
    64
  3
_____ _ _ _____ _ _ _____ _ _ _____ _ _ ____  
 72
    65
 73
     6
 40
15.500000
 49
8.000000
 49
-1.500000
 49
1.500000
 49
-1.500000
 49
1.500000
 49
-1.500000
  0
LTYPE
  2
DASHED1
 70
    64
  3
__ __ __ __ __ __ __ __ __ __ __ __ __ __ __
 72
    65
 73
     2
 40
1.500000
 49
1.000000
 49
-0.500000
  0
LTYPE
  2
DASHED2
 70
    64
  3
__ __ __ __ __ __ __ __ __ __ __ __ __ __ __
 72
    65
 73
     2
 40
3.500000
 49
2.500000
 49
-1.000000
  0
LTYPE
  2
DASHED3
 70
    64
  3
__ __ __ __ __ __ __ __ __ __ __ __ __ __ __
 72
    65
 73
     2
 40
6.000000
 49
4.000000
 49
-2.000000
  0
LTYPE
  2
DASHED4
 70
    64
  3
__ __ __ __ __ __ __ __ __ __ __ __ __ __ __
 72
    65
 73
     2
 40
12.000000
 49
10.000000
 49
-2.000000
  0
LTYPE
  2
DASHED5
 70
    64
  3
__ __ __ __ __ __ __ __ __ __ __ __ __ __ __
 72
    65
 73
     2
 40
17.000000
 49
15.000000
 49
-2.000000
  0
LTYPE
  2
DASHED6
 70
    64
  3
__ __ __ __ __ __ __ __ __ __ __ __ __ __ __
 72
    65
 73
     2
 40
29.000000
 49
27.000000
 49
-2.000000
  0
LTYPE
  2
PHANTOM1
 70
    64
  3
_____ _ _ _____ _ _ _____ _ _ _____ _ _ ____  
 72
    65
 73
     6
 40
31.000000
 49
25.000000
 49
-1.500000
 49
1.000000
 49
-1.000000
 49
1.000000
 49
-1.500000
  0
LTYPE
  2
PHANTOM2
 70
    64
  3
_____ _ _ _____ _ _ _____ _ _ _____ _ _ ____  
 72
    65
 73
     6
 40
36.000000
 49
27.000000
 49
-1.500000
 49
2.500000
 49
-1.000000
 49
2.500000
 49
-1.500000
  0
LTYPE
  2
PHANTOM3
 70
    64
  3
_____ _ _ _____ _ _ _____ _ _ _____ _ _ ____  
 72
    65
 73
     6
 40
78.000000
 49
64.000000
 49
-2.000000
 49
4.000000
 49
-2.000000
 49
4.000000
 49
-2.000000
  0
LTYPE
  2
CENTER1
 70
    64
  3
____ _ ____ _ ____ _ ____ _ ____ _ ____ _ ____
 72
    65
 73
     4
 40
19.000000
 49
14.000000
 49
-1.000000
 49
3.000000
 49
-1.000000
  0
LTYPE
  2
CENTER2
 70
    64
  3
____ _ ____ _ ____ _ ____ _ ____ _ ____ _ ____
 72
    65
 73
     4
 40
28.500000
 49
25.000000
 49
-1.000000
 49
1.500000
 49
-1.000000
  0
LTYPE
  2
CENTER3
 70
    64
  3
____ _ ____ _ ____ _ ____ _ ____ _ ____ _ ____
 72
    65
 73
     4
 40
31.500000
 49
27.000000
 49
-1.000000
 49
2.500000
 49
-1.000000
  0
LTYPE
  2
CENTER4
 70
    64
  3
____ _ ____ _ ____ _ ____ _ ____ _ ____ _ ____
 72
    65
 73
     4
 40
50.000000
 49
45.000000
 49
-1.000000
 49
3.000000
 49
-1.000000
  0
LTYPE
  2
CENTER5
 70
    64
  3
____ _ ____ _ ____ _ ____ _ ____ _ ____ _ ____
 72
    65
 73
     4
 40
100.000000
 49
92.000000
 49
-2.000000
 49
4.000000
 49
-2.000000
  0
LTYPE
  2
SBK1
 70
    64
  3
______ _ _ _ ______ _ _ _ ______ _ _ _ _____  
 72
    65
 73
     8
 40
60.500000
 49
45.000000
 49
-2.000000
 49
2.500000
 49
-2.000000
 49
2.500000
 49
-2.000000
 49
2.500000
 49
-2.000000
  0
LTYPE
  2
SBK2
 70
    64
  3
______ _ _ _ ______ _ _ _ ______ _ _ _ _____  
 72
    65
 73
     8
 40
84.000000
 49
64.000000
 49
-2.000000
 49
4.000000
 49
-2.000000
 49
4.000000
 49
-2.000000
 49
4.000000
 49
-2.000000
  0
LTYPE
  2
STCH
 70
    64
  3
__ __ __ __ __ __ __ __ __ __ __ __ __ __ __
 72
    65
 73
     2
 40
3.000000
 49
1.000000
 49
-2.000000
  0
LTYPE
  2
MTCH
 70
    64
  3
_____ _ _ _____ _ _ _____ _ _ _____ _ _ ____  
 72
    65
 73
     6
 40
80.000000
 49
66.000000
 49
-2.000000
 49
4.000000
 49
-2.000000
 49
4.000000
 49
-2.000000
  0
ENDTAB
  0
TABLE
  2
LAYER
 70
     1
  0
LAYER
  2
0
 70
     0
 62
     7
  6
CONTINUOUS
  0
ENDTAB
  0
TABLE
  2
STYLE
 70
     1
  0
STYLE
  2
STANDARD
 70
     0
 40
0.000000
 41
1.000000
 50
0.000000
 71
     0
 42
0.200000
  3
txt
  4
BIGFONT
  0
ENDTAB
  0
TABLE
  2
VIEW
 70
     0
  0
ENDTAB
  0
ENDSEC
  0
SECTION
  2
BLOCKS
  0
ENDSEC
  0
SECTION
  2
ENTITIES
  0
LINE
  8
0
 10
-25.000000
 20
18.000000
 11
-21.000004
 21
18.000000
  0
LINE
  8
0
 10
-25.000000
 20
2.000000
 11
-21.000004
 21
2.000000
  0
LINE
  8
0
  6
CENTER
 62
     2
 10
-43.005180
 20
-29.999992
 11
-17.750000
 21
-29.999992
  0
LINE
  8
0
 10
-39.000034
 20
-45.999996
 11
-25.999969
 21
-45.999996
  0
LINE
  8
0
 10
-25.000000
 20
-45.000000
 11
-25.000000
 21
65.000046
  0
LINE
  8
0
 10
-39.000000
 20
66.000000
 11
-26.000004
 21
66.000000
  0
LINE
  8
0
 10
-40.000000
 20
65.000000
 11
-40.000000
 21
-45.000000
  0
LINE
  8
0
  6
CENTER
 62
     2
 10
-43.005180
 20
50.000000
 11
-17.314213
 21
50.000000
  0
LINE
  8
0
 10
-25.000000
 20
6.127018
 11
-23.500004
 21
6.127018
  0
LINE
  8
0
 10
-23.500000
 20
6.127018
 11
-23.500000
 21
13.872974
  0
LINE
  8
0
 10
-23.499971
 20
6.127036
 11
-25.000000
 21
11.936623
  0
LINE
  8
0
 10
-23.499992
 20
13.872869
 11
-24.999971
 21
8.063483
  0
LINE
  8
0
 10
-38.999939
 20
65.999916
 11
-39.999939
 21
64.999916
  0
LINE
  8
0
 10
-25.999983
 20
66.000061
 11
-24.999962
 21
65.000031
  0
LINE
  8
0
 10
-40.000053
 20
-45.000053
 11
-39.000061
 21
-46.000061
  0
LINE
  8
0
 10
-25.000057
 20
-45.000011
 11
-26.000029
 21
-46.000000
  0
LINE
  8
0
 10
-21.000023
 20
40.349991
 11
39.000023
 21
40.349991
  0
LINE
  8
0
 10
-21.000019
 20
45.649979
 11
39.000023
 21
45.649979
  0
LINE
  8
0
 10
-20.012978
 20
66.999992
 11
38.013016
 21
66.999992
  0
LINE
  8
0
 10
-21.000023
 20
22.500023
 11
39.000023
 21
22.500023
  0
LINE
  8
0
 10
-21.000023
 20
20.700008
 11
39.000023
 21
20.700008
  0
LINE
  8
0
 10
-21.000023
 20
17.500000
 11
39.000023
 21
17.500000
  0
LINE
  8
0
 10
38.012997
 20
67.000053
 11
39.000000
 21
66.013062
  0
LINE
  8
0
 10
-20.012854
 20
66.999870
 11
-20.999846
 21
66.012894
  0
LINE
  8
0
  6
CENTER
 62
     2
 10
-7.216911
 20
31.999992
 11
-21.000004
 21
31.999992
  0
LINE
  8
0
 10
-25.000000
 20
13.872875
 11
-23.500004
 21
13.872875
  0
LINE
  8
0
 10
-21.000004
 20
64.999947
 11
39.000046
 21
64.999947
  0
LINE
  8
0
  6
DASHED
 62
     2
 10
39.000046
 20
-21.999994
 11
74.500046
 21
-21.999994
  0
LINE
  8
0
  6
DASHED
 62
     2
 10
39.000046
 20
-38.000000
 11
74.500046
 21
-38.000000
  0
LINE
  8
0
  6
DASHED
 62
     2
 10
75.000046
 20
-22.500000
 11
75.000046
 21
-37.500004
  0
LINE
  8
0
  6
DASHED
 62
     2
 10
74.500038
 20
-22.000000
 11
75.000031
 21
-22.499989
  0
LINE
  8
0
  6
DASHED
 62
     2
 10
75.000038
 20
-37.499985
 11
74.500038
 21
-37.999989
  0
LINE
  8
0
  6
DASHED
 62
     2
 10
74.500031
 20
-21.999994
 11
74.500031
 21
-38.000000
  0
LINE
  8
0
  6
DASHED
 62
     2
 10
39.000046
 20
58.000000
 11
74.500046
 21
58.000000
  0
LINE
  8
0
  6
DASHED
 62
     2
 10
39.000046
 20
41.999992
 11
74.500046
 21
41.999992
  0
LINE
  8
0
  6
DASHED
 62
     2
 10
75.000046
 20
57.500008
 11
75.000046
 21
42.499992
  0
LINE
  8
0
  6
DASHED
 62
     2
 10
74.500015
 20
57.999966
 11
75.000008
 21
57.499973
  0
LINE
  8
0
  6
DASHED
 62
     2
 10
75.000038
 20
42.499989
 11
74.500038
 21
41.999989
  0
LINE
  8
0
  6
DASHED
 62
     2
 10
74.500031
 20
58.000000
 11
74.500031
 21
41.999992
  0
LINE
  8
0
  6
CENTER
 62
     2
 10
43.230003
 20
10.000000
 11
-42.744495
 21
10.000000
  0
LINE
  8
0
 10
-20.012978
 20
-47.000015
 11
38.013008
 21
-47.000015
  0
LINE
  8
0
 10
-21.000008
 20
-4.500013
 11
39.000008
 21
-4.500013
  0
LINE
  8
0
 10
-21.000008
 20
-2.500044
 11
39.000015
 21
-2.500044
  0
LINE
  8
0
 10
-21.000008
 20
-0.700006
 11
39.000008
 21
-0.700006
  0
LINE
  8
0
 10
-21.000008
 20
2.500000
 11
39.000008
 21
2.500000
  0
LINE
  8
0
 10
-21.000004
 20
66.012947
 11
-21.000004
 21
-45.986961
  0
LINE
  8
0
 10
38.013058
 20
-47.000061
 11
39.000061
 21
-46.013062
  0
LINE
  8
0
 10
-20.012966
 20
-46.999943
 11
-20.999956
 21
-46.012959
  0
LINE
  8
0
  6
CENTER
 62
     2
 10
-14.000011
 20
-4.385004
 11
-14.000011
 21
-18.907867
  0
LINE
  8
0
  6
CENTER
 62
     2
 10
-6.950390
 20
-11.999992
 11
-21.000004
 21
-11.999992
  0
LINE
  8
0
  6
CENTER
 62
     2
 10
15.999977
 20
-4.385004
 11
15.999977
 21
-18.907867
  0
LINE
  8
0
  6
DASHED
 62
     2
 10
3.000000
 20
-45.999973
 11
-5.000023
 21
-45.999973
  0
LINE
  8
0
  6
DASHED
 62
     2
 10
-6.000029
 20
-47.000000
 11
-5.000025
 21
-45.999996
  0
LINE
  8
0
  6
DASHED
 62
     2
 10
-5.000031
 20
-45.999996
 11
-5.000031
 21
-43.103371
  0
LINE
  8
0
  6
DASHED
 62
     2
 10
-5.999925
 20
-47.000031
 11
-5.795710
 21
-43.103367
  0
LINE
  8
0
  6
DASHED
 62
     2
 10
3.000004
 20
-45.999996
 11
3.000004
 21
-43.103371
  0
LINE
  8
0
  6
DASHED
 62
     2
 10
4.000118
 20
-46.999977
 11
3.795905
 21
-43.103371
  0
LINE
  8
0
  6
DASHED
 62
     2
 10
3.999913
 20
-47.000088
 11
2.999901
 21
-46.000076
  0
LINE
  8
0
  6
CENTER
 62
     2
 10
1.999985
 20
-32.148159
 11
1.999985
 21
-18.309628
  0
LINE
  8
0
  6
CENTER
 62
     2
 10
8.566715
 20
-25.000000
 11
-4.528103
 21
-25.000000
  0
LINE
  8
0
  6
CENTER
 62
     2
 10
34.272369
 20
-25.000000
 11
20.398582
 21
-25.000000
  0
LINE
  8
0
  6
CENTER
 62
     2
 10
27.000008
 20
-32.021503
 11
27.000008
 21
-18.655199
  0
LINE
  8
0
  6
CENTER
 62
     2
 10
23.830654
 20
-12.000013
 11
9.098484
 21
-12.000013
  0
LINE
  8
0
  6
CENTER
 62
     2
 10
14.000008
 20
-41.840420
 11
14.000008
 21
-49.366585
  0
LINE
  8
0
  6
DASHED
 62
     2
 10
9.000045
 20
-47.000011
 11
9.204259
 21
-43.103371
  0
LINE
  8
0
  6
DASHED
 62
     2
 10
9.999992
 20
-45.999996
 11
9.999992
 21
-43.103371
  0
LINE
  8
0
  6
DASHED
 62
     2
 10
18.000008
 20
-45.999973
 11
9.999992
 21
-45.999973
  0
LINE
  8
0
  6
DASHED
 62
     2
 10
8.999976
 20
-46.999992
 11
9.999987
 21
-45.999985
  0
LINE
  8
0
  6
DASHED
 62
     2
 10
18.999914
 20
-47.000092
 11
17.999920
 21
-46.000095
  0
LINE
  8
0
  6
DASHED
 62
     2
 10
18.000015
 20
-45.999996
 11
18.000015
 21
-43.103371
  0
LINE
  8
0
  6
DASHED
 62
     2
 10
19.000126
 20
-47.000000
 11
18.795912
 21
-43.103371
  0
LINE
  8
0
  6
CENTER
 62
     2
 10
-1.000023
 20
-48.239464
 11
-1.000023
 21
-41.707478
  0
LINE
  8
0
 10
-21.000008
 20
-45.000000
 11
39.000008
 21
-45.000000
  0
LINE
  8
0
 10
39.000008
 20
66.013008
 11
39.000008
 21
-46.013008
  0
LINE
  8
0
  6
CENTER
 62
     2
 10
16.000015
 20
39.357246
 11
16.000015
 21
24.989902
  0
LINE
  8
0
  6
CENTER
 62
     2
 10
-13.999989
 20
39.510712
 11
-13.999989
 21
25.120605
  0
LINE
  8
0
  6
CENTER
 62
     2
 10
8.991600
 20
31.999992
 11
23.608948
 21
31.999992
  0
LINE
  8
0
 10
-25.000000
 20
-22.000011
 11
-21.000004
 21
-22.000011
  0
LINE
  8
0
 10
-25.000000
 20
-38.000011
 11
-21.000004
 21
-38.000011
  0
LINE
  8
0
 10
-25.000000
 20
57.999992
 11
-21.000004
 21
57.999992
  0
LINE
  8
0
 10
-25.000000
 20
41.999992
 11
-21.000004
 21
41.999992
  0
LINE
  8
0
  6
PHANTOM
 62
     3
 10
6.000000
 20
86.999992
 11
6.000000
 21
-17.180000
  0
LINE
  8
0
  6
PHANTOM
 62
     3
 10
25.000000
 20
76.999992
 11
25.000000
 21
-19.080002
  0
LINE
  8
0
  6
PHANTOM
 62
     3
 10
6.000000
 20
-17.180000
 11
10.000004
 21
-17.180000
  0
LINE
  8
0
  6
PHANTOM
 62
     3
 10
19.000004
 20
-19.080002
 11
19.000004
 21
-35.180000
  0
LINE
  8
0
  6
PHANTOM
 62
     3
 10
10.000004
 20
-17.180000
 11
10.000004
 21
-32.180000
  0
LINE
  8
0
  6
PHANTOM
 62
     3
 10
19.000004
 20
-19.080002
 11
25.000000
 21
-19.080002
  0
LINE
  8
0
  6
PHANTOM
 62
     3
 10
8.000004
 20
-35.180000
 11
19.000004
 21
-35.180000
  0
LINE
  8
0
  6
PHANTOM
 62
     3
 10
8.000004
 20
-35.180000
 11
8.000004
 21
-54.000015
  0
LINE
  8
0
  6
PHANTOM
 62
     3
 10
5.500000
 20
-32.180000
 11
10.000004
 21
-32.180000
  0
LINE
  8
0
  6
PHANTOM
 62
     3
 10
5.500000
 20
-32.180000
 11
5.500000
 21
-54.000015
  0
LINE
  8
0
 10
-111.000000
 20
64.999916
 11
-111.000000
 21
45.649979
  0
LINE
  8
0
  6
CENTER
 62
     2
 10
-109.180481
 20
10.000000
 11
-161.042480
 21
10.000000
  0
LINE
  8
0
 10
-112.999992
 20
22.500013
 11
-111.000000
 21
24.499998
  0
LINE
  8
0
 10
-112.999969
 20
22.499935
 11
-112.999969
 21
20.699902
  0
LINE
  8
0
 10
-112.999969
 20
17.499912
 11
-112.999969
 21
2.499893
  0
LINE
  8
0
 10
-112.999969
 20
-0.700094
 11
-112.999969
 21
-2.500086
  0
LINE
  8
0
 10
-113.000053
 20
-2.500075
 11
-111.087364
 21
-4.412757
  0
LINE
  8
0
 10
-111.000015
 20
45.649979
 11
-113.000000
 21
45.649979
  0
LINE
  8
0
 10
-111.000015
 20
40.349991
 11
-113.000000
 21
40.349991
  0
LINE
  8
0
 10
-111.000000
 20
40.349991
 11
-111.000000
 21
24.499928
  0
LINE
  8
0
 10
-156.999954
 20
22.500053
 11
-158.999924
 21
24.500011
  0
LINE
  8
0
 10
-157.000000
 20
22.499935
 11
-157.000000
 21
20.699902
  0
LINE
  8
0
 10
-157.000000
 20
17.499912
 11
-157.000000
 21
2.499893
  0
LINE
  8
0
 10
-157.000000
 20
-0.700094
 11
-157.000000
 21
-2.500109
  0
LINE
  8
0
 10
-157.000076
 20
-2.500035
 11
-158.912766
 21
-4.412712
  0
LINE
  8
0
 10
-158.999985
 20
64.999893
 11
-158.999985
 21
45.649979
  0
LINE
  8
0
 10
-158.999985
 20
40.349991
 11
-158.999985
 21
24.499928
  0
LINE
  8
0
 10
-158.999985
 20
-45.000088
 11
-158.999985
 21
-25.649979
  0
LINE
  8
0
 10
-158.999985
 20
-20.349993
 11
-158.999985
 21
-4.500078
  0
LINE
  8
0
 10
-113.000015
 20
66.999992
 11
-157.000046
 21
66.999992
  0
LINE
  8
0
 10
-112.999985
 20
-46.999992
 11
-157.000015
 21
-46.999992
  0
LINE
  8
0
 10
-158.999969
 20
-45.000004
 11
-156.999954
 21
-47.000004
  0
LINE
  8
0
 10
-159.000000
 20
64.999893
 11
-156.999985
 21
66.999886
  0
LINE
  8
0
 10
-111.000023
 20
-45.000019
 11
-113.000000
 21
-47.000019
  0
LINE
  8
0
 10
-111.000114
 20
64.999931
 11
-113.000122
 21
66.999931
  0
LINE
  8
0
 10
-111.000000
 20
-45.000088
 11
-111.000000
 21
-4.500078
  0
LINE
  8
0
 10
-159.000015
 20
45.649979
 11
-157.000000
 21
45.649979
  0
LINE
  8
0
 10
-159.000015
 20
40.349991
 11
-157.000000
 21
40.349991
  0
LINE
  8
0
 10
-159.000015
 20
-25.649979
 11
-157.000000
 21
-25.649979
  0
LINE
  8
0
 10
-159.000015
 20
-20.349993
 11
-157.000000
 21
-20.349993
  0
LINE
  8
0
 10
-156.000000
 20
66.000000
 11
-114.000015
 21
66.000000
  0
LINE
  8
0
 10
-156.000000
 20
-46.000000
 11
-114.000015
 21
-46.000000
  0
LINE
  8
0
 10
-155.999985
 20
65.999969
 11
-156.999985
 21
64.999969
  0
LINE
  8
0
 10
-113.999908
 20
66.000099
 11
-112.999893
 21
65.000092
  0
LINE
  8
0
 10
-157.000000
 20
-44.999985
 11
-156.000000
 21
-45.999985
  0
LINE
  8
0
 10
-113.000023
 20
-44.999958
 11
-114.000023
 21
-45.999958
  0
LINE
  8
0
  6
CENTER
 62
     2
 10
-121.000000
 20
-43.579903
 11
-121.000000
 21
-32.112000
  0
LINE
  8
0
  6
CENTER
 62
     2
 10
-143.574448
 20
58.000000
 11
-154.375610
 21
58.000000
  0
LINE
  8
0
  6
CENTER
 62
     2
 10
-149.000015
 20
-43.579903
 11
-149.000015
 21
-32.112000
  0
LINE
  8
0
  6
CENTER
 62
     2
 10
-143.574448
 20
-38.000000
 11
-154.375610
 21
-38.000000
  0
LINE
  8
0
 10
-135.000046
 20
-27.113207
 11
-137.500046
 21
-28.556580
  0
LINE
  8
0
 10
-137.500000
 20
-28.556622
 11
-137.500000
 21
-31.443378
  0
LINE
  8
0
 10
-135.000031
 20
-32.886799
 11
-137.500015
 21
-31.443436
  0
LINE
  8
0
 10
-132.500015
 20
-31.443331
 11
-135.000015
 21
-32.886703
  0
LINE
  8
0
 10
-132.500000
 20
-28.556625
 11
-132.500000
 21
-31.443378
  0
LINE
  8
0
 10
-135.000046
 20
-27.113266
 11
-132.500046
 21
-28.556641
  0
LINE
  8
0
 10
-137.500000
 20
51.443382
 11
-137.500000
 21
48.556625
  0
LINE
  8
0
 10
-135.000015
 20
47.113243
 11
-137.500015
 21
48.556614
  0
LINE
  8
0
 10
-132.500046
 20
48.556698
 11
-135.000046
 21
47.113327
  0
LINE
  8
0
 10
-132.500000
 20
51.443375
 11
-132.500000
 21
48.556625
  0
LINE
  8
0
 10
-135.000015
 20
52.886757
 11
-132.500031
 21
51.443371
  0
LINE
  8
0
 10
-135.000031
 20
52.886810
 11
-137.500031
 21
51.443436
  0
LINE
  8
0
 10
-137.500000
 20
11.443378
 11
-137.500000
 21
8.556622
  0
LINE
  8
0
 10
-135.000015
 20
7.113224
 11
-137.500015
 21
8.556596
  0
LINE
  8
0
 10
-132.500046
 20
8.556687
 11
-135.000031
 21
7.113317
  0
LINE
  8
0
 10
-132.500000
 20
11.443375
 11
-132.500000
 21
8.556622
  0
LINE
  8
0
 10
-135.000015
 20
12.886696
 11
-132.500046
 21
11.443335
  0
LINE
  8
0
 10
-135.000031
 20
12.886805
 11
-137.500031
 21
11.443433
  0
LINE
  8
0
 10
-157.000000
 20
65.000000
 11
-157.000000
 21
-45.000000
  0
LINE
  8
0
 10
-113.000000
 20
65.000000
 11
-113.000000
 21
-45.000000
  0
LINE
  8
0
  6
CENTER
 62
     2
 10
-135.000000
 20
71.250000
 11
-135.000000
 21
-51.449711
  0
LINE
  8
0
  6
CENTER
 62
     2
 10
-149.000015
 20
63.259903
 11
-149.000015
 21
52.598412
  0
LINE
  8
0
  6
CENTER
 62
     2
 10
-121.000000
 20
63.428238
 11
-121.000000
 21
52.486191
  0
LINE
  8
0
  6
CENTER
 62
     2
 10
-126.387970
 20
58.000000
 11
-115.614258
 21
58.000000
  0
LINE
  8
0
  6
CENTER
 62
     2
 10
-143.726898
 20
50.000000
 11
-125.995178
 21
50.000000
  0
LINE
  8
0
  6
CENTER
 62
     2
 10
-143.957397
 20
-30.000000
 11
-125.953888
 21
-30.000000
  0
LINE
  8
0
  6
CENTER
 62
     2
 10
-126.381088
 20
-38.000000
 11
-115.273849
 21
-38.000000
  0
LINE
  8
0
 10
111.000000
 20
65.000000
 11
111.000000
 21
45.650002
  0
LINE
  8
0
  6
CENTER
 62
     2
 10
106.770004
 20
10.000000
 11
163.229980
 21
10.000000
  0
LINE
  8
0
 10
113.000015
 20
17.500000
 11
113.500000
 21
17.500000
  0
LINE
  8
0
 10
113.499969
 20
17.499952
 11
113.999969
 21
16.999954
  0
LINE
  8
0
 10
114.000015
 20
16.999992
 11
115.600006
 21
16.999992
  0
LINE
  8
0
 10
114.000015
 20
21.199997
 11
115.600006
 21
21.199997
  0
LINE
  8
0
 10
113.499855
 20
20.700148
 11
113.999870
 21
21.200163
  0
LINE
  8
0
 10
113.000015
 20
20.699986
 11
113.500000
 21
20.699986
  0
LINE
  8
0
 10
112.999992
 20
22.500046
 11
111.000000
 21
24.500025
  0
LINE
  8
0
 10
113.000015
 20
2.500000
 11
113.500000
 21
2.500000
  0
LINE
  8
0
 10
113.499924
 20
2.500068
 11
113.999931
 21
3.000074
  0
LINE
  8
0
 10
114.000015
 20
3.000008
 11
115.600006
 21
3.000008
  0
LINE
  8
0
 10
114.000015
 20
-1.199993
 11
115.600006
 21
-1.199993
  0
LINE
  8
0
 10
113.499962
 20
-0.700080
 11
113.999969
 21
-1.200085
  0
LINE
  8
0
 10
113.000015
 20
-0.700006
 11
113.500000
 21
-0.700006
  0
LINE
  8
0
 10
113.000015
 20
22.500038
 11
113.000015
 21
-2.500000
  0
LINE
  8
0
 10
113.000000
 20
-2.500034
 11
111.087303
 21
-4.412713
  0
LINE
  8
0
 10
118.500015
 20
47.150009
 11
118.500015
 21
38.850006
  0
LINE
  8
0
 10
114.000015
 20
47.150009
 11
114.000015
 21
45.650002
  0
LINE
  8
0
 10
111.000000
 20
45.650002
 11
114.000015
 21
45.650002
  0
LINE
  8
0
 10
111.000000
 20
40.349998
 11
114.000015
 21
40.349998
  0
LINE
  8
0
 10
111.000000
 20
40.349998
 11
111.000000
 21
24.499992
  0
LINE
  8
0
 10
114.000015
 20
40.349998
 11
114.000015
 21
38.850006
  0
LINE
  8
0
 10
157.000000
 20
17.500000
 11
156.500000
 21
17.500000
  0
LINE
  8
0
 10
156.500076
 20
17.499939
 11
156.000092
 21
16.999952
  0
LINE
  8
0
 10
155.999985
 20
16.999992
 11
154.399994
 21
16.999992
  0
LINE
  8
0
 10
156.000000
 20
21.199997
 11
154.399994
 21
21.199997
  0
LINE
  8
0
 10
156.500107
 20
20.700113
 11
156.000107
 21
21.200117
  0
LINE
  8
0
 10
157.000000
 20
20.699986
 11
156.500000
 21
20.699986
  0
LINE
  8
0
 10
157.000015
 20
22.500044
 11
159.000015
 21
24.500027
  0
LINE
  8
0
 10
157.000000
 20
2.500000
 11
156.500000
 21
2.500000
  0
LINE
  8
0
 10
156.500031
 20
2.500021
 11
156.000015
 21
3.000031
  0
LINE
  8
0
 10
155.999985
 20
3.000008
 11
154.399994
 21
3.000008
  0
LINE
  8
0
 10
155.999985
 20
-1.199993
 11
154.399994
 21
-1.199993
  0
LINE
  8
0
 10
156.500061
 20
-0.700075
 11
156.000092
 21
-1.200073
  0
LINE
  8
0
 10
157.000000
 20
-0.700006
 11
156.500000
 21
-0.700006
  0
LINE
  8
0
 10
157.000000
 20
22.500076
 11
157.000000
 21
-2.500021
  0
LINE
  8
0
 10
157.000076
 20
-2.499980
 11
158.912781
 21
-4.412670
  0
LINE
  8
0
 10
158.999985
 20
65.000000
 11
158.999985
 21
45.650002
  0
LINE
  8
0
 10
158.999985
 20
40.349998
 11
158.999985
 21
24.499992
  0
LINE
  8
0
 10
158.999985
 20
-45.000000
 11
158.999985
 21
-25.650002
  0
LINE
  8
0
 10
158.999985
 20
-20.349993
 11
158.999985
 21
-4.500013
  0
LINE
  8
0
 10
113.000015
 20
66.999992
 11
157.000000
 21
66.999992
  0
LINE
  8
0
 10
112.999985
 20
-47.000015
 11
156.999985
 21
-47.000015
  0
LINE
  8
0
 10
158.999985
 20
-44.999973
 11
156.999985
 21
-46.999962
  0
LINE
  8
0
 10
159.000061
 20
65.000031
 11
157.000061
 21
67.000038
  0
LINE
  8
0
 10
111.000053
 20
-44.999966
 11
113.000031
 21
-46.999954
  0
LINE
  8
0
 10
111.000031
 20
64.999962
 11
113.000046
 21
66.999977
  0
LINE
  8
0
 10
111.000000
 20
-45.000000
 11
111.000000
 21
-4.499990
  0
LINE
  8
0
  6
CENTER
 62
     2
 10
121.600800
 20
-30.000000
 11
148.419373
 21
-30.000000
  0
LINE
  8
0
  6
CENTER
 62
     2
 10
135.000000
 20
71.230011
 11
135.000000
 21
-51.230011
  0
LINE
  8
0
  6
CENTER
 62
     2
 10
146.636581
 20
-40.000000
 11
158.115021
 21
-40.000000
  0
LINE
  8
0
  6
CENTER
 62
     2
 10
152.000000
 20
-34.813728
 11
152.000000
 21
-45.360836
  0
LINE
  8
0
  6
CENTER
 62
     2
 10
146.635391
 20
60.000000
 11
158.115005
 21
60.000000
  0
LINE
  8
0
 62
     2
 10
152.000000
 20
66.115005
 11
152.000000
 21
53.885002
  0
LINE
  8
0
  6
CENTER
 62
     2
 10
112.402328
 20
60.000000
 11
123.452240
 21
60.000000
  0
LINE
  8
0
  6
CENTER
 62
     2
 10
118.000015
 20
66.115005
 11
118.000015
 21
54.502251
  0
LINE
  8
0
  6
CENTER
 62
     2
 10
114.957397
 20
-25.000000
 11
120.853500
 21
-25.000000
  0
LINE
  8
0
  6
CENTER
 62
     2
 10
121.312744
 20
50.000000
 11
148.912201
 21
50.000000
  0
LINE
  8
0
  6
CENTER
 62
     2
 10
118.000015
 20
-49.114990
 11
118.000015
 21
-34.415726
  0
LINE
  8
0
 10
151.500000
 20
47.150009
 11
151.500000
 21
38.850006
  0
LINE
  8
0
 10
156.000000
 20
40.158325
 11
156.000000
 21
38.850006
  0
LINE
  8
0
 10
158.999985
 20
40.349998
 11
155.999985
 21
40.349998
  0
LINE
  8
0
 10
158.999985
 20
45.650002
 11
155.999985
 21
45.650002
  0
LINE
  8
0
 10
156.000000
 20
47.150009
 11
156.000000
 21
45.650002
  0
LINE
  8
0
 10
158.999985
 20
-25.650002
 11
155.999985
 21
-25.650002
  0
LINE
  8
0
 10
156.000000
 20
-27.150009
 11
156.000000
 21
-25.650002
  0
LINE
  8
0
 10
151.500000
 20
-27.150009
 11
151.500000
 21
-18.850008
  0
LINE
  8
0
 10
156.000000
 20
-20.349993
 11
156.000000
 21
-18.850008
  0
LINE
  8
0
 10
158.999985
 20
-20.349993
 11
155.999985
 21
-20.349993
  0
LINE
  8
0
  6
DASHED
 62
     2
 10
112.999969
 20
-47.000008
 11
113.204178
 21
-43.103374
  0
LINE
  8
0
  6
DASHED
 62
     2
 10
114.000015
 20
-45.999996
 11
114.000015
 21
-43.103371
  0
LINE
  8
0
  6
DASHED
 62
     2
 10
122.000000
 20
-45.999973
 11
114.000015
 21
-45.999973
  0
LINE
  8
0
  6
DASHED
 62
     2
 10
112.999992
 20
-46.999950
 11
113.999985
 21
-45.999962
  0
LINE
  8
0
  6
DASHED
 62
     2
 10
122.999878
 20
-47.000130
 11
121.999893
 21
-46.000141
  0
LINE
  8
0
  6
DASHED
 62
     2
 10
122.000000
 20
-45.999996
 11
122.000000
 21
-43.103371
  0
LINE
  8
0
  6
DASHED
 62
     2
 10
123.000023
 20
-47.000000
 11
122.795807
 21
-43.103374
  0
LINE
  8
0
  6
CENTER
 62
     2
 10
152.000000
 20
66.187073
 11
152.000000
 21
54.610580
  0
LINE
  8
0
 10
133.500000
 20
-41.401760
 11
133.500000
 21
-47.000015
  0
LINE
  8
0
 10
136.500000
 20
-41.401760
 11
136.500000
 21
-47.000015
  0
LINE
  8
0
 10
136.500000
 20
61.401764
 11
136.500000
 21
67.000015
  0
LINE
  8
0
 10
133.500000
 20
61.401764
 11
133.500000
 21
67.000015
  0
LINE
  8
0
  6
CENTER
 62
     2
 10
114.000015
 20
43.000008
 11
120.893143
 21
43.000008
  0
LINE
  8
0
  6
CENTER
 62
     2
 10
155.999985
 20
43.000008
 11
148.942337
 21
43.000008
  0
LINE
  8
0
  6
CENTER
 62
     2
 10
155.999985
 20
-23.000008
 11
148.748901
 21
-23.000008
  0
LINE
  8
0
  6
CENTER
 62
     2
 10
118.000015
 20
-27.689449
 11
118.000015
 21
-22.262943
  0
LINE
  8
0
 10
157.000000
 20
45.650002
 11
157.000000
 21
40.349998
  0
LINE
  8
0
 10
113.000000
 20
45.650002
 11
113.000000
 21
40.641724
  0
LINE
  8
0
 10
157.000000
 20
-20.349993
 11
157.000000
 21
-25.650002
  0
LINE
  8
0
  6
CENTER
 62
     2
 10
123.353348
 20
-40.000000
 11
112.607224
 21
-40.000000
  0
LINE
  8
0
 10
114.000015
 20
47.150009
 11
118.500015
 21
47.150009
  0
LINE
  8
0
 10
114.000015
 20
38.850006
 11
118.500015
 21
38.850006
  0
LINE
  8
0
 10
155.999985
 20
38.850006
 11
151.500000
 21
38.850006
  0
LINE
  8
0
 10
155.999985
 20
47.150009
 11
151.500000
 21
47.150009
  0
LINE
  8
0
 10
155.999985
 20
-27.150009
 11
151.500000
 21
-27.150009
  0
LINE
  8
0
 10
155.999985
 20
-18.850008
 11
151.500000
 21
-18.850008
  0
LINE
  8
0
 10
-194.250000
 20
132.600006
 11
194.800003
 21
132.600006
  0
LINE
  8
0
 10
194.800003
 20
132.600006
 11
194.800003
 21
-133.500000
  0
LINE
  8
0
 10
-194.250000
 20
132.600006
 11
-194.250000
 21
-133.500000
  0
LINE
  8
0
 10
-194.250000
 20
-133.500000
 11
194.800003
 21
-133.500000
  0
LINE
  8
0
 10
109.800003
 20
-118.500000
 11
109.800003
 21
-133.500000
  0
LINE
  8
0
 10
109.800003
 20
-118.500000
 11
194.800003
 21
-118.500000
  0
LINE
  8
0
 10
109.800003
 20
132.600006
 11
109.800003
 21
117.600006
  0
LINE
  8
0
 10
109.800003
 20
117.600006
 11
194.800003
 21
117.600006
  0
LINE
  8
0
 10
-194.250000
 20
117.600006
 11
-84.250000
 21
117.600006
  0
LINE
  8
0
 10
-84.250000
 20
132.600006
 11
-84.250000
 21
117.600006
  0
LINE
  8
0
  6
PHANTOM
 62
     3
 10
6.000000
 20
86.999992
 11
6.000000
 21
-17.180000
  0
LINE
  8
0
  6
PHANTOM
 62
     3
 10
25.000000
 20
76.999992
 11
25.000000
 21
-19.080002
  0
LINE
  8
0
  6
PHANTOM
 62
     3
 10
6.000000
 20
-17.180000
 11
10.000004
 21
-17.180000
  0
LINE
  8
0
  6
PHANTOM
 62
     3
 10
19.000004
 20
-19.080002
 11
19.000004
 21
-35.180000
  0
LINE
  8
0
  6
PHANTOM
 62
     3
 10
10.000004
 20
-17.180000
 11
10.000004
 21
-32.180000
  0
LINE
  8
0
  6
PHANTOM
 62
     3
 10
19.000004
 20
-19.080002
 11
25.000000
 21
-19.080002
  0
LINE
  8
0
  6
PHANTOM
 62
     3
 10
8.000004
 20
-35.180000
 11
19.000004
 21
-35.180000
  0
LINE
  8
0
  6
PHANTOM
 62
     3
 10
8.000004
 20
-35.180000
 11
8.000004
 21
-54.000015
  0
LINE
  8
0
  6
PHANTOM
 62
     3
 10
5.500000
 20
-32.180000
 11
10.000004
 21
-32.180000
  0
LINE
  8
0
  6
PHANTOM
 62
     3
 10
5.500000
 20
-32.180000
 11
5.500000
 21
-54.000015
  0
LINE
  8
0
 10
-184.250000
 20
-123.500000
 11
-39.250000
 21
-123.500000
  0
LINE
  8
0
 10
-184.250000
 20
-115.500000
 11
-39.250000
 21
-115.500000
  0
LINE
  8
0
 10
-184.250000
 20
-107.500000
 11
-39.250000
 21
-107.500000
  0
LINE
  8
0
 10
-159.250000
 20
-123.500000
 11
-159.250000
 21
-92.500000
  0
LINE
  8
0
 10
-135.250000
 20
-123.500000
 11
-135.250000
 21
-92.500000
  0
LINE
  8
0
 10
-147.250000
 20
-123.500000
 11
-147.250000
 21
-92.500000
  0
LINE
  8
0
 10
-123.250000
 20
-123.500000
 11
-123.250000
 21
-92.500000
  0
LINE
  8
0
 10
-111.250000
 20
-123.500000
 11
-111.250000
 21
-92.500000
  0
LINE
  8
0
 10
-99.250000
 20
-123.500000
 11
-99.250000
 21
-92.500000
  0
LINE
  8
0
 10
-159.250046
 20
-107.500015
 11
-161.929535
 21
-97.500023
  0
LINE
  8
0
 10
-184.250000
 20
-97.500000
 11
-161.929489
 21
-97.500000
  0
LINE
  8
0
 10
-184.250000
 20
-92.500000
 11
-39.250000
 21
-92.500000
  0
LINE
  8
0
 10
-87.250000
 20
-123.500000
 11
-87.250000
 21
-92.500000
  0
LINE
  8
0
 10
-75.250000
 20
-123.500000
 11
-75.250000
 21
-92.500000
  0
LINE
  8
0
 10
-63.250000
 20
-123.500000
 11
-63.250000
 21
-92.500000
  0
LINE
  8
0
 10
-51.250000
 20
-123.500000
 11
-51.250000
 21
-92.500000
  0
LINE
  8
0
 10
-39.250000
 20
-123.500000
 11
-39.250000
 21
-92.500000
  0
LINE
  8
0
 10
-184.250000
 20
-123.500000
 11
-184.250000
 21
-92.500000
  0
ARC
  8
0
 10
-30.500000
 20
10.000000
 40
7.999995
 50
331.045044
 51
28.954950
  0
CIRCLE
  8
0
 10
-13.999989
 20
31.999992
 40
5.500000
  0
CIRCLE
  8
0
 10
16.000015
 20
31.999992
 40
5.500000
  0
CIRCLE
  8
0
 10
-14.000011
 20
-11.999992
 40
5.500000
  0
CIRCLE
  8
0
 10
15.999977
 20
-12.000013
 40
5.500000
  0
CIRCLE
  8
0
 10
-13.999989
 20
31.999992
 40
3.400000
  0
CIRCLE
  8
0
  6
DASHED
 62
     2
 10
-13.999989
 20
31.999992
 40
4.000000
  0
CIRCLE
  8
0
  6
DASHED
 62
     2
 10
16.000019
 20
31.999992
 40
4.000000
  0
CIRCLE
  8
0
 10
16.000019
 20
31.999992
 40
3.400000
  0
CIRCLE
  8
0
  6
DASHED
 62
     2
 10
-13.999989
 20
-11.999992
 40
4.000000
  0
CIRCLE
  8
0
 10
-13.999989
 20
-11.999992
 40
3.400000
  0
CIRCLE
  8
0
  6
DASHED
 62
     2
 10
16.000019
 20
-11.999992
 40
4.000000
  0
CIRCLE
  8
0
 10
16.000019
 20
-11.999992
 40
3.400000
  0
CIRCLE
  8
0
 62
     2
 10
1.999985
 20
-25.000000
 40
4.865000
  0
CIRCLE
  8
0
 62
     2
 10
27.000008
 20
-25.000000
 40
4.865000
  0
CIRCLE
  8
0
 10
1.999985
 20
-25.000000
 40
4.285000
  0
CIRCLE
  8
0
 10
27.000008
 20
-25.000000
 40
4.285000
  0
CIRCLE
  8
0
 10
-135.000000
 20
10.000000
 40
7.000000
  0
CIRCLE
  8
0
 10
-135.000000
 20
50.000000
 40
7.000000
  0
CIRCLE
  8
0
 10
-135.000000
 20
10.000000
 40
4.600000
  0
CIRCLE
  8
0
 10
-135.000000
 20
50.000000
 40
4.600000
  0
CIRCLE
  8
0
 10
-135.000000
 20
10.000000
 40
7.500000
  0
CIRCLE
  8
0
 10
-135.000000
 20
-30.000000
 40
7.500000
  0
CIRCLE
  8
0
 10
-135.000000
 20
50.000000
 40
7.500000
  0
CIRCLE
  8
0
 62
     2
 10
-121.000000
 20
58.000000
 40
4.000000
  0
CIRCLE
  8
0
 10
-121.000000
 20
58.000000
 40
3.375000
  0
CIRCLE
  8
0
 62
     2
 10
-121.000000
 20
-38.000000
 40
4.000000
  0
CIRCLE
  8
0
 10
-121.000000
 20
-38.000000
 40
3.375000
  0
CIRCLE
  8
0
 62
     2
 10
-149.000015
 20
58.000000
 40
4.000000
  0
CIRCLE
  8
0
 10
-149.000015
 20
58.000000
 40
3.375000
  0
CIRCLE
  8
0
 62
     2
 10
-149.000015
 20
-38.000000
 40
4.000000
  0
CIRCLE
  8
0
 10
-149.000015
 20
-38.000000
 40
3.375000
  0
CIRCLE
  8
0
 10
-135.000000
 20
-30.000000
 40
7.000000
  0
CIRCLE
  8
0
 10
-135.000000
 20
-30.000000
 40
4.600000
  0
CIRCLE
  8
0
 10
135.000000
 20
-30.000000
 40
8.000000
  0
CIRCLE
  8
0
 10
135.000000
 20
50.000000
 40
8.000000
  0
CIRCLE
  8
0
 10
135.000000
 20
10.000000
 40
10.500000
  0
ARC
  8
0
 10
115.600006
 20
19.099995
 40
2.100000
 50
270.000000
 51
90.000000
  0
ARC
  8
0
 10
115.600006
 20
0.900007
 40
2.100000
 50
270.000000
 51
90.000000
  0
ARC
  8
0
 10
154.399994
 20
19.099995
 40
2.100000
 50
90.000000
 51
270.000000
  0
ARC
  8
0
 10
154.399994
 20
0.900007
 40
2.100000
 50
90.000000
 51
270.000000
  0
CIRCLE
  8
0
 10
135.000000
 20
-30.000000
 40
11.500001
  0
CIRCLE
  8
0
 62
     2
 10
152.000000
 20
-40.000000
 40
4.000000
  0
CIRCLE
  8
0
 62
     2
 10
152.000000
 20
60.000000
 40
4.000000
  0
CIRCLE
  8
0
 62
     2
 10
118.000015
 20
60.000000
 40
4.000000
  0
CIRCLE
  8
0
 10
135.000000
 20
50.000000
 40
11.500001
  0
CIRCLE
  8
0
 10
135.000000
 20
10.000000
 40
17.000000
  0
CIRCLE
  8
0
 10
118.000015
 20
-25.000000
 40
1.500000
  0
CIRCLE
  8
0
 62
     2
 10
118.000000
 20
-40.000000
 40
4.000000
  0
CIRCLE
  8
0
 10
118.000015
 20
60.000000
 40
3.375000
  0
CIRCLE
  8
0
 10
151.999985
 20
60.000000
 40
3.375000
  0
CIRCLE
  8
0
 10
118.000015
 20
-40.000000
 40
3.375000
  0
CIRCLE
  8
0
 10
151.999985
 20
-40.000000
 40
3.375000
  0
TEXT
  8
0
 10
133.907150
 20
122.050003
 40
4.500000
  1
Ver. 1.0
 50
0.000000
 41
1.052631
 51
0.000000
  7
STANDARD
  0
TEXT
  8
0
 10
113.700279
 20
-130.669998
 40
6.300000
  1
KOGANEI CORP.
 50
0.000000
 41
1.052632
 51
0.000000
  7
STANDARD
  0
TEXT
  8
0
 10
-191.392654
 20
122.050003
 40
4.500000
  1
JIG CYLINDER WITH GUIDE
 50
0.000000
 41
1.052632
 51
0.000000
  7
STANDARD
  0
TEXT
  8
0
 10
-186.892654
 20
104.550003
 40
4.500000
  1
MODEL:SGDAQY32*ST(10)
 50
0.000000
 41
1.052632
 51
0.000000
  7
STANDARD
  0
TEXT
  8
0
 10
-159.892654
 20
97.550003
 40
4.500000
  1
SGDAFQY32*ST(10)
 50
0.000000
 41
1.052632
 51
0.000000
  7
STANDARD
  0
TEXT
  8
0
 62
     3
 10
10.992857
 20
79.720009
 40
3.200000
  1
STRETCH LINE A
 50
0.000000
 41
1.052631
 51
0.000000
  7
STANDARD
  0
TEXT
  8
0
 10
-181.557144
 20
-96.879997
 40
3.200000
  1
STROKE
 50
0.000000
 41
1.052631
 51
0.000000
  7
STANDARD
  0
TEXT
  8
0
 10
-173.557144
 20
-113.379997
 40
3.200000
  1
A
 50
0.000000
 41
1.052631
 51
0.000000
  7
STANDARD
  0
TEXT
  8
0
 10
-184.496872
 20
-101.019997
 40
3.200000
  1
STRETCH
 50
0.000000
 41
1.052631
 51
0.000000
  7
STANDARD
  0
TEXT
  8
0
 10
-184.496872
 20
-105.820000
 40
3.200000
  1
  PLACE
 50
0.000000
 41
1.052631
 51
0.000000
  7
STANDARD
  0
TEXT
  8
0
 10
-156.657150
 20
-101.879997
 40
3.200000
  1
10
 50
0.000000
 41
1.052631
 51
0.000000
  7
STANDARD
  0
TEXT
  8
0
 10
-144.657150
 20
-101.879997
 40
3.200000
  1
20
 50
0.000000
 41
1.052631
 51
0.000000
  7
STANDARD
  0
TEXT
  8
0
 10
-132.657150
 20
-101.879997
 40
3.200000
  1
30
 50
0.000000
 41
1.052631
 51
0.000000
  7
STANDARD
  0
TEXT
  8
0
 10
-120.657158
 20
-101.879997
 40
3.200000
  1
50
 50
0.000000
 41
1.052631
 51
0.000000
  7
STANDARD
  0
TEXT
  8
0
 10
-108.657158
 20
-101.879997
 40
3.200000
  1
75
 50
0.000000
 41
1.052631
 51
0.000000
  7
STANDARD
  0
TEXT
  8
0
 10
-51.857143
 20
-91.379997
 40
3.200000
  1
(mm)
 50
0.000000
 41
1.052631
 51
0.000000
  7
STANDARD
  0
TEXT
  8
0
 10
-131.157135
 20
-91.379997
 40
3.200000
  1
STRETCH LIST
 50
0.000000
 41
1.052631
 51
0.000000
  7
STANDARD
  0
TEXT
  8
0
 10
-173.557007
 20
-121.379997
 40
3.200000
  1
B
 50
0.000000
 41
1.052632
 51
0.000000
  7
STANDARD
  0
TEXT
  8
0
 10
-98.257156
 20
-101.879997
 40
3.200000
  1
100
 50
0.000000
 41
1.052631
 51
0.000000
  7
STANDARD
  0
TEXT
  8
0
 10
-86.257156
 20
-101.879997
 40
3.200000
  1
125
 50
0.000000
 41
1.052631
 51
0.000000
  7
STANDARD
  0
TEXT
  8
0
 10
-74.257156
 20
-101.879997
 40
3.200000
  1
150
 50
0.000000
 41
1.052631
 51
0.000000
  7
STANDARD
  0
TEXT
  8
0
 10
-62.257156
 20
-101.879997
 40
3.200000
  1
175
 50
0.000000
 41
1.052631
 51
0.000000
  7
STANDARD
  0
TEXT
  8
0
 10
-50.257156
 20
-101.879997
 40
3.200000
  1
200
 50
0.000000
 41
1.052631
 51
0.000000
  7
STANDARD
  0
TEXT
  8
0
 10
-155.057007
 20
-113.379997
 40
3.200000
  1
0
 50
0.000000
 41
1.052632
 51
0.000000
  7
STANDARD
  0
TEXT
  8
0
 10
-143.057007
 20
-113.379997
 40
3.200000
  1
0
 50
0.000000
 41
1.052632
 51
0.000000
  7
STANDARD
  0
TEXT
  8
0
 10
-131.057007
 20
-113.379997
 40
3.200000
  1
0
 50
0.000000
 41
1.052632
 51
0.000000
  7
STANDARD
  0
TEXT
  8
0
 10
-119.056999
 20
-113.379997
 40
3.200000
  1
0
 50
0.000000
 41
1.052632
 51
0.000000
  7
STANDARD
  0
TEXT
  8
0
 10
-108.656998
 20
-113.379997
 40
3.200000
  1
25
 50
0.000000
 41
1.052632
 51
0.000000
  7
STANDARD
  0
TEXT
  8
0
 10
-96.656998
 20
-113.379997
 40
3.200000
  1
50
 50
0.000000
 41
1.052632
 51
0.000000
  7
STANDARD
  0
TEXT
  8
0
 10
-84.656998
 20
-113.379997
 40
3.200000
  1
25
 50
0.000000
 41
1.052632
 51
0.000000
  7
STANDARD
  0
TEXT
  8
0
 10
-72.656998
 20
-113.379997
 40
3.200000
  1
50
 50
0.000000
 41
1.052632
 51
0.000000
  7
STANDARD
  0
TEXT
  8
0
 10
-60.657001
 20
-113.379997
 40
3.200000
  1
75
 50
0.000000
 41
1.052632
 51
0.000000
  7
STANDARD
  0
TEXT
  8
0
 10
-50.257000
 20
-113.379997
 40
3.200000
  1
100
 50
0.000000
 41
1.052632
 51
0.000000
  7
STANDARD
  0
TEXT
  8
0
 10
-155.057007
 20
-121.379997
 40
3.200000
  1
0
 50
0.000000
 41
1.052632
 51
0.000000
  7
STANDARD
  0
TEXT
  8
0
 10
-144.656998
 20
-121.379997
 40
3.200000
  1
10
 50
0.000000
 41
1.052632
 51
0.000000
  7
STANDARD
  0
TEXT
  8
0
 10
-132.656998
 20
-121.379997
 40
3.200000
  1
20
 50
0.000000
 41
1.052632
 51
0.000000
  7
STANDARD
  0
TEXT
  8
0
 10
-120.656998
 20
-121.379997
 40
3.200000
  1
40
 50
0.000000
 41
1.052632
 51
0.000000
  7
STANDARD
  0
TEXT
  8
0
 10
-108.656998
 20
-121.379997
 40
3.200000
  1
40
 50
0.000000
 41
1.052632
 51
0.000000
  7
STANDARD
  0
TEXT
  8
0
 10
-96.656998
 20
-121.379997
 40
3.200000
  1
40
 50
0.000000
 41
1.052632
 51
0.000000
  7
STANDARD
  0
TEXT
  8
0
 10
-84.656998
 20
-121.379997
 40
3.200000
  1
90
 50
0.000000
 41
1.052632
 51
0.000000
  7
STANDARD
  0
TEXT
  8
0
 10
-72.656998
 20
-121.379997
 40
3.200000
  1
90
 50
0.000000
 41
1.052632
 51
0.000000
  7
STANDARD
  0
TEXT
  8
0
 10
-60.657001
 20
-121.379997
 40
3.200000
  1
90
 50
0.000000
 41
1.052632
 51
0.000000
  7
STANDARD
  0
TEXT
  8
0
 10
-48.657001
 20
-121.379997
 40
3.200000
  1
90
 50
0.000000
 41
1.052632
 51
0.000000
  7
STANDARD
  0
TEXT
  8
0
 62
     3
 10
-5.807000
 20
89.920006
 40
3.200000
  1
STRETCH LINE B
 50
0.000000
 41
1.052632
 51
0.000000
  7
STANDARD
  0
TEXT
  8
0
 62
     2
 10
76.697006
 20
-66.000015
 40
3.200000
  1
STROKE=75-200
 50
0.000000
 41
1.052632
 51
0.000000
  7
STANDARD
  0
LINE
  8
0
 62
     2
 10
75.000046
 20
-67.000015
 11
118.047012
 21
-67.000015
  0
LINE
  8
0
 62
     2
 10
39.000008
 20
-67.000015
 11
75.000046
 21
-67.000015
  0
LINE
  8
0
 62
     2
 10
39.000008
 20
-67.000015
 11
41.897785
 21
-66.223557
  0
LINE
  8
0
 62
     2
 10
39.000008
 20
-67.000015
 11
41.897785
 21
-67.776474
  0
LINE
  8
0
 62
     2
 10
75.000046
 20
-67.000015
 11
72.102272
 21
-67.776474
  0
LINE
  8
0
 62
     2
 10
75.000046
 20
-67.000015
 11
72.102272
 21
-66.223557
  0
LINE
  8
0
 62
     2
 10
39.000008
 20
-46.013008
 11
39.000008
 21
-68.500015
  0
LINE
  8
0
 62
     2
 10
75.000046
 20
-39.500004
 11
75.000046
 21
-68.500015
  0
ENDSEC
  0
EOF
