  0
SECTION
  2
HEADER
  0
ENDSEC
  0
SECTION
  2
TABLES
  0
TABLE
  2
LTYPE
 70
     4
  0
LTYPE
  2
CONTINUOUS
 70
    64
  3
Solid line
 72
    65
 73
     0
 40
0.000000
  0
LTYPE
  2
DASHED
 70
    64
  3
__ __ __ __ __ __ __ __ __ __ __ __ __ __ __
 72
    65
 73
     2
 40
3.500000
 49
2.000000
 49
-1.500000
  0
LTYPE
  2
CENTER
 70
    64
  3
____ _ ____ _ ____ _ ____ _ ____ _ ____ _ ____
 72
    65
 73
     4
 40
17.500000
 49
13.000000
 49
-1.500000
 49
1.500000
 49
-1.500000
  0
LTYPE
  2
PHANTOM
 70
    64
  3
_____ _ _ _____ _ _ _____ _ _ _____ _ _ ____  
 72
    65
 73
     6
 40
15.500000
 49
8.000000
 49
-1.500000
 49
1.500000
 49
-1.500000
 49
1.500000
 49
-1.500000
  0
LTYPE
  2
DASHED1
 70
    64
  3
__ __ __ __ __ __ __ __ __ __ __ __ __ __ __
 72
    65
 73
     2
 40
1.500000
 49
1.000000
 49
-0.500000
  0
LTYPE
  2
DASHED2
 70
    64
  3
__ __ __ __ __ __ __ __ __ __ __ __ __ __ __
 72
    65
 73
     2
 40
3.500000
 49
2.500000
 49
-1.000000
  0
LTYPE
  2
DASHED3
 70
    64
  3
__ __ __ __ __ __ __ __ __ __ __ __ __ __ __
 72
    65
 73
     2
 40
6.000000
 49
4.000000
 49
-2.000000
  0
LTYPE
  2
DASHED4
 70
    64
  3
__ __ __ __ __ __ __ __ __ __ __ __ __ __ __
 72
    65
 73
     2
 40
12.000000
 49
10.000000
 49
-2.000000
  0
LTYPE
  2
DASHED5
 70
    64
  3
__ __ __ __ __ __ __ __ __ __ __ __ __ __ __
 72
    65
 73
     2
 40
17.000000
 49
15.000000
 49
-2.000000
  0
LTYPE
  2
DASHED6
 70
    64
  3
__ __ __ __ __ __ __ __ __ __ __ __ __ __ __
 72
    65
 73
     2
 40
29.000000
 49
27.000000
 49
-2.000000
  0
LTYPE
  2
PHANTOM1
 70
    64
  3
_____ _ _ _____ _ _ _____ _ _ _____ _ _ ____  
 72
    65
 73
     6
 40
31.000000
 49
25.000000
 49
-1.500000
 49
1.000000
 49
-1.000000
 49
1.000000
 49
-1.500000
  0
LTYPE
  2
PHANTOM2
 70
    64
  3
_____ _ _ _____ _ _ _____ _ _ _____ _ _ ____  
 72
    65
 73
     6
 40
36.000000
 49
27.000000
 49
-1.500000
 49
2.500000
 49
-1.000000
 49
2.500000
 49
-1.500000
  0
LTYPE
  2
PHANTOM3
 70
    64
  3
_____ _ _ _____ _ _ _____ _ _ _____ _ _ ____  
 72
    65
 73
     6
 40
78.000000
 49
64.000000
 49
-2.000000
 49
4.000000
 49
-2.000000
 49
4.000000
 49
-2.000000
  0
LTYPE
  2
CENTER1
 70
    64
  3
____ _ ____ _ ____ _ ____ _ ____ _ ____ _ ____
 72
    65
 73
     4
 40
19.000000
 49
14.000000
 49
-1.000000
 49
3.000000
 49
-1.000000
  0
LTYPE
  2
CENTER2
 70
    64
  3
____ _ ____ _ ____ _ ____ _ ____ _ ____ _ ____
 72
    65
 73
     4
 40
28.500000
 49
25.000000
 49
-1.000000
 49
1.500000
 49
-1.000000
  0
LTYPE
  2
CENTER3
 70
    64
  3
____ _ ____ _ ____ _ ____ _ ____ _ ____ _ ____
 72
    65
 73
     4
 40
31.500000
 49
27.000000
 49
-1.000000
 49
2.500000
 49
-1.000000
  0
LTYPE
  2
CENTER4
 70
    64
  3
____ _ ____ _ ____ _ ____ _ ____ _ ____ _ ____
 72
    65
 73
     4
 40
50.000000
 49
45.000000
 49
-1.000000
 49
3.000000
 49
-1.000000
  0
LTYPE
  2
CENTER5
 70
    64
  3
____ _ ____ _ ____ _ ____ _ ____ _ ____ _ ____
 72
    65
 73
     4
 40
100.000000
 49
92.000000
 49
-2.000000
 49
4.000000
 49
-2.000000
  0
LTYPE
  2
SBK1
 70
    64
  3
______ _ _ _ ______ _ _ _ ______ _ _ _ _____  
 72
    65
 73
     8
 40
60.500000
 49
45.000000
 49
-2.000000
 49
2.500000
 49
-2.000000
 49
2.500000
 49
-2.000000
 49
2.500000
 49
-2.000000
  0
LTYPE
  2
SBK2
 70
    64
  3
______ _ _ _ ______ _ _ _ ______ _ _ _ _____  
 72
    65
 73
     8
 40
84.000000
 49
64.000000
 49
-2.000000
 49
4.000000
 49
-2.000000
 49
4.000000
 49
-2.000000
 49
4.000000
 49
-2.000000
  0
LTYPE
  2
STCH
 70
    64
  3
__ __ __ __ __ __ __ __ __ __ __ __ __ __ __
 72
    65
 73
     2
 40
3.000000
 49
1.000000
 49
-2.000000
  0
LTYPE
  2
MTCH
 70
    64
  3
_____ _ _ _____ _ _ _____ _ _ _____ _ _ ____  
 72
    65
 73
     6
 40
80.000000
 49
66.000000
 49
-2.000000
 49
4.000000
 49
-2.000000
 49
4.000000
 49
-2.000000
  0
ENDTAB
  0
TABLE
  2
LAYER
 70
     1
  0
LAYER
  2
0
 70
     0
 62
     7
  6
CONTINUOUS
  0
ENDTAB
  0
TABLE
  2
STYLE
 70
     1
  0
STYLE
  2
STANDARD
 70
     0
 40
0.000000
 41
1.000000
 50
0.000000
 71
     0
 42
0.200000
  3
txt
  4
BIGFONT
  0
ENDTAB
  0
TABLE
  2
VIEW
 70
     0
  0
ENDTAB
  0
ENDSEC
  0
SECTION
  2
BLOCKS
  0
ENDSEC
  0
SECTION
  2
ENTITIES
  0
LINE
  8
0
 10
-194.250000
 20
132.600006
 11
194.800003
 21
132.600006
  0
LINE
  8
0
 10
194.800003
 20
132.600006
 11
194.800003
 21
-133.500000
  0
LINE
  8
0
 10
-194.250000
 20
132.600006
 11
-194.250000
 21
-133.500000
  0
LINE
  8
0
 10
-194.250000
 20
-133.500000
 11
194.800003
 21
-133.500000
  0
LINE
  8
0
 10
109.800003
 20
-118.500000
 11
109.800003
 21
-133.500000
  0
LINE
  8
0
 10
109.800003
 20
-118.500000
 11
194.800003
 21
-118.500000
  0
LINE
  8
0
 10
109.800003
 20
132.600006
 11
109.800003
 21
117.600006
  0
LINE
  8
0
 10
109.800003
 20
117.600006
 11
194.800003
 21
117.600006
  0
LINE
  8
0
 10
-194.250000
 20
117.600006
 11
-109.250000
 21
117.600006
  0
LINE
  8
0
 10
-109.250000
 20
132.600006
 11
-109.250000
 21
117.600006
  0
LINE
  8
0
 10
2.644513
 20
5.722252
 11
0.794515
 21
5.722252
  0
LINE
  8
0
 10
-2.705485
 20
-11.813637
 11
-2.705485
 21
8.722260
  0
LINE
  8
0
 10
-4.705485
 20
-11.277740
 11
-4.705485
 21
8.722260
  0
LINE
  8
0
 10
-6.205482
 20
-11.813648
 11
-6.205482
 21
8.722260
  0
LINE
  8
0
 10
-1.205485
 20
-11.277710
 11
-1.205485
 21
8.722260
  0
LINE
  8
0
 10
0.794515
 20
-11.813610
 11
0.794515
 21
8.722260
  0
LINE
  8
0
 10
-8.205482
 20
-11.277748
 11
-8.205482
 21
8.722260
  0
LINE
  8
0
 10
-1.205485
 20
5.722252
 11
-2.705485
 21
5.722252
  0
LINE
  8
0
 10
-4.705485
 20
5.722252
 11
-6.205485
 21
5.722252
  0
LINE
  8
0
 10
-8.205485
 20
5.722252
 11
-10.055480
 21
5.722252
  0
LINE
  8
0
 62
     2
 10
-6.205490
 20
-11.813647
 11
-8.205483
 21
-11.277751
  0
LINE
  8
0
 62
     2
 10
-2.705496
 20
-11.813643
 11
-4.705492
 21
-11.277744
  0
LINE
  8
0
 62
     2
 10
0.794518
 20
-11.813609
 11
-1.205487
 21
-11.277710
  0
LINE
  8
0
 10
-28.038033
 20
11.022255
 11
7.627053
 21
11.022255
  0
LINE
  8
0
 10
-10.055480
 20
5.722260
 11
-10.055480
 21
11.022263
  0
LINE
  8
0
 10
2.644513
 20
5.722260
 11
2.644513
 21
11.022263
  0
LINE
  8
0
 62
     2
 10
6.928468
 20
18.022255
 11
8.660516
 21
18.022255
  0
LINE
  8
0
 62
     2
 10
8.660429
 20
18.022200
 11
9.526457
 21
16.522192
  0
LINE
  8
0
 62
     2
 10
9.526530
 20
16.522253
 11
8.660497
 21
15.022243
  0
LINE
  8
0
 62
     2
 10
8.660516
 20
15.022240
 11
6.928468
 21
15.022240
  0
LINE
  8
0
 62
     2
 10
6.928383
 20
15.022190
 11
6.062354
 21
16.522200
  0
LINE
  8
0
 62
     2
 10
6.062346
 20
16.522270
 11
6.928371
 21
18.022272
  0
LINE
  8
0
 62
     2
 10
-27.339447
 20
51.022255
 11
-29.071495
 21
51.022255
  0
LINE
  8
0
 62
     2
 10
-29.071426
 20
51.022278
 11
-29.937460
 21
52.522297
  0
LINE
  8
0
 62
     2
 10
-29.937527
 20
52.522259
 11
-29.071491
 21
54.022270
  0
LINE
  8
0
 62
     2
 10
-29.071495
 20
54.022270
 11
-27.339447
 21
54.022270
  0
LINE
  8
0
 62
     2
 10
-27.339373
 20
54.022285
 11
-26.473347
 21
52.522282
  0
LINE
  8
0
 62
     2
 10
-26.473423
 20
52.522301
 11
-27.339445
 21
51.022305
  0
LINE
  8
0
 62
     2
 10
-27.339447
 20
18.022255
 11
-29.071495
 21
18.022255
  0
LINE
  8
0
 62
     2
 10
-29.071426
 20
18.022203
 11
-29.937456
 21
16.522198
  0
LINE
  8
0
 62
     2
 10
-29.937538
 20
16.522240
 11
-29.071503
 21
15.022232
  0
LINE
  8
0
 62
     2
 10
-29.071495
 20
15.022240
 11
-27.339447
 21
15.022240
  0
LINE
  8
0
 62
     2
 10
-27.339382
 20
15.022199
 11
-26.473356
 21
16.522203
  0
LINE
  8
0
 62
     2
 10
-26.473398
 20
16.522238
 11
-27.339418
 21
18.022238
  0
LINE
  8
0
 10
-34.184818
 20
31.022282
 11
-32.164097
 21
34.522274
  0
LINE
  8
0
 10
-40.246994
 20
34.522274
 11
-38.226269
 21
38.022274
  0
LINE
  8
0
 10
-32.164120
 20
34.522228
 11
-34.184845
 21
38.022228
  0
LINE
  8
0
 10
-38.226299
 20
31.022224
 11
-40.247025
 21
34.522224
  0
LINE
  8
0
 10
-38.226227
 20
31.022247
 11
-34.184769
 21
31.022247
  0
LINE
  8
0
 10
-38.226227
 20
38.022247
 11
-34.184769
 21
38.022247
  0
LINE
  8
0
 10
-34.882622
 20
36.022247
 11
-37.528374
 21
36.022247
  0
LINE
  8
0
 10
-34.882622
 20
33.022247
 11
-37.528374
 21
33.022247
  0
LINE
  8
0
 62
     2
 10
6.928468
 20
51.022255
 11
8.660516
 21
51.022255
  0
LINE
  8
0
 62
     2
 10
8.660423
 20
51.022308
 11
9.526448
 21
52.522308
  0
LINE
  8
0
 62
     2
 10
9.526542
 20
52.522255
 11
8.660510
 21
54.022266
  0
LINE
  8
0
 62
     2
 10
8.660516
 20
54.022270
 11
6.928468
 21
54.022270
  0
LINE
  8
0
 62
     2
 10
6.928374
 20
54.022320
 11
6.062346
 21
52.522316
  0
LINE
  8
0
 62
     2
 10
6.062372
 20
52.522270
 11
6.928396
 21
51.022274
  0
LINE
  8
0
 10
-10.205489
 20
44.522255
 11
-10.205489
 21
58.022255
  0
LINE
  8
0
 10
16.794510
 20
22.637398
 11
16.794510
 21
46.407127
  0
LINE
  8
0
 10
7.794511
 20
47.522255
 11
16.275639
 21
47.522255
  0
LINE
  8
0
 10
7.794511
 20
21.522255
 11
16.275631
 21
21.522255
  0
LINE
  8
0
 10
2.794511
 20
16.522255
 11
2.794511
 21
11.022255
  0
LINE
  8
0
 10
2.794511
 20
52.522255
 11
2.794511
 21
58.022255
  0
LINE
  8
0
 10
-10.205489
 20
24.522255
 11
-10.205489
 21
11.022255
  0
LINE
  8
0
 10
-28.038033
 20
58.022255
 11
7.627053
 21
58.022255
  0
LINE
  8
0
 62
     2
 10
-6.846709
 20
2.022247
 11
-13.771132
 21
2.022247
  0
LINE
  8
0
 10
-60.205490
 20
-15.477745
 11
-60.205490
 21
84.522255
  0
LINE
  8
0
 10
-60.205490
 20
-15.477745
 11
39.794510
 21
-15.477745
  0
LINE
  8
0
 10
39.794510
 20
-15.477745
 11
39.794510
 21
84.522255
  0
LINE
  8
0
  6
CENTER
 62
     2
 10
-59.355484
 20
77.022255
 11
-45.705490
 21
77.022255
  0
LINE
  8
0
  6
CENTER
 62
     2
 10
-52.705490
 20
70.222260
 11
-52.705490
 21
83.522263
  0
LINE
  8
0
  6
CENTER
 62
     2
 10
-42.705490
 20
61.483398
 11
-42.705490
 21
72.919823
  0
LINE
  8
0
  6
CENTER
 62
     2
 10
-48.488564
 20
67.022255
 11
-36.944244
 21
67.022255
  0
LINE
  8
0
  6
CENTER
 62
     2
 10
-6.846709
 20
77.022263
 11
-13.771132
 21
77.022263
  0
LINE
  8
0
  6
CENTER
 62
     2
 10
-6.846709
 20
67.022263
 11
-13.771132
 21
67.022263
  0
LINE
  8
0
  6
CENTER
 62
     2
 10
28.077583
 20
67.022255
 11
16.533264
 21
67.022255
  0
LINE
  8
0
  6
CENTER
 62
     2
 10
22.294510
 20
61.483398
 11
22.294510
 21
72.919823
  0
LINE
  8
0
  6
CENTER
 62
     2
 10
32.294510
 20
70.222260
 11
32.294510
 21
83.522263
  0
LINE
  8
0
  6
CENTER
 62
     2
 10
38.944504
 20
77.022255
 11
25.294510
 21
77.022255
  0
LINE
  8
0
  6
CENTER
 62
     2
 10
-65.205490
 20
34.522255
 11
43.824509
 21
34.522255
  0
LINE
  8
0
  6
CENTER
 62
     2
 10
-52.705490
 20
37.881042
 11
-52.705490
 21
30.956619
  0
LINE
  8
0
  6
CENTER
 62
     2
 10
-42.705490
 20
37.881027
 11
-42.705490
 21
30.956604
  0
LINE
  8
0
  6
CENTER
 62
     2
 10
22.294518
 20
31.163475
 11
22.294518
 21
38.087898
  0
LINE
  8
0
  6
CENTER
 62
     2
 10
32.294518
 20
31.163460
 11
32.294518
 21
38.087883
  0
LINE
  8
0
  6
CENTER
 62
     2
 10
32.294510
 20
-1.177750
 11
32.294510
 21
-14.477753
  0
LINE
  8
0
  6
CENTER
 62
     2
 10
38.944504
 20
-7.977745
 11
25.294510
 21
-7.977745
  0
LINE
  8
0
  6
CENTER
 62
     2
 10
22.294510
 20
7.561111
 11
22.294510
 21
-3.875313
  0
LINE
  8
0
  6
CENTER
 62
     2
 10
28.077583
 20
2.022255
 11
16.533264
 21
2.022255
  0
LINE
  8
0
  6
CENTER
 62
     2
 10
-13.564277
 20
-7.977749
 11
-6.639853
 21
-7.977749
  0
LINE
  8
0
  6
CENTER
 62
     2
 10
-6.846709
 20
2.022247
 11
-13.771132
 21
2.022247
  0
LINE
  8
0
  6
CENTER
 62
     2
 10
-48.488564
 20
2.022255
 11
-36.944244
 21
2.022255
  0
LINE
  8
0
  6
CENTER
 62
     2
 10
-42.705490
 20
7.561111
 11
-42.705490
 21
-3.875313
  0
LINE
  8
0
  6
CENTER
 62
     2
 10
-59.355484
 20
-7.977745
 11
-45.705490
 21
-7.977745
  0
LINE
  8
0
  6
CENTER
 62
     2
 10
-52.705490
 20
-1.177750
 11
-52.705490
 21
-14.477753
  0
LINE
  8
0
 10
-60.205490
 20
84.522255
 11
39.794510
 21
84.522255
  0
LINE
  8
0
 10
-10.205489
 20
29.522255
 11
-10.205489
 21
11.022255
  0
LINE
  8
0
 10
-10.205489
 20
39.522255
 11
-10.205489
 21
58.022255
  0
LINE
  8
0
 10
-22.705490
 20
19.522255
 11
-18.205490
 21
19.522255
  0
LINE
  8
0
 10
-23.705460
 20
20.522257
 11
-22.705458
 21
19.522257
  0
LINE
  8
0
 10
-22.705490
 20
23.000534
 11
-22.705490
 21
19.522255
  0
LINE
  8
0
 10
-23.705490
 20
20.522263
 11
-23.705490
 21
24.190266
  0
LINE
  8
0
 10
-11.205489
 20
17.551693
 11
-11.205489
 21
29.623276
  0
LINE
  8
0
 10
-23.705490
 20
48.522247
 11
-23.705490
 21
44.854248
  0
LINE
  8
0
 10
-22.705490
 20
46.043976
 11
-22.705490
 21
49.522255
  0
LINE
  8
0
 10
-23.705475
 20
48.522251
 11
-22.705473
 21
49.522251
  0
LINE
  8
0
 10
-22.705490
 20
49.522255
 11
-18.205490
 21
49.522255
  0
LINE
  8
0
 10
-11.205489
 20
51.492813
 11
-11.205489
 21
39.421234
  0
LINE
  8
0
  6
CENTER
 62
     2
 10
-10.205489
 20
-19.845348
 11
-10.205489
 21
88.302795
  0
LINE
  8
0
  6
CENTER
 62
     2
 10
-129.000626
 20
34.522255
 11
-164.706940
 21
34.522255
  0
LINE
  8
0
 10
-144.705490
 20
20.022247
 11
-148.405487
 21
20.022247
  0
LINE
  8
0
 10
-144.705490
 20
13.022247
 11
-148.205490
 21
13.022247
  0
LINE
  8
0
 10
-144.205490
 20
19.522106
 11
-144.205490
 21
13.522247
  0
LINE
  8
0
 10
-144.705429
 20
13.022158
 11
-144.205429
 21
13.522159
  0
LINE
  8
0
 10
-144.205597
 20
19.522154
 11
-144.705582
 21
20.022133
  0
LINE
  8
0
 10
-144.705490
 20
20.022247
 11
-144.705490
 21
13.022247
  0
LINE
  8
0
 10
-133.205490
 20
58.022263
 11
-133.205490
 21
11.022247
  0
LINE
  8
0
 10
-144.705490
 20
49.022247
 11
-148.205490
 21
49.022247
  0
LINE
  8
0
 10
-144.705490
 20
56.022247
 11
-144.705490
 21
49.022247
  0
LINE
  8
0
 10
-144.205490
 20
55.522247
 11
-144.205490
 21
49.522247
  0
LINE
  8
0
 10
-144.705368
 20
49.022171
 11
-144.205368
 21
49.522171
  0
LINE
  8
0
 10
-144.205597
 20
55.522194
 11
-144.705582
 21
56.022175
  0
LINE
  8
0
 10
-149.205490
 20
11.022247
 11
-149.205490
 21
58.022263
  0
LINE
  8
0
 10
-148.405487
 20
12.522247
 11
-148.405487
 21
20.522247
  0
LINE
  8
0
 10
-148.405487
 20
12.522247
 11
-149.205490
 21
12.522247
  0
LINE
  8
0
 10
-148.405487
 20
20.522247
 11
-149.205490
 21
20.522247
  0
LINE
  8
0
 10
-148.405487
 20
56.522263
 11
-149.205490
 21
56.522263
  0
LINE
  8
0
 10
-148.405487
 20
48.522263
 11
-149.205490
 21
48.522263
  0
LINE
  8
0
 10
-148.405487
 20
56.522263
 11
-148.405487
 21
48.522263
  0
LINE
  8
0
 10
-146.005478
 20
31.022255
 11
-146.005478
 21
38.022255
  0
LINE
  8
0
 10
-142.705490
 20
33.022255
 11
-142.705490
 21
36.022255
  0
LINE
  8
0
 10
-145.705490
 20
36.022255
 11
-145.705490
 21
36.522255
  0
LINE
  8
0
 10
-145.705490
 20
36.522255
 11
-146.005478
 21
36.522255
  0
LINE
  8
0
 10
-148.405487
 20
56.522263
 11
-149.205490
 21
56.522263
  0
LINE
  8
0
 10
-141.705505
 20
51.831631
 11
-139.705490
 21
50.676922
  0
LINE
  8
0
 10
-143.705505
 20
50.676994
 11
-141.705521
 21
51.831688
  0
LINE
  8
0
 10
-143.705521
 20
48.367500
 11
-141.705505
 21
47.212791
  0
LINE
  8
0
 10
-141.705505
 20
47.212902
 11
-139.705505
 21
48.367603
  0
LINE
  8
0
 10
-139.705490
 20
48.367561
 11
-139.705490
 21
50.676956
  0
LINE
  8
0
 10
-143.705490
 20
48.367561
 11
-143.705490
 21
50.676964
  0
LINE
  8
0
 10
-144.705490
 20
56.022263
 11
-148.205490
 21
56.022263
  0
LINE
  8
0
 10
-146.005478
 20
31.022255
 11
-149.205490
 21
31.022255
  0
LINE
  8
0
 10
-146.005478
 20
38.022255
 11
-149.205490
 21
38.022255
  0
LINE
  8
0
 10
-142.705490
 20
36.022255
 11
-145.705490
 21
36.022255
  0
LINE
  8
0
 10
-142.705490
 20
33.022255
 11
-145.705490
 21
33.022255
  0
LINE
  8
0
 10
-145.705490
 20
33.022255
 11
-145.705490
 21
32.522255
  0
LINE
  8
0
 10
-145.705490
 20
32.522255
 11
-146.005478
 21
32.522255
  0
LINE
  8
0
 10
-154.205490
 20
11.022247
 11
-133.205490
 21
11.022247
  0
LINE
  8
0
 10
-144.205490
 20
13.546070
 11
-134.205490
 21
13.546070
  0
LINE
  8
0
 10
-144.205490
 20
55.498436
 11
-134.205490
 21
55.498436
  0
LINE
  8
0
 10
-154.205490
 20
58.022263
 11
-133.205490
 21
58.022263
  0
LINE
  8
0
 10
-149.205490
 20
34.522255
 11
-146.408295
 21
34.522255
  0
LINE
  8
0
 10
-153.705490
 20
10.172249
 11
-153.705490
 21
6.572250
  0
LINE
  8
0
 10
-153.705490
 20
7.572247
 11
-154.205490
 21
7.572247
  0
LINE
  8
0
 10
-153.205490
 20
5.722248
 11
-153.205490
 21
11.022247
  0
LINE
  8
0
 10
-153.705490
 20
9.172245
 11
-154.205490
 21
9.172245
  0
LINE
  8
0
 10
-153.205490
 20
10.172245
 11
-153.705490
 21
10.172245
  0
LINE
  8
0
 10
-153.205490
 20
6.572247
 11
-153.705490
 21
6.572247
  0
LINE
  8
0
 10
-138.205490
 20
7.372246
 11
-132.705490
 21
7.372246
  0
LINE
  8
0
 10
-131.705475
 20
-2.550322
 11
-129.705475
 21
-2.014422
  0
LINE
  8
0
 10
-138.205490
 20
9.372246
 11
-132.705490
 21
9.372246
  0
LINE
  8
0
 10
-131.705490
 20
6.372246
 11
-131.705490
 21
-2.550304
  0
LINE
  8
0
 10
-138.205490
 20
11.022247
 11
-138.205490
 21
5.722248
  0
LINE
  8
0
 10
-129.705490
 20
6.372246
 11
-129.705490
 21
-2.014408
  0
LINE
  8
0
 10
-153.205490
 20
5.722248
 11
-138.205490
 21
5.722248
  0
LINE
  8
0
 10
-134.205490
 20
13.546070
 11
-134.205490
 21
55.498436
  0
LINE
  8
0
 10
-141.705551
 20
17.212919
 11
-139.705536
 21
18.367620
  0
LINE
  8
0
 10
-143.705536
 20
18.367489
 11
-141.705521
 21
17.212780
  0
LINE
  8
0
 10
-143.705490
 20
18.367561
 11
-143.705490
 21
20.676964
  0
LINE
  8
0
 10
-143.705521
 20
20.677013
 11
-141.705521
 21
21.831707
  0
LINE
  8
0
 10
-141.705521
 20
21.831617
 11
-139.705505
 21
20.676908
  0
LINE
  8
0
 10
-139.705490
 20
18.367561
 11
-139.705490
 21
20.676956
  0
LINE
  8
0
 10
-154.205490
 20
84.522255
 11
-154.205490
 21
-15.477745
  0
LINE
  8
0
 10
-154.205490
 20
-15.477745
 11
-161.205490
 21
-15.477745
  0
LINE
  8
0
 10
-161.205490
 20
84.522255
 11
-161.205490
 21
-15.477745
  0
LINE
  8
0
 10
-154.205490
 20
84.522255
 11
-161.205490
 21
84.522255
  0
LINE
  8
0
 10
-148.605484
 20
3.422249
 11
-144.605484
 21
3.422249
  0
LINE
  8
0
 10
-144.605484
 20
5.722248
 11
-144.605484
 21
3.422249
  0
LINE
  8
0
 10
-148.605484
 20
5.722248
 11
-148.605484
 21
3.422249
  0
LINE
  8
0
  6
CENTER
 62
     2
 10
140.810410
 20
34.522255
 11
107.729004
 21
34.522255
  0
LINE
  8
0
 10
130.294510
 20
10.172249
 11
130.294510
 21
6.572250
  0
LINE
  8
0
 10
130.294510
 20
7.572247
 11
130.794510
 21
7.572247
  0
LINE
  8
0
 10
129.794510
 20
5.722248
 11
129.794510
 21
11.022247
  0
LINE
  8
0
 10
130.294510
 20
9.172245
 11
130.794510
 21
9.172245
  0
LINE
  8
0
 10
129.794510
 20
10.172245
 11
130.294510
 21
10.172245
  0
LINE
  8
0
 10
129.794510
 20
6.572247
 11
130.294510
 21
6.572247
  0
LINE
  8
0
 10
114.794510
 20
7.372246
 11
109.294510
 21
7.372246
  0
LINE
  8
0
 62
     2
 10
108.294495
 20
-2.550327
 11
106.294502
 21
-2.014429
  0
LINE
  8
0
 10
114.794510
 20
9.372246
 11
109.294510
 21
9.372246
  0
LINE
  8
0
 10
108.294510
 20
6.372246
 11
108.294510
 21
-2.550304
  0
LINE
  8
0
 10
114.794510
 20
11.022247
 11
114.794510
 21
5.722248
  0
LINE
  8
0
 10
106.294510
 20
6.372246
 11
106.294510
 21
-2.014408
  0
LINE
  8
0
 10
121.494507
 20
13.022247
 11
124.994507
 21
13.022247
  0
LINE
  8
0
 10
121.494507
 20
20.022247
 11
121.494507
 21
13.022247
  0
LINE
  8
0
 10
120.994507
 20
19.522247
 11
120.994507
 21
13.522247
  0
LINE
  8
0
 10
124.994507
 20
12.522247
 11
124.994507
 21
20.522247
  0
LINE
  8
0
 10
121.494507
 20
20.022247
 11
124.994507
 21
20.022247
  0
LINE
  8
0
 10
121.494461
 20
13.022197
 11
120.994461
 21
13.522198
  0
LINE
  8
0
 10
120.994568
 20
19.522221
 11
121.494560
 21
20.022207
  0
LINE
  8
0
 10
120.994583
 20
55.522224
 11
121.494560
 21
56.022202
  0
LINE
  8
0
 10
121.494507
 20
56.022247
 11
124.994507
 21
56.022247
  0
LINE
  8
0
 10
129.794510
 20
5.722248
 11
114.794510
 21
5.722248
  0
LINE
  8
0
 10
121.494507
 20
49.022247
 11
124.994507
 21
49.022247
  0
LINE
  8
0
 10
121.494507
 20
56.022247
 11
121.494507
 21
49.022247
  0
LINE
  8
0
 10
120.994507
 20
55.522247
 11
120.994507
 21
49.522247
  0
LINE
  8
0
 10
121.494461
 20
49.022186
 11
120.994461
 21
49.522186
  0
LINE
  8
0
 10
124.994507
 20
12.522247
 11
125.794510
 21
12.522247
  0
LINE
  8
0
 10
124.994507
 20
20.522247
 11
125.794510
 21
20.522247
  0
LINE
  8
0
 10
124.994507
 20
56.522263
 11
125.794510
 21
56.522263
  0
LINE
  8
0
 10
124.994507
 20
56.522263
 11
124.994507
 21
48.522263
  0
LINE
  8
0
 10
124.994507
 20
48.522263
 11
125.794510
 21
48.522263
  0
LINE
  8
0
  6
CENTER
 62
     2
 10
114.603539
 20
26.522255
 11
120.770493
 21
26.522255
  0
LINE
  8
0
  6
CENTER
 62
     2
 10
117.794510
 20
38.524025
 11
117.794510
 21
30.994999
  0
LINE
  8
0
 10
125.794510
 20
47.522263
 11
125.794510
 21
58.022263
  0
LINE
  8
0
 10
109.794510
 20
11.022247
 11
130.794510
 21
11.022247
  0
LINE
  8
0
 10
109.794510
 20
22.637390
 11
130.794510
 21
22.637390
  0
LINE
  8
0
 10
109.794510
 20
58.022263
 11
130.794510
 21
58.022263
  0
LINE
  8
0
 10
109.794510
 20
47.522263
 11
125.794510
 21
47.522263
  0
LINE
  8
0
 10
109.794510
 20
46.407120
 11
130.794510
 21
46.407120
  0
LINE
  8
0
 10
109.794510
 20
21.522247
 11
125.794510
 21
21.522247
  0
LINE
  8
0
 10
125.794510
 20
21.522247
 11
125.794510
 21
11.022247
  0
LINE
  8
0
 10
109.794510
 20
58.022263
 11
109.794510
 21
11.022247
  0
LINE
  8
0
 10
130.794510
 20
84.522255
 11
130.794510
 21
-15.477745
  0
LINE
  8
0
 10
130.794510
 20
-15.477745
 11
137.794510
 21
-15.477745
  0
LINE
  8
0
 10
130.794510
 20
84.522255
 11
137.794510
 21
84.522255
  0
LINE
  8
0
 10
137.794510
 20
84.522255
 11
137.794510
 21
-15.477745
  0
LINE
  8
0
 10
125.194511
 20
3.422249
 11
121.194511
 21
3.422249
  0
LINE
  8
0
 10
125.194511
 20
5.722248
 11
125.194511
 21
3.422249
  0
LINE
  8
0
 10
121.194511
 20
5.722248
 11
121.194511
 21
3.422249
  0
LINE
  8
0
  6
CENTER
 62
     2
 10
117.794510
 20
29.463671
 11
117.794510
 21
23.976416
  0
LINE
  8
0
  6
CENTER
 62
     2
 10
114.603539
 20
42.522255
 11
120.770493
 21
42.522255
  0
LINE
  8
0
  6
CENTER
 62
     2
 10
117.794510
 20
39.580837
 11
117.794510
 21
45.068092
  0
LINE
  8
0
  6
CENTER
 62
     2
 10
-10.205489
 20
-66.227745
 11
-10.205489
 21
-107.877754
  0
LINE
  8
0
 10
-10.055488
 20
-78.877739
 11
2.644509
 21
-78.877739
  0
LINE
  8
0
 10
-2.705497
 20
-69.477745
 11
-2.705497
 21
-78.877739
  0
LINE
  8
0
 10
-4.705497
 20
-69.477745
 11
-4.705497
 21
-78.877739
  0
LINE
  8
0
 10
-1.205497
 20
-69.477745
 11
-1.205497
 21
-78.877739
  0
LINE
  8
0
 10
-6.455493
 20
-69.477745
 11
-6.455493
 21
-78.877739
  0
LINE
  8
0
 10
0.794503
 20
-69.477745
 11
0.794503
 21
-78.877739
  0
LINE
  8
0
 10
-8.455493
 20
-69.477745
 11
-8.455493
 21
-78.877739
  0
LINE
  8
0
 62
     2
 10
-0.605475
 20
-88.473579
 11
-0.605475
 21
-89.281868
  0
LINE
  8
0
 62
     2
 10
-1.305530
 20
-88.069603
 11
-0.605531
 21
-88.473747
  0
LINE
  8
0
 62
     2
 10
-2.005483
 20
-88.473549
 11
-1.305485
 21
-88.069405
  0
LINE
  8
0
 62
     2
 10
-2.005469
 20
-89.281883
 11
-2.005469
 21
-88.473595
  0
LINE
  8
0
 62
     2
 10
-1.305517
 20
-89.686111
 11
-2.005515
 21
-89.281967
  0
LINE
  8
0
 62
     2
 10
-0.605528
 20
-89.281845
 11
-1.305526
 21
-89.685989
  0
LINE
  8
0
 62
     2
 10
-6.105529
 20
-89.686089
 11
-6.805528
 21
-89.281944
  0
LINE
  8
0
 62
     2
 10
-5.405519
 20
-89.281837
 11
-6.105517
 21
-89.685982
  0
LINE
  8
0
 62
     2
 10
-5.405478
 20
-88.473595
 11
-5.405478
 21
-89.281883
  0
LINE
  8
0
 62
     2
 10
-6.105547
 20
-88.069603
 11
-5.405549
 21
-88.473747
  0
LINE
  8
0
 62
     2
 10
-6.805483
 20
-88.473564
 11
-6.105484
 21
-88.069420
  0
LINE
  8
0
 62
     2
 10
-6.805469
 20
-89.281883
 11
-6.805469
 21
-88.473595
  0
LINE
  8
0
 10
2.644509
 20
-78.877739
 11
2.644509
 21
-95.477745
  0
LINE
  8
0
 10
-10.055480
 20
-78.877739
 11
-10.055480
 21
-95.477745
  0
LINE
  8
0
 10
-24.705490
 20
-87.177750
 11
-24.705490
 21
-90.677750
  0
LINE
  8
0
 10
-31.705490
 20
-87.177750
 11
-31.705490
 21
-90.677750
  0
LINE
  8
0
 10
-25.205490
 20
-86.677742
 11
-31.205490
 21
-86.677742
  0
LINE
  8
0
 10
-31.705498
 20
-87.177742
 11
-31.205498
 21
-86.677742
  0
LINE
  8
0
 10
-25.205549
 20
-86.677864
 11
-24.705564
 21
-87.177849
  0
LINE
  8
0
 10
-24.705490
 20
-87.177742
 11
-31.705490
 21
-87.177742
  0
LINE
  8
0
 10
-6.455493
 20
-75.477745
 11
-4.705497
 21
-75.477745
  0
LINE
  8
0
 10
-2.705497
 20
-75.477745
 11
-1.205497
 21
-75.477745
  0
LINE
  8
0
 10
0.794503
 20
-75.477745
 11
16.794510
 21
-75.477745
  0
LINE
  8
0
 10
11.294511
 20
-87.177750
 11
11.294511
 21
-90.677750
  0
LINE
  8
0
 10
4.294511
 20
-87.177750
 11
4.294511
 21
-90.677750
  0
LINE
  8
0
 10
10.794511
 20
-86.677742
 11
4.794511
 21
-86.677742
  0
LINE
  8
0
 10
4.294483
 20
-87.177719
 11
4.794484
 21
-86.677719
  0
LINE
  8
0
 10
10.794461
 20
-86.677856
 11
11.294446
 21
-87.177841
  0
LINE
  8
0
 10
-32.205490
 20
-90.677742
 11
-24.205490
 21
-90.677742
  0
LINE
  8
0
 10
-39.705490
 20
-91.477745
 11
-39.705490
 21
-96.477745
  0
LINE
  8
0
 10
-39.705490
 20
-91.477745
 11
-10.205489
 21
-91.477745
  0
LINE
  8
0
 10
16.794510
 20
-91.477745
 11
2.644509
 21
-91.477745
  0
LINE
  8
0
 10
-32.205490
 20
-90.677742
 11
-32.205490
 21
-91.477745
  0
LINE
  8
0
 10
-24.205490
 20
-90.677742
 11
-24.205490
 21
-91.477745
  0
LINE
  8
0
 10
11.794511
 20
-90.677742
 11
11.794511
 21
-91.477745
  0
LINE
  8
0
 10
11.794511
 20
-90.677742
 11
3.794511
 21
-90.677742
  0
LINE
  8
0
 10
3.794511
 20
-90.677742
 11
3.794511
 21
-91.477745
  0
LINE
  8
0
 10
-24.705490
 20
-87.977730
 11
-24.705490
 21
-79.977776
  0
LINE
  8
0
 10
-23.705490
 20
-78.977776
 11
-23.705490
 21
-88.977745
  0
LINE
  8
0
 10
-23.705490
 20
-88.977745
 11
-22.205032
 21
-88.977745
  0
LINE
  8
0
 10
-24.705420
 20
-87.977692
 11
-23.705416
 21
-88.977684
  0
LINE
  8
0
 10
-11.205489
 20
-75.977745
 11
-11.205489
 21
-91.477745
  0
LINE
  8
0
 10
7.627053
 20
-91.477745
 11
7.627053
 21
-96.477745
  0
LINE
  8
0
 10
2.794511
 20
-75.477745
 11
2.794511
 21
-91.477745
  0
LINE
  8
0
 10
16.794510
 20
-75.477745
 11
16.794510
 21
-96.477745
  0
LINE
  8
0
 10
-31.205490
 20
-75.977745
 11
-31.205490
 21
-86.677742
  0
LINE
  8
0
 10
-8.455493
 20
-75.477745
 11
-10.205489
 21
-75.477745
  0
LINE
  8
0
 10
-10.205489
 20
-91.477745
 11
-10.205489
 21
-75.477745
  0
LINE
  8
0
 10
7.627053
 20
-91.477745
 11
7.627053
 21
-96.477745
  0
LINE
  8
0
 10
-28.038033
 20
-91.477745
 11
-28.038033
 21
-96.477745
  0
LINE
  8
0
 10
-10.055488
 20
-95.477745
 11
2.644509
 21
-95.477745
  0
LINE
  8
0
 10
-3.105491
 20
-95.477745
 11
-3.105491
 21
-95.977745
  0
LINE
  8
0
 10
0.494508
 20
-95.977745
 11
-3.105491
 21
-95.977745
  0
LINE
  8
0
 10
0.494508
 20
-95.477745
 11
0.494508
 21
-95.977745
  0
LINE
  8
0
 10
-0.505492
 20
-95.977745
 11
-0.505492
 21
-96.477745
  0
LINE
  8
0
 10
-2.105491
 20
-95.977745
 11
-2.105491
 21
-96.477745
  0
LINE
  8
0
 10
-23.705490
 20
-78.977745
 11
-22.206024
 21
-78.977745
  0
LINE
  8
0
 10
-24.705444
 20
-79.977745
 11
-23.705442
 21
-78.977745
  0
LINE
  8
0
 10
-31.205490
 20
-75.977745
 11
-11.205489
 21
-75.977745
  0
LINE
  8
0
 10
-60.205490
 20
-96.477745
 11
39.794510
 21
-96.477745
  0
LINE
  8
0
 10
39.794510
 20
-96.477730
 11
39.794510
 21
-103.477745
  0
LINE
  8
0
 10
-60.205490
 20
-96.477745
 11
-60.205490
 21
-103.477745
  0
LINE
  8
0
 10
-60.205490
 20
-103.477745
 11
39.794510
 21
-103.477745
  0
LINE
  8
0
 10
4.294511
 20
-87.177742
 11
11.294511
 21
-87.177742
  0
ARC
  8
0
 10
-7.205485
 20
8.722260
 40
1.000000
 50
0.000000
 51
180.000000
  0
ARC
  8
0
 10
-3.705485
 20
8.722260
 40
1.000000
 50
0.000000
 51
180.000000
  0
ARC
  8
0
 10
-0.205485
 20
8.722260
 40
1.000000
 50
0.000000
 51
180.000000
  0
CIRCLE
  8
0
 10
-36.205498
 20
34.522255
 40
2.000000
  0
CIRCLE
  8
0
 62
     2
 10
-36.205498
 20
34.522255
 40
1.120000
  0
CIRCLE
  8
0
 10
-36.205498
 20
34.522255
 40
3.500000
  0
CIRCLE
  8
0
 10
-10.205489
 20
34.522255
 40
5.000000
  0
ARC
  8
0
 10
-10.205497
 20
34.522255
 40
29.500000
 50
181.875046
 51
232.807587
  0
ARC
  8
0
 10
-10.205497
 20
34.522255
 40
29.500000
 50
23.758110
 51
52.807610
  0
ARC
  8
0
 10
-10.205489
 20
34.522263
 40
29.500000
 50
307.192383
 51
336.241852
  0
ARC
  8
0
 10
7.794511
 20
16.522255
 40
5.000000
 50
89.999985
 51
179.999954
  0
CIRCLE
  8
0
 10
7.794511
 20
16.522255
 40
4.000000
  0
ARC
  8
0
 10
7.794511
 20
52.522255
 40
5.000000
 50
180.000000
 51
270.000031
  0
CIRCLE
  8
0
 10
7.794511
 20
52.522255
 40
4.000000
  0
ARC
  8
0
 10
-10.205497
 20
34.522255
 40
29.500002
 50
127.192413
 51
178.124939
  0
CIRCLE
  8
0
 10
-28.205490
 20
16.522255
 40
4.000000
  0
CIRCLE
  8
0
 10
-28.205490
 20
52.522255
 40
4.000000
  0
CIRCLE
  8
0
 10
-10.205474
 20
2.022255
 40
2.000000
  0
CIRCLE
  8
0
 10
-52.705490
 20
77.022255
 40
2.750000
  0
CIRCLE
  8
0
 10
-52.705490
 20
77.022255
 40
4.750000
  0
CIRCLE
  8
0
 10
-42.705490
 20
67.022255
 40
4.000000
  0
CIRCLE
  8
0
 10
-42.705490
 20
67.022247
 40
2.250000
  0
CIRCLE
  8
0
 10
-10.205474
 20
77.022255
 40
2.000000
  0
CIRCLE
  8
0
 10
-10.205474
 20
67.022255
 40
2.000000
  0
CIRCLE
  8
0
 10
22.294510
 20
67.022255
 40
4.000000
  0
CIRCLE
  8
0
 10
22.294510
 20
67.022247
 40
2.250000
  0
CIRCLE
  8
0
 10
32.294510
 20
77.022255
 40
4.750000
  0
CIRCLE
  8
0
 10
32.294510
 20
77.022255
 40
2.750000
  0
CIRCLE
  8
0
 10
-52.705490
 20
34.522270
 40
2.000000
  0
CIRCLE
  8
0
 10
-42.705490
 20
34.522255
 40
2.000000
  0
CIRCLE
  8
0
 10
22.294510
 20
34.522247
 40
2.000000
  0
CIRCLE
  8
0
 10
32.294510
 20
34.522232
 40
2.000000
  0
CIRCLE
  8
0
 10
32.294510
 20
-7.977745
 40
4.750000
  0
CIRCLE
  8
0
 10
32.294510
 20
-7.977745
 40
2.750000
  0
CIRCLE
  8
0
 10
22.294510
 20
2.022255
 40
4.000000
  0
CIRCLE
  8
0
 10
22.294510
 20
2.022263
 40
2.250000
  0
CIRCLE
  8
0
 10
-10.205504
 20
-7.977745
 40
2.000000
  0
CIRCLE
  8
0
 10
-10.205474
 20
2.022255
 40
2.000000
  0
CIRCLE
  8
0
 10
-42.705490
 20
2.022255
 40
4.000000
  0
CIRCLE
  8
0
 10
-42.705490
 20
2.022263
 40
2.250000
  0
CIRCLE
  8
0
 10
-52.705490
 20
-7.977745
 40
4.750000
  0
CIRCLE
  8
0
 10
-52.705490
 20
-7.977745
 40
2.750000
  0
ARC
  8
0
 10
-10.205489
 20
34.522255
 40
17.000000
 50
93.372307
 51
266.627686
  0
ARC
  8
0
 10
-141.705490
 20
49.522263
 40
5.499994
 50
185.216080
 51
117.035690
  0
ARC
  8
0
 10
-141.705490
 20
49.522263
 40
4.999994
 50
185.739349
 51
120.000015
  0
ARC
  8
0
 10
-150.008240
 20
32.772255
 40
4.002762
 50
334.074768
 51
25.925245
  0
ARC
  8
0
 10
-150.008240
 20
36.272255
 40
4.002762
 50
334.074768
 51
25.925245
  0
ARC
  8
0
 10
-132.705490
 20
6.372246
 40
1.000000
 50
359.999939
 51
90.000000
  0
ARC
  8
0
 10
-132.705490
 20
6.372246
 40
3.000000
 50
359.999939
 51
90.000000
  0
ARC
  8
0
 10
-141.705490
 20
19.522263
 40
5.499998
 50
242.964294
 51
174.784271
  0
ARC
  8
0
 10
-141.705490
 20
19.522263
 40
4.999999
 50
240.000000
 51
174.261032
  0
ARC
  8
0
 10
109.294510
 20
6.372246
 40
1.000000
 50
90.000000
 51
180.000031
  0
ARC
  8
0
 10
109.294510
 20
6.372246
 40
3.000000
 50
90.000000
 51
180.000015
  0
CIRCLE
  8
0
 62
     2
 10
117.794510
 20
26.522255
 40
2.000000
  0
CIRCLE
  8
0
 10
117.794510
 20
26.522255
 40
1.400000
  0
CIRCLE
  8
0
 62
     2
 10
117.794510
 20
42.522255
 40
2.000000
  0
CIRCLE
  8
0
 10
117.794510
 20
42.522255
 40
1.400000
  0
CIRCLE
  8
0
 10
117.794510
 20
34.522255
 40
2.000000
  0
CIRCLE
  8
0
 10
117.794510
 20
34.522255
 40
3.000000
  0
CIRCLE
  8
0
 10
-7.455493
 20
-69.477745
 40
1.000000
  0
CIRCLE
  8
0
 10
-3.705497
 20
-69.477745
 40
1.000000
  0
CIRCLE
  8
0
 10
-0.205504
 20
-69.477745
 40
1.000000
  0
CIRCLE
  8
0
 10
-7.455493
 20
-69.477745
 40
0.500000
  0
CIRCLE
  8
0
 10
-3.705497
 20
-69.477745
 40
0.500000
  0
CIRCLE
  8
0
 10
-0.205504
 20
-69.477745
 40
0.500000
  0
CIRCLE
  8
0
 10
-6.105491
 20
-88.877739
 40
2.000000
  0
CIRCLE
  8
0
 10
-1.305488
 20
-88.877739
 40
2.000000
  0
ARC
  8
0
 10
-24.705490
 20
-83.119011
 40
6.358734
 50
270.000000
 51
316.288422
  0
ARC
  8
0
 10
-24.006870
 20
-83.906357
 40
5.310376
 50
317.220123
 51
348.855042
  0
ARC
  8
0
 10
-23.754436
 20
-83.977745
 40
5.048947
 50
349.096191
 51
10.903813
  0
ARC
  8
0
 10
-24.006870
 20
-84.049133
 40
5.310375
 50
11.144944
 51
42.779881
  0
ARC
  8
0
 10
-24.705490
 20
-84.836479
 40
6.358734
 50
43.711575
 51
136.288422
  0
ARC
  8
0
 10
-25.404110
 20
-84.049133
 40
5.310376
 50
137.220123
 51
168.855057
  0
ARC
  8
0
 10
-25.656544
 20
-83.977745
 40
5.048947
 50
169.096191
 51
190.903809
  0
ARC
  8
0
 10
-25.404110
 20
-83.906357
 40
5.310375
 50
191.144943
 51
211.467224
  0
TEXT
  8
0
 10
115.907150
 20
122.050003
 40
4.500000
  1
DATE : AUG ,1994
 50
0.000000
 41
1.052631
 51
0.000000
  7
STANDARD
  0
TEXT
  8
0
 10
113.700279
 20
-130.669998
 40
6.300000
  1
KOGANEI CORP.
 50
0.000000
 41
1.052632
 51
0.000000
  7
STANDARD
  0
TEXT
  8
0
 10
-185.892654
 20
122.050003
 40
4.500000
  1
HANDLING MODULE
 50
0.000000
 41
1.052632
 51
0.000000
  7
STANDARD
  0
TEXT
  8
0
 10
-186.892654
 20
104.550003
 40
4.500000
  1
MODEL:SHM11L-10
 50
0.000000
 41
1.052632
 51
0.000000
  7
STANDARD
  0
ENDSEC
  0
EOF
