  0
SECTION
  2
HEADER
  0
ENDSEC
  0
SECTION
  2
TABLES
  0
TABLE
  2
LTYPE
 70
     4
  0
LTYPE
  2
CONTINUOUS
 70
    64
  3
Solid line
 72
    65
 73
     0
 40
0.000000
  0
LTYPE
  2
DASHED
 70
    64
  3
__ __ __ __ __ __ __ __ __ __ __ __ __ __ __
 72
    65
 73
     2
 40
3.500000
 49
2.000000
 49
-1.500000
  0
LTYPE
  2
CENTER
 70
    64
  3
____ _ ____ _ ____ _ ____ _ ____ _ ____ _ ____
 72
    65
 73
     4
 40
17.500000
 49
13.000000
 49
-1.500000
 49
1.500000
 49
-1.500000
  0
LTYPE
  2
PHANTOM
 70
    64
  3
_____ _ _ _____ _ _ _____ _ _ _____ _ _ ____  
 72
    65
 73
     6
 40
15.500000
 49
8.000000
 49
-1.500000
 49
1.500000
 49
-1.500000
 49
1.500000
 49
-1.500000
  0
LTYPE
  2
DASHED1
 70
    64
  3
__ __ __ __ __ __ __ __ __ __ __ __ __ __ __
 72
    65
 73
     2
 40
1.500000
 49
1.000000
 49
-0.500000
  0
LTYPE
  2
DASHED2
 70
    64
  3
__ __ __ __ __ __ __ __ __ __ __ __ __ __ __
 72
    65
 73
     2
 40
3.500000
 49
2.500000
 49
-1.000000
  0
LTYPE
  2
DASHED3
 70
    64
  3
__ __ __ __ __ __ __ __ __ __ __ __ __ __ __
 72
    65
 73
     2
 40
6.000000
 49
4.000000
 49
-2.000000
  0
LTYPE
  2
DASHED4
 70
    64
  3
__ __ __ __ __ __ __ __ __ __ __ __ __ __ __
 72
    65
 73
     2
 40
12.000000
 49
10.000000
 49
-2.000000
  0
LTYPE
  2
DASHED5
 70
    64
  3
__ __ __ __ __ __ __ __ __ __ __ __ __ __ __
 72
    65
 73
     2
 40
17.000000
 49
15.000000
 49
-2.000000
  0
LTYPE
  2
DASHED6
 70
    64
  3
__ __ __ __ __ __ __ __ __ __ __ __ __ __ __
 72
    65
 73
     2
 40
29.000000
 49
27.000000
 49
-2.000000
  0
LTYPE
  2
PHANTOM1
 70
    64
  3
_____ _ _ _____ _ _ _____ _ _ _____ _ _ ____  
 72
    65
 73
     6
 40
31.000000
 49
25.000000
 49
-1.500000
 49
1.000000
 49
-1.000000
 49
1.000000
 49
-1.500000
  0
LTYPE
  2
PHANTOM2
 70
    64
  3
_____ _ _ _____ _ _ _____ _ _ _____ _ _ ____  
 72
    65
 73
     6
 40
36.000000
 49
27.000000
 49
-1.500000
 49
2.500000
 49
-1.000000
 49
2.500000
 49
-1.500000
  0
LTYPE
  2
PHANTOM3
 70
    64
  3
_____ _ _ _____ _ _ _____ _ _ _____ _ _ ____  
 72
    65
 73
     6
 40
78.000000
 49
64.000000
 49
-2.000000
 49
4.000000
 49
-2.000000
 49
4.000000
 49
-2.000000
  0
LTYPE
  2
CENTER1
 70
    64
  3
____ _ ____ _ ____ _ ____ _ ____ _ ____ _ ____
 72
    65
 73
     4
 40
19.000000
 49
14.000000
 49
-1.000000
 49
3.000000
 49
-1.000000
  0
LTYPE
  2
CENTER2
 70
    64
  3
____ _ ____ _ ____ _ ____ _ ____ _ ____ _ ____
 72
    65
 73
     4
 40
28.500000
 49
25.000000
 49
-1.000000
 49
1.500000
 49
-1.000000
  0
LTYPE
  2
CENTER3
 70
    64
  3
____ _ ____ _ ____ _ ____ _ ____ _ ____ _ ____
 72
    65
 73
     4
 40
31.500000
 49
27.000000
 49
-1.000000
 49
2.500000
 49
-1.000000
  0
LTYPE
  2
CENTER4
 70
    64
  3
____ _ ____ _ ____ _ ____ _ ____ _ ____ _ ____
 72
    65
 73
     4
 40
50.000000
 49
45.000000
 49
-1.000000
 49
3.000000
 49
-1.000000
  0
LTYPE
  2
CENTER5
 70
    64
  3
____ _ ____ _ ____ _ ____ _ ____ _ ____ _ ____
 72
    65
 73
     4
 40
100.000000
 49
92.000000
 49
-2.000000
 49
4.000000
 49
-2.000000
  0
LTYPE
  2
SBK1
 70
    64
  3
______ _ _ _ ______ _ _ _ ______ _ _ _ _____  
 72
    65
 73
     8
 40
60.500000
 49
45.000000
 49
-2.000000
 49
2.500000
 49
-2.000000
 49
2.500000
 49
-2.000000
 49
2.500000
 49
-2.000000
  0
LTYPE
  2
SBK2
 70
    64
  3
______ _ _ _ ______ _ _ _ ______ _ _ _ _____  
 72
    65
 73
     8
 40
84.000000
 49
64.000000
 49
-2.000000
 49
4.000000
 49
-2.000000
 49
4.000000
 49
-2.000000
 49
4.000000
 49
-2.000000
  0
LTYPE
  2
STCH
 70
    64
  3
__ __ __ __ __ __ __ __ __ __ __ __ __ __ __
 72
    65
 73
     2
 40
3.000000
 49
1.000000
 49
-2.000000
  0
LTYPE
  2
MTCH
 70
    64
  3
_____ _ _ _____ _ _ _____ _ _ _____ _ _ ____  
 72
    65
 73
     6
 40
80.000000
 49
66.000000
 49
-2.000000
 49
4.000000
 49
-2.000000
 49
4.000000
 49
-2.000000
  0
ENDTAB
  0
TABLE
  2
LAYER
 70
     1
  0
LAYER
  2
0
 70
     0
 62
     7
  6
CONTINUOUS
  0
ENDTAB
  0
TABLE
  2
STYLE
 70
     1
  0
STYLE
  2
STANDARD
 70
     0
 40
0.000000
 41
1.000000
 50
0.000000
 71
     0
 42
0.200000
  3
txt
  4
BIGFONT
  0
ENDTAB
  0
TABLE
  2
VIEW
 70
     0
  0
ENDTAB
  0
ENDSEC
  0
SECTION
  2
BLOCKS
  0
ENDSEC
  0
SECTION
  2
ENTITIES
  0
LINE
  8
0
 10
399.799988
 20
276.250000
 11
399.799988
 21
-276.750000
  0
LINE
  8
0
 10
-399.250000
 20
276.250000
 11
-399.250000
 21
-276.750000
  0
LINE
  8
0
 10
-399.250000
 20
276.250000
 11
399.799988
 21
276.250000
  0
LINE
  8
0
 10
-399.250000
 20
-276.750000
 11
399.799988
 21
-276.750000
  0
LINE
  8
0
 10
239.799988
 20
-251.750000
 11
399.799988
 21
-251.750000
  0
LINE
  8
0
 10
239.799988
 20
251.250000
 11
399.799988
 21
251.250000
  0
LINE
  8
0
 10
-399.250000
 20
251.250000
 11
-239.250000
 21
251.250000
  0
LINE
  8
0
 10
239.799988
 20
-251.750000
 11
239.799988
 21
-276.750000
  0
LINE
  8
0
 10
239.799988
 20
251.250000
 11
239.799988
 21
276.250000
  0
LINE
  8
0
 10
-239.250000
 20
276.250000
 11
-239.250000
 21
251.250000
  0
LINE
  8
0
  6
CENTER
 62
     2
 10
-42.381287
 20
25.000000
 11
-19.495087
 21
25.000000
  0
LINE
  8
0
 10
-34.000092
 20
28.000000
 11
-28.000092
 21
28.000000
  0
LINE
  8
0
 10
-9.500061
 20
-50.000000
 11
-11.000061
 21
-50.000000
  0
LINE
  8
0
 10
-56.500092
 20
50.000000
 11
-64.500061
 21
50.000000
  0
LINE
  8
0
 10
-56.500061
 20
-50.000000
 11
-64.500061
 21
-50.000000
  0
LINE
  8
0
 10
-9.500000
 20
50.000061
 11
-9.500000
 21
32.500061
  0
LINE
  8
0
 10
-9.500092
 20
50.000000
 11
-17.000092
 21
50.000000
  0
LINE
  8
0
 10
-52.500000
 20
-55.780441
 11
-52.500000
 21
-43.999939
  0
LINE
  8
0
 62
     2
 10
-51.700012
 20
-55.780441
 11
-51.700012
 21
-43.999939
  0
LINE
  8
0
 10
-46.500000
 20
-55.780441
 11
-46.500000
 21
-43.999939
  0
LINE
  8
0
 62
     2
 10
-47.300018
 20
-55.780441
 11
-47.300018
 21
-43.999939
  0
LINE
  8
0
 10
-38.500000
 20
42.230713
 11
-38.500000
 21
40.500061
  0
LINE
  8
0
 10
-35.516685
 20
43.199940
 11
-38.499977
 21
42.230644
  0
LINE
  8
0
 10
-35.516693
 20
43.199982
 11
-26.483337
 21
43.199982
  0
LINE
  8
0
 10
-34.000000
 20
43.200073
 11
-34.000000
 21
40.500061
  0
LINE
  8
0
 10
-26.483288
 20
43.199886
 11
-23.500088
 21
42.230591
  0
LINE
  8
0
 10
-23.500000
 20
42.230713
 11
-23.500000
 21
40.500061
  0
LINE
  8
0
 10
-55.500061
 20
-40.000000
 11
-45.500061
 21
-40.000000
  0
LINE
  8
0
 10
-52.500031
 20
-55.780502
 11
-46.500031
 21
-55.780502
  0
LINE
  8
0
 10
-55.500092
 20
39.000000
 11
-46.000092
 21
39.000000
  0
LINE
  8
0
 10
-54.500061
 20
-44.000000
 11
-44.500031
 21
-44.000000
  0
LINE
  8
0
 10
-55.273567
 20
-43.553516
 11
-54.500122
 21
-44.000069
  0
LINE
  8
0
 10
-55.273499
 20
-39.999939
 11
-55.273499
 21
-43.553345
  0
LINE
  8
0
 10
-52.386749
 20
-39.999939
 11
-52.386749
 21
-43.553345
  0
LINE
  8
0
 10
-43.726509
 20
-43.553291
 11
-44.500027
 21
-43.999893
  0
LINE
  8
0
 10
-43.726501
 20
-40.499939
 11
-43.726501
 21
-43.553345
  0
LINE
  8
0
 10
-46.613251
 20
-39.999939
 11
-46.613251
 21
-43.553345
  0
LINE
  8
0
  6
CENTER
 62
     2
 10
-31.000000
 20
54.167480
 11
-31.000000
 21
-69.749939
  0
LINE
  8
0
 10
-55.500061
 20
-24.000000
 11
-56.500061
 21
-24.000000
  0
LINE
  8
0
  6
CENTER
 62
     2
 10
-4.209480
 20
0.000000
 11
-68.114548
 21
0.000000
  0
LINE
  8
0
 10
-45.113312
 20
-40.500000
 11
-17.000061
 21
-40.500000
  0
LINE
  8
0
 10
-45.000061
 20
40.500000
 11
-17.000122
 21
40.500000
  0
LINE
  8
0
 10
-17.000000
 20
-40.499939
 11
-17.000000
 21
-42.699890
  0
LINE
  8
0
 10
-17.000000
 20
40.500061
 11
-17.000000
 21
50.000061
  0
LINE
  8
0
 10
-31.000099
 20
15.762449
 11
-23.000074
 21
20.381281
  0
LINE
  8
0
 10
-39.000057
 20
29.618824
 11
-31.000069
 21
34.237595
  0
LINE
  8
0
 10
-31.000078
 20
34.237686
 11
-23.000109
 21
29.618881
  0
LINE
  8
0
 10
-38.999912
 20
20.381437
 11
-30.999897
 21
15.762592
  0
LINE
  8
0
 10
-39.000000
 20
20.381256
 11
-39.000000
 21
29.618866
  0
LINE
  8
0
 10
-23.000000
 20
20.381287
 11
-23.000000
 21
29.618896
  0
LINE
  8
0
 10
-16.000000
 20
39.500061
 11
-16.000000
 21
-39.499939
  0
LINE
  8
0
 10
-34.000092
 20
22.000000
 11
-28.000092
 21
22.000000
  0
LINE
  8
0
 10
-45.999958
 20
39.499977
 11
-44.999954
 21
40.500042
  0
LINE
  8
0
 10
-17.000170
 20
40.499954
 11
-16.000191
 21
39.499977
  0
LINE
  8
0
 10
-44.999901
 20
-40.499790
 11
-45.999905
 21
-39.499790
  0
LINE
  8
0
 10
-17.000027
 20
-40.499905
 11
-16.000006
 21
-39.499882
  0
LINE
  8
0
 10
-55.500092
 20
24.000000
 11
-56.500092
 21
24.000000
  0
LINE
  8
0
 10
-10.500000
 20
31.500061
 11
-10.500000
 21
-31.499939
  0
LINE
  8
0
 10
-10.500035
 20
31.500025
 11
-9.500002
 21
32.500057
  0
LINE
  8
0
 10
-10.500143
 20
-31.500069
 11
-9.500142
 21
-32.500069
  0
LINE
  8
0
 10
-10.000000
 20
20.000061
 11
-10.000000
 21
-19.999939
  0
LINE
  8
0
 10
-10.000092
 20
20.000000
 11
-10.500092
 21
20.000000
  0
LINE
  8
0
 10
-10.000061
 20
-20.000000
 11
-10.500061
 21
-20.000000
  0
LINE
  8
0
 10
-56.500061
 20
-48.000000
 11
-64.500061
 21
-48.000000
  0
LINE
  8
0
 10
-9.500061
 20
-48.000000
 11
-11.000061
 21
-48.000000
  0
LINE
  8
0
 10
-9.500092
 20
48.000000
 11
-17.000092
 21
48.000000
  0
LINE
  8
0
 10
-56.500092
 20
48.000000
 11
-64.500061
 21
48.000000
  0
LINE
  8
0
 10
-26.100037
 20
-51.599915
 11
-26.100037
 21
-50.999939
  0
LINE
  8
0
 10
-35.899994
 20
-51.599915
 11
-35.899994
 21
-42.599915
  0
LINE
  8
0
 10
-35.900055
 20
-42.599976
 11
-26.100067
 21
-42.599976
  0
LINE
  8
0
 10
-35.900024
 20
-51.599976
 11
-26.100067
 21
-51.599976
  0
LINE
  8
0
 10
-31.000061
 20
-48.299988
 11
-23.500061
 21
-48.299988
  0
LINE
  8
0
 10
-31.000061
 20
-46.899994
 11
-23.500061
 21
-46.899994
  0
LINE
  8
0
 10
-26.100163
 20
-51.000038
 11
-27.400152
 21
-48.300026
  0
LINE
  8
0
 10
-26.100149
 20
-44.199760
 11
-27.400171
 21
-46.899811
  0
LINE
  8
0
 10
-26.100037
 20
-44.199890
 11
-26.100037
 21
-42.599915
  0
LINE
  8
0
 10
-23.500031
 20
-52.500000
 11
-15.500031
 21
-52.500000
  0
LINE
  8
0
 10
-11.000000
 20
-52.599915
 11
-11.000000
 21
-42.599915
  0
LINE
  8
0
 10
-12.600037
 20
-52.599915
 11
-12.600037
 21
-42.599915
  0
LINE
  8
0
 10
-26.100067
 20
-51.000000
 11
-25.000061
 21
-51.000000
  0
LINE
  8
0
 10
-23.500000
 20
-52.499939
 11
-23.500000
 21
-42.699890
  0
LINE
  8
0
 10
-25.000000
 20
-50.999939
 11
-25.000000
 21
-48.299927
  0
LINE
  8
0
 10
-15.500000
 20
-52.499939
 11
-15.500000
 21
-42.699890
  0
LINE
  8
0
 10
-13.900024
 20
-52.349915
 11
-13.900024
 21
-42.849915
  0
LINE
  8
0
 10
-12.600067
 20
-52.599976
 11
-11.000031
 21
-52.599976
  0
LINE
  8
0
 10
-15.500031
 20
-52.349976
 11
-13.900055
 21
-52.349976
  0
LINE
  8
0
 10
-12.600067
 20
-42.599976
 11
-11.000061
 21
-42.599976
  0
LINE
  8
0
 10
-15.500061
 20
-42.849976
 11
-13.900055
 21
-42.849976
  0
LINE
  8
0
 10
-23.500061
 20
-42.699982
 11
-15.500061
 21
-42.699982
  0
LINE
  8
0
 10
-26.100067
 20
-44.199982
 11
-25.000061
 21
-44.199982
  0
LINE
  8
0
 10
-13.900055
 20
-50.849976
 11
-12.600067
 21
-50.849976
  0
LINE
  8
0
 10
-13.900055
 20
-44.349976
 11
-12.600067
 21
-44.349976
  0
LINE
  8
0
 10
-25.000000
 20
-46.899902
 11
-25.000000
 21
-44.199890
  0
LINE
  8
0
 10
-23.500151
 20
-52.499969
 11
-25.000149
 21
-50.999985
  0
LINE
  8
0
 10
-23.500031
 20
-42.700020
 11
-25.000036
 21
-44.199997
  0
LINE
  8
0
 10
-34.900055
 20
-41.099976
 11
-27.100067
 21
-41.099976
  0
LINE
  8
0
 10
-27.750000
 20
-42.599915
 11
-27.750000
 21
-41.099915
  0
LINE
  8
0
 10
-34.250000
 20
-42.599915
 11
-34.250000
 21
-41.099915
  0
LINE
  8
0
 10
-27.100037
 20
-41.099915
 11
-27.100037
 21
-40.499939
  0
LINE
  8
0
 10
-34.900024
 20
-41.099915
 11
-34.900024
 21
-40.499939
  0
LINE
  8
0
 10
-33.000031
 20
-69.999962
 11
-29.000031
 21
-69.999962
  0
LINE
  8
0
 10
-28.500000
 20
-69.499916
 11
-28.500000
 21
-66.499916
  0
LINE
  8
0
 10
-33.500000
 20
-69.499916
 11
-33.500000
 21
-66.499916
  0
LINE
  8
0
 10
-28.499969
 20
-69.499985
 11
-28.999968
 21
-69.999962
  0
LINE
  8
0
 10
-33.000034
 20
-69.999931
 11
-33.500038
 21
-69.499954
  0
LINE
  8
0
 10
-33.000031
 20
-65.999962
 11
-29.000031
 21
-65.999962
  0
LINE
  8
0
 10
-33.500069
 20
-66.499886
 11
-33.000088
 21
-65.999893
  0
LINE
  8
0
 10
-29.000013
 20
-65.999954
 11
-28.500017
 21
-66.499939
  0
LINE
  8
0
 10
-33.500031
 20
-69.499962
 11
-28.500031
 21
-69.499962
  0
LINE
  8
0
 10
-33.500031
 20
-66.499962
 11
-28.500031
 21
-66.499962
  0
LINE
  8
0
 62
     2
 10
-30.500000
 20
-69.499916
 11
-30.500000
 21
-66.499916
  0
LINE
  8
0
 10
-34.464142
 20
-55.599960
 11
-27.535919
 21
-55.599960
  0
LINE
  8
0
 10
-34.500031
 20
-56.399948
 11
-27.500031
 21
-56.399948
  0
LINE
  8
0
 10
-34.500031
 20
-58.899948
 11
-27.500031
 21
-58.899948
  0
LINE
  8
0
 10
-27.000000
 20
-58.399902
 11
-27.000000
 21
-56.899902
  0
LINE
  8
0
 10
-35.000000
 20
-58.399902
 11
-35.000000
 21
-56.899902
  0
LINE
  8
0
 10
-27.000053
 20
-58.399952
 11
-27.500021
 21
-58.899921
  0
LINE
  8
0
 10
-34.500015
 20
-58.899914
 11
-35.000011
 21
-58.399948
  0
LINE
  8
0
 10
-35.000053
 20
-56.900002
 11
-34.500034
 21
-56.399998
  0
LINE
  8
0
 10
-27.500023
 20
-56.399918
 11
-26.999994
 21
-56.899933
  0
LINE
  8
0
 62
     2
 10
-28.000000
 20
-58.399902
 11
-28.000000
 21
-56.899902
  0
LINE
  8
0
 62
     2
 10
-29.000000
 20
-58.399902
 11
-29.000000
 21
-56.899902
  0
LINE
  8
0
 62
     2
 10
-30.000000
 20
-58.399902
 11
-30.000000
 21
-56.899902
  0
LINE
  8
0
 10
-35.000031
 20
-58.399948
 11
-27.000031
 21
-58.399948
  0
LINE
  8
0
 10
-35.000031
 20
-56.899948
 11
-27.000031
 21
-56.899948
  0
LINE
  8
0
 10
-26.381226
 20
-55.242676
 11
-26.381226
 21
-51.599915
  0
LINE
  8
0
 10
-28.690613
 20
-55.242676
 11
-28.690613
 21
-51.599915
  0
LINE
  8
0
 10
-33.309448
 20
-55.242676
 11
-33.309448
 21
-51.599915
  0
LINE
  8
0
 10
-35.618805
 20
-55.242676
 11
-35.618805
 21
-51.599915
  0
LINE
  8
0
 10
-28.500000
 20
-56.399902
 11
-28.500000
 21
-55.599915
  0
LINE
  8
0
 10
-33.500000
 20
-56.399902
 11
-33.500000
 21
-55.599915
  0
LINE
  8
0
 10
-32.500000
 20
-65.999916
 11
-32.500000
 21
-58.899902
  0
LINE
  8
0
 10
-29.500000
 20
-65.999916
 11
-29.500000
 21
-58.899902
  0
LINE
  8
0
 62
     2
 10
-29.770508
 20
-65.999916
 11
-29.770508
 21
-58.899902
  0
LINE
  8
0
 62
     2
 10
-32.229492
 20
-65.999916
 11
-32.229492
 21
-58.899902
  0
LINE
  8
0
 62
     2
 10
-29.500000
 20
-69.499916
 11
-29.500000
 21
-66.499916
  0
LINE
  8
0
 10
-64.500000
 20
50.000061
 11
-64.500000
 21
-49.999954
  0
LINE
  8
0
 10
-56.500000
 20
50.000061
 11
-56.500000
 21
-49.999954
  0
LINE
  8
0
 10
-55.500000
 20
39.000061
 11
-55.500000
 21
-39.999939
  0
LINE
  8
0
 10
-46.000000
 20
39.500061
 11
-46.000000
 21
-39.499939
  0
LINE
  8
0
 10
-9.500000
 20
-49.999939
 11
-9.500000
 21
-32.499939
  0
LINE
  8
0
  6
CENTER
 62
     2
 10
-54.977268
 20
-42.500000
 11
-66.555885
 21
-42.500000
  0
LINE
  8
0
  6
CENTER
 62
     2
 10
-55.422600
 20
-32.500000
 11
-66.555885
 21
-32.500000
  0
LINE
  8
0
  6
CENTER
 62
     2
 10
-7.104137
 20
-42.500000
 11
-17.346760
 21
-42.500000
  0
LINE
  8
0
  6
CENTER
 62
     2
 10
-55.422600
 20
32.500000
 11
-66.555885
 21
32.500000
  0
LINE
  8
0
  6
CENTER
 62
     2
 10
-54.977268
 20
42.500000
 11
-66.555885
 21
42.500000
  0
LINE
  8
0
  6
CENTER
 62
     2
 10
-7.104137
 20
42.500000
 11
-18.682753
 21
42.500000
  0
LINE
  8
0
 10
314.200256
 20
18.500015
 11
293.500000
 21
18.500015
  0
LINE
  8
0
 62
     2
 10
315.000244
 20
19.300003
 11
293.500000
 21
19.300003
  0
LINE
  8
0
 10
318.000244
 20
19.300003
 11
315.000244
 21
19.300003
  0
LINE
  8
0
 62
     2
 10
315.000244
 20
27.699997
 11
293.500000
 21
27.699997
  0
LINE
  8
0
 10
314.200256
 20
28.500015
 11
293.500000
 21
28.500015
  0
LINE
  8
0
 10
318.000244
 20
27.699997
 11
315.000244
 21
27.699997
  0
LINE
  8
0
 10
314.200531
 20
18.499630
 11
315.000519
 21
19.299637
  0
LINE
  8
0
 10
315.000244
 20
27.699936
 11
315.000244
 21
19.299942
  0
LINE
  8
0
 10
314.200256
 20
28.499956
 11
314.200256
 21
18.499956
  0
LINE
  8
0
 10
315.000275
 20
27.699850
 11
314.200287
 21
28.499857
  0
LINE
  8
0
 10
318.000214
 20
19.299971
 11
319.000214
 21
20.299973
  0
LINE
  8
0
 10
318.000183
 20
27.699875
 11
319.000183
 21
26.699873
  0
LINE
  8
0
 10
315.000244
 20
20.489609
 11
318.000244
 21
20.489609
  0
LINE
  8
0
 10
315.000244
 20
26.510391
 11
318.000244
 21
26.510391
  0
LINE
  8
0
 10
318.000244
 20
19.299940
 11
318.000244
 21
20.489546
  0
LINE
  8
0
 10
317.999634
 20
26.510330
 11
317.999634
 21
27.699936
  0
LINE
  8
0
 62
     2
 10
318.000427
 20
20.489641
 11
315.000427
 21
26.510448
  0
LINE
  8
0
 62
     2
 10
315.000183
 20
20.489542
 11
318.000183
 21
26.510361
  0
LINE
  8
0
 10
319.000122
 20
26.699905
 11
319.000122
 21
20.300001
  0
LINE
  8
0
 10
155.000000
 20
48.000019
 11
155.000000
 21
-47.999977
  0
LINE
  8
0
 10
255.000000
 20
47.999981
 11
255.000000
 21
-48.000023
  0
LINE
  8
0
 10
253.000015
 20
50.000015
 11
157.000015
 21
50.000015
  0
LINE
  8
0
 10
119.500000
 20
40.500038
 11
119.500000
 21
-40.499962
  0
LINE
  8
0
 10
290.500000
 20
40.499962
 11
290.500000
 21
-40.500038
  0
LINE
  8
0
  6
CENTER
 62
     2
 10
124.500000
 20
-40.499966
 11
124.500000
 21
-72.549965
  0
LINE
  8
0
  6
CENTER
 62
     2
 10
285.500031
 20
-40.500034
 11
285.500031
 21
-73.600029
  0
LINE
  8
0
 10
116.499969
 20
30.500040
 11
116.499969
 21
16.500031
  0
LINE
  8
0
 10
118.874771
 20
27.541458
 11
117.125183
 21
27.541458
  0
LINE
  8
0
 10
118.874771
 20
31.582901
 11
117.125183
 21
31.582901
  0
LINE
  8
0
 10
117.124924
 20
31.583109
 11
116.499710
 21
30.500208
  0
LINE
  8
0
 10
118.874771
 20
15.417116
 11
117.125183
 21
15.417116
  0
LINE
  8
0
 10
118.874786
 20
19.458557
 11
117.125183
 21
19.458557
  0
LINE
  8
0
 10
117.125198
 20
15.417068
 11
116.499985
 21
16.499969
  0
LINE
  8
0
 10
253.000000
 20
-49.999985
 11
156.999985
 21
-49.999985
  0
LINE
  8
0
 10
231.000000
 20
-55.780510
 11
231.000000
 21
-50.000008
  0
LINE
  8
0
 62
     2
 10
231.799988
 20
-55.780510
 11
231.799988
 21
-50.000008
  0
LINE
  8
0
 10
237.000000
 20
-55.780514
 11
237.000000
 21
-50.000011
  0
LINE
  8
0
 62
     2
 10
236.199982
 20
-55.780514
 11
236.199982
 21
-50.000011
  0
LINE
  8
0
 10
230.999985
 20
-55.780487
 11
236.999985
 21
-55.780487
  0
LINE
  8
0
 10
118.874710
 20
15.417168
 11
119.499924
 21
16.500069
  0
LINE
  8
0
 10
118.874741
 20
31.582907
 11
119.499939
 21
30.500031
  0
LINE
  8
0
 10
293.500000
 20
30.499960
 11
293.500000
 21
16.499939
  0
LINE
  8
0
 10
291.125183
 20
27.541458
 11
292.874817
 21
27.541458
  0
LINE
  8
0
 10
291.125183
 20
31.582901
 11
292.874817
 21
31.582901
  0
LINE
  8
0
 10
292.874756
 20
31.582857
 11
293.499939
 21
30.499966
  0
LINE
  8
0
 10
291.125183
 20
15.417116
 11
292.874817
 21
15.417116
  0
LINE
  8
0
 10
291.125183
 20
19.458557
 11
292.874817
 21
19.458557
  0
LINE
  8
0
 10
292.874725
 20
15.417074
 11
293.499939
 21
16.499975
  0
LINE
  8
0
 10
291.125153
 20
15.416973
 11
290.499939
 21
16.499874
  0
LINE
  8
0
 10
291.125214
 20
31.582853
 11
290.500000
 21
30.499973
  0
LINE
  8
0
  6
CENTER
 62
     2
 10
205.000000
 20
53.401764
 11
205.000000
 21
-52.515041
  0
LINE
  8
0
 10
255.000015
 20
40.500015
 11
290.500000
 21
40.500015
  0
LINE
  8
0
 10
155.000015
 20
40.500015
 11
119.500015
 21
40.500015
  0
LINE
  8
0
 10
154.999985
 20
-40.499985
 11
119.499985
 21
-40.499985
  0
LINE
  8
0
 10
254.999985
 20
-40.499985
 11
290.500000
 21
-40.499985
  0
LINE
  8
0
 10
254.999985
 20
-39.499985
 11
290.500000
 21
-39.499985
  0
LINE
  8
0
 10
255.000015
 20
39.500015
 11
290.500000
 21
39.500015
  0
LINE
  8
0
  6
CENTER
 62
     2
 10
296.653473
 20
0.000017
 11
112.466156
 21
0.000017
  0
LINE
  8
0
 10
154.999985
 20
-39.499985
 11
119.499985
 21
-39.499985
  0
LINE
  8
0
 10
155.000015
 20
39.500015
 11
119.500015
 21
39.500015
  0
LINE
  8
0
  6
CENTER
 62
     2
 10
166.275940
 20
-42.499985
 11
158.596558
 21
-42.499985
  0
LINE
  8
0
  6
CENTER
 62
     2
 10
162.500000
 20
-38.629387
 11
162.500000
 21
-46.308769
  0
LINE
  8
0
 10
155.000092
 20
47.999939
 11
157.000092
 21
49.999939
  0
LINE
  8
0
 10
253.000000
 20
49.999924
 11
255.000000
 21
47.999924
  0
LINE
  8
0
 10
252.999969
 20
-50.000008
 11
254.999969
 21
-48.000008
  0
LINE
  8
0
 10
154.999969
 20
-47.999943
 11
156.999969
 21
-49.999943
  0
LINE
  8
0
 10
122.499908
 20
-70.000008
 11
126.499908
 21
-70.000008
  0
LINE
  8
0
 10
127.000000
 20
-69.500023
 11
127.000000
 21
-66.500023
  0
LINE
  8
0
 10
122.000000
 20
-69.500023
 11
122.000000
 21
-66.500023
  0
LINE
  8
0
 10
126.999870
 20
-69.500084
 11
126.499878
 21
-70.000076
  0
LINE
  8
0
 10
122.500122
 20
-69.999702
 11
122.000130
 21
-69.499710
  0
LINE
  8
0
 10
122.499908
 20
-66.000008
 11
126.499908
 21
-66.000008
  0
LINE
  8
0
 10
121.999756
 20
-66.499878
 11
122.499725
 21
-65.999908
  0
LINE
  8
0
 10
126.500084
 20
-65.999832
 11
127.000092
 21
-66.499840
  0
LINE
  8
0
 10
121.999908
 20
-69.500008
 11
126.999908
 21
-69.500008
  0
LINE
  8
0
 10
121.999908
 20
-66.500008
 11
126.999908
 21
-66.500008
  0
LINE
  8
0
 62
     2
 10
124.000000
 20
-69.500023
 11
124.000000
 21
-66.500023
  0
LINE
  8
0
 10
120.599960
 20
-41.599998
 11
128.399948
 21
-41.599998
  0
LINE
  8
0
 10
120.499924
 20
-56.100006
 11
128.499924
 21
-56.100006
  0
LINE
  8
0
 10
120.999924
 20
-56.899994
 11
127.999924
 21
-56.899994
  0
LINE
  8
0
 10
120.999924
 20
-59.399994
 11
127.999924
 21
-59.399994
  0
LINE
  8
0
 10
128.500000
 20
-58.899998
 11
128.500000
 21
-57.399998
  0
LINE
  8
0
 10
120.500000
 20
-58.899998
 11
120.500000
 21
-57.399998
  0
LINE
  8
0
 10
128.499756
 20
-58.899815
 11
127.999763
 21
-59.399803
  0
LINE
  8
0
 10
121.000122
 20
-59.399849
 11
120.500107
 21
-58.899834
  0
LINE
  8
0
 10
120.499992
 20
-57.400055
 11
121.000008
 21
-56.900043
  0
LINE
  8
0
 10
128.000168
 20
-56.899757
 11
128.500198
 21
-57.399792
  0
LINE
  8
0
 62
     2
 10
121.500000
 20
-58.899998
 11
121.500000
 21
-57.399998
  0
LINE
  8
0
 62
     2
 10
122.500000
 20
-58.899998
 11
122.500000
 21
-57.399998
  0
LINE
  8
0
 62
     2
 10
123.500000
 20
-58.899998
 11
123.500000
 21
-57.399998
  0
LINE
  8
0
 10
120.499924
 20
-58.899994
 11
128.499924
 21
-58.899994
  0
LINE
  8
0
 10
120.499924
 20
-57.399994
 11
128.499924
 21
-57.399994
  0
LINE
  8
0
 10
127.000000
 20
-56.899998
 11
127.000000
 21
-56.100010
  0
LINE
  8
0
 10
122.000000
 20
-56.899998
 11
122.000000
 21
-56.100010
  0
LINE
  8
0
 10
123.000000
 20
-66.000023
 11
123.000000
 21
-59.399998
  0
LINE
  8
0
 10
126.000000
 20
-66.000023
 11
126.000000
 21
-59.399998
  0
LINE
  8
0
 62
     2
 10
125.729492
 20
-66.000023
 11
125.729492
 21
-59.399998
  0
LINE
  8
0
 62
     2
 10
123.270508
 20
-66.000023
 11
123.270508
 21
-59.399998
  0
LINE
  8
0
 62
     2
 10
123.000000
 20
-69.500023
 11
123.000000
 21
-66.500023
  0
LINE
  8
0
 10
127.750000
 20
-43.100006
 11
127.750000
 21
-41.600006
  0
LINE
  8
0
 10
121.250000
 20
-43.100006
 11
121.250000
 21
-41.600006
  0
LINE
  8
0
 10
128.399994
 20
-41.600006
 11
128.399994
 21
-40.499966
  0
LINE
  8
0
 10
120.600006
 20
-41.600006
 11
120.600006
 21
-40.499966
  0
LINE
  8
0
 10
129.399994
 20
-52.099976
 11
129.399994
 21
-49.095001
  0
LINE
  8
0
 10
119.600006
 20
-52.100006
 11
119.600006
 21
-49.095001
  0
LINE
  8
0
 10
119.599960
 20
-52.099998
 11
121.499924
 21
-52.099998
  0
LINE
  8
0
 10
119.599960
 20
-43.099998
 11
129.399948
 21
-43.099998
  0
LINE
  8
0
 10
128.500000
 20
-56.099979
 11
128.500000
 21
-52.100006
  0
LINE
  8
0
 10
120.500000
 20
-56.100010
 11
120.500000
 21
-52.100006
  0
LINE
  8
0
 10
124.500000
 20
-55.742771
 11
124.500000
 21
-53.100006
  0
LINE
  8
0
  6
CENTER
 62
     2
 10
120.455612
 20
-48.099998
 11
127.879013
 21
-48.099998
  0
LINE
  8
0
 10
129.399994
 20
-47.105011
 11
129.399994
 21
-43.099976
  0
LINE
  8
0
 10
119.600006
 20
-47.105011
 11
119.600006
 21
-43.100006
  0
LINE
  8
0
 10
127.499924
 20
-52.099998
 11
129.399948
 21
-52.099998
  0
LINE
  8
0
 10
283.499939
 20
-70.000008
 11
287.499939
 21
-70.000008
  0
LINE
  8
0
 10
288.000000
 20
-69.500084
 11
288.000000
 21
-66.500084
  0
LINE
  8
0
 10
283.000000
 20
-69.500084
 11
283.000000
 21
-66.500084
  0
LINE
  8
0
 10
287.999939
 20
-69.500198
 11
287.499939
 21
-70.000198
  0
LINE
  8
0
 10
283.500092
 20
-69.999825
 11
283.000092
 21
-69.499832
  0
LINE
  8
0
 10
283.499939
 20
-66.000008
 11
287.499939
 21
-66.000008
  0
LINE
  8
0
 10
282.999817
 20
-66.499992
 11
283.499786
 21
-66.000015
  0
LINE
  8
0
 10
287.500061
 20
-65.999916
 11
288.000092
 21
-66.499931
  0
LINE
  8
0
 10
282.999939
 20
-69.500008
 11
287.999939
 21
-69.500008
  0
LINE
  8
0
 10
282.999939
 20
-66.500008
 11
287.999939
 21
-66.500008
  0
LINE
  8
0
 62
     2
 10
285.000000
 20
-69.500084
 11
285.000000
 21
-66.500084
  0
LINE
  8
0
 10
281.599945
 20
-41.599998
 11
289.399933
 21
-41.599998
  0
LINE
  8
0
 10
281.499939
 20
-56.100006
 11
289.499939
 21
-56.100006
  0
LINE
  8
0
 10
281.999939
 20
-56.899994
 11
288.999939
 21
-56.899994
  0
LINE
  8
0
 10
281.999939
 20
-59.399994
 11
288.999939
 21
-59.399994
  0
LINE
  8
0
 10
289.500000
 20
-58.900082
 11
289.500000
 21
-57.400082
  0
LINE
  8
0
 10
281.500000
 20
-58.900082
 11
281.500000
 21
-57.400082
  0
LINE
  8
0
 10
289.499817
 20
-58.899998
 11
288.999817
 21
-59.399986
  0
LINE
  8
0
 10
282.000092
 20
-59.399921
 11
281.500092
 21
-58.899910
  0
LINE
  8
0
 10
281.499908
 20
-57.400063
 11
281.999908
 21
-56.900051
  0
LINE
  8
0
 10
289.000092
 20
-56.899837
 11
289.500122
 21
-57.399868
  0
LINE
  8
0
 62
     2
 10
282.500000
 20
-58.900082
 11
282.500000
 21
-57.400082
  0
LINE
  8
0
 62
     2
 10
283.500000
 20
-58.900082
 11
283.500000
 21
-57.400082
  0
LINE
  8
0
 62
     2
 10
284.500000
 20
-58.900082
 11
284.500000
 21
-57.400082
  0
LINE
  8
0
 10
281.499939
 20
-58.899994
 11
289.499939
 21
-58.899994
  0
LINE
  8
0
 10
281.499939
 20
-57.399994
 11
289.499939
 21
-57.399994
  0
LINE
  8
0
 10
288.000000
 20
-56.900082
 11
288.000000
 21
-56.100094
  0
LINE
  8
0
 10
283.000000
 20
-56.900082
 11
283.000000
 21
-56.100094
  0
LINE
  8
0
 10
284.000000
 20
-66.000084
 11
284.000000
 21
-59.400082
  0
LINE
  8
0
 10
287.000000
 20
-66.000084
 11
287.000000
 21
-59.400082
  0
LINE
  8
0
 62
     2
 10
286.729492
 20
-66.000084
 11
286.729492
 21
-59.400082
  0
LINE
  8
0
 62
     2
 10
284.270508
 20
-66.000084
 11
284.270508
 21
-59.400082
  0
LINE
  8
0
 62
     2
 10
284.000000
 20
-69.500084
 11
284.000000
 21
-66.500084
  0
LINE
  8
0
 10
288.750000
 20
-43.100082
 11
288.750000
 21
-41.600082
  0
LINE
  8
0
 10
282.250000
 20
-43.100082
 11
282.250000
 21
-41.600082
  0
LINE
  8
0
 10
289.399994
 20
-41.600082
 11
289.399994
 21
-40.500034
  0
LINE
  8
0
 10
281.600006
 20
-41.600082
 11
281.600006
 21
-40.984272
  0
LINE
  8
0
 10
290.399994
 20
-52.100052
 11
290.399994
 21
-49.095078
  0
LINE
  8
0
 10
280.600006
 20
-52.100082
 11
280.600006
 21
-49.095078
  0
LINE
  8
0
 10
280.599945
 20
-52.099998
 11
282.499939
 21
-52.099998
  0
LINE
  8
0
 10
280.599945
 20
-43.099998
 11
290.399933
 21
-43.099998
  0
LINE
  8
0
 10
289.500000
 20
-56.100063
 11
289.500000
 21
-52.100082
  0
LINE
  8
0
 10
281.500000
 20
-56.100094
 11
281.500000
 21
-52.100082
  0
LINE
  8
0
 10
285.500000
 20
-55.742855
 11
285.500000
 21
-53.100082
  0
LINE
  8
0
  6
CENTER
 62
     2
 10
281.662354
 20
-48.099998
 11
289.255798
 21
-48.099998
  0
LINE
  8
0
 10
290.399994
 20
-47.105087
 11
290.399994
 21
-43.100052
  0
LINE
  8
0
 10
280.600006
 20
-47.105087
 11
280.600006
 21
-43.100082
  0
LINE
  8
0
 10
288.499939
 20
-52.099998
 11
290.399933
 21
-52.099998
  0
LINE
  8
0
  6
CENTER
 62
     2
 10
205.000000
 20
53.401764
 11
205.000000
 21
-52.515041
  0
LINE
  8
0
 10
179.000000
 20
-55.780495
 11
179.000000
 21
-49.999992
  0
LINE
  8
0
 62
     2
 10
178.199997
 20
-55.780495
 11
178.199997
 21
-49.999992
  0
LINE
  8
0
 62
     2
 10
173.800003
 20
-55.780491
 11
173.800003
 21
-49.999989
  0
LINE
  8
0
 10
178.999985
 20
-55.780487
 11
172.999985
 21
-55.780487
  0
LINE
  8
0
 10
173.000000
 20
-55.780491
 11
173.000000
 21
-49.999989
  0
LINE
  8
0
  6
CENTER
 62
     2
 10
247.500000
 20
-38.117439
 11
247.500000
 21
-46.820744
  0
LINE
  8
0
  6
CENTER
 62
     2
 10
166.275970
 20
42.500015
 11
158.340607
 21
42.500015
  0
LINE
  8
0
  6
CENTER
 62
     2
 10
162.500000
 20
38.676426
 11
162.500000
 21
46.611790
  0
LINE
  8
0
  6
CENTER
 62
     2
 10
243.325806
 20
42.500015
 11
251.261169
 21
42.500015
  0
LINE
  8
0
  6
CENTER
 62
     2
 10
247.500000
 20
38.164452
 11
247.500000
 21
46.867752
  0
LINE
  8
0
 10
208.000000
 20
50.000000
 11
208.000000
 21
41.500000
  0
LINE
  8
0
 10
202.000000
 20
50.000000
 11
202.000000
 21
41.500000
  0
LINE
  8
0
  6
CENTER
 62
     2
 10
243.325775
 20
-42.499985
 11
251.005157
 21
-42.499985
  0
LINE
  8
0
 10
95.799736
 20
18.500015
 11
116.500000
 21
18.500015
  0
LINE
  8
0
 62
     2
 10
94.999748
 20
19.300003
 11
116.500000
 21
19.300003
  0
LINE
  8
0
 10
91.999748
 20
19.300003
 11
94.999748
 21
19.300003
  0
LINE
  8
0
 62
     2
 10
94.999748
 20
27.699997
 11
116.500000
 21
27.699997
  0
LINE
  8
0
 10
95.799736
 20
28.500015
 11
116.500000
 21
28.500015
  0
LINE
  8
0
 10
91.999748
 20
27.699997
 11
94.999748
 21
27.699997
  0
LINE
  8
0
 10
95.799461
 20
18.499737
 11
94.999458
 21
19.299742
  0
LINE
  8
0
 10
94.999748
 20
27.700027
 11
94.999748
 21
19.300034
  0
LINE
  8
0
 10
95.799736
 20
28.500044
 11
95.799736
 21
18.500044
  0
LINE
  8
0
 10
94.999886
 20
27.699858
 11
95.799889
 21
28.499863
  0
LINE
  8
0
 10
91.999786
 20
19.300060
 11
90.999786
 21
20.300062
  0
LINE
  8
0
 10
91.999870
 20
27.699945
 11
90.999870
 21
26.699944
  0
LINE
  8
0
 10
94.999748
 20
20.489609
 11
91.999748
 21
20.489609
  0
LINE
  8
0
 10
94.999748
 20
26.510391
 11
91.999748
 21
26.510391
  0
LINE
  8
0
 10
91.999748
 20
19.300035
 11
91.999748
 21
20.489641
  0
LINE
  8
0
 10
92.000359
 20
26.510422
 11
92.000359
 21
27.700027
  0
LINE
  8
0
 62
     2
 10
91.999763
 20
20.489660
 11
94.999763
 21
26.510460
  0
LINE
  8
0
 62
     2
 10
94.999817
 20
20.489605
 11
91.999802
 21
26.510439
  0
LINE
  8
0
 10
90.999870
 20
26.699997
 11
90.999870
 21
20.300097
  0
LINE
  8
0
 10
255.000000
 20
32.500015
 11
155.000000
 21
32.500015
  0
LINE
  8
0
 10
255.000000
 20
-32.499985
 11
155.000000
 21
-32.499985
  0
LINE
  8
0
 10
255.000000
 20
31.500015
 11
155.000000
 21
31.500015
  0
LINE
  8
0
 10
255.000000
 20
-31.499985
 11
155.000000
 21
-31.499985
  0
LINE
  8
0
 10
129.500000
 20
40.500034
 11
129.500000
 21
-40.499966
  0
LINE
  8
0
 10
280.500000
 20
40.499966
 11
280.500000
 21
-40.500034
  0
LINE
  8
0
  6
CENTER
 62
     2
 10
322.599457
 20
171.500015
 11
86.099457
 21
171.500015
  0
LINE
  8
0
 10
258.060608
 20
172.560593
 11
255.939285
 21
170.439270
  0
LINE
  8
0
 10
258.060699
 20
170.439392
 11
255.939392
 21
172.560715
  0
LINE
  8
0
 10
217.800003
 20
163.008667
 11
217.800003
 21
168.060547
  0
LINE
  8
0
 10
268.799896
 20
174.899933
 11
268.799896
 21
179.991180
  0
LINE
  8
0
 10
216.300034
 20
162.606735
 11
192.800034
 21
162.606735
  0
LINE
  8
0
 10
192.800003
 20
162.606750
 11
192.800003
 21
168.099976
  0
LINE
  8
0
 10
243.799896
 20
174.899963
 11
243.799896
 21
180.393112
  0
LINE
  8
0
 10
216.300003
 20
162.606750
 11
216.300003
 21
168.100006
  0
LINE
  8
0
 10
267.299896
 20
174.899933
 11
267.299896
 21
180.393097
  0
LINE
  8
0
 10
267.299927
 20
180.393127
 11
243.799927
 21
180.393127
  0
LINE
  8
0
 10
217.800018
 20
163.008652
 11
216.300018
 21
162.606735
  0
LINE
  8
0
 10
268.799988
 20
179.991348
 11
267.299988
 21
180.393280
  0
LINE
  8
0
 10
203.939423
 20
172.560760
 11
206.060745
 21
170.439438
  0
LINE
  8
0
 10
203.939346
 20
170.439377
 11
206.060654
 21
172.560684
  0
LINE
  8
0
 10
208.000031
 20
154.000015
 11
202.000031
 21
154.000015
  0
LINE
  8
0
 10
202.000000
 20
150.000000
 11
202.000000
 21
154.000000
  0
LINE
  8
0
 10
208.000000
 20
150.000000
 11
208.000000
 21
154.000000
  0
LINE
  8
0
 10
280.500031
 20
168.099991
 11
260.899933
 21
168.099991
  0
LINE
  8
0
 10
280.500031
 20
163.199997
 11
217.800034
 21
163.199997
  0
LINE
  8
0
 10
192.800034
 20
163.199997
 11
177.850006
 21
163.199997
  0
LINE
  8
0
 10
280.500031
 20
174.899979
 11
260.899933
 21
174.899979
  0
LINE
  8
0
 10
280.500031
 20
179.799927
 11
268.799927
 21
179.799927
  0
LINE
  8
0
  6
CENTER
 62
     2
 10
243.799927
 20
177.465408
 11
178.986786
 21
177.465408
  0
LINE
  8
0
 10
201.100037
 20
175.537552
 11
178.914642
 21
175.537552
  0
LINE
  8
0
 10
243.799927
 20
179.393265
 11
179.058929
 21
179.393265
  0
LINE
  8
0
 10
208.899994
 20
175.500000
 11
208.899994
 21
164.500000
  0
LINE
  8
0
 10
201.100006
 20
175.500000
 11
201.100006
 21
164.500000
  0
LINE
  8
0
 10
201.100037
 20
175.499954
 11
208.900024
 21
175.499954
  0
LINE
  8
0
 10
201.100037
 20
164.499954
 11
208.900024
 21
164.499954
  0
LINE
  8
0
 10
253.099945
 20
168.099991
 11
208.900024
 21
168.099991
  0
LINE
  8
0
 10
253.099945
 20
174.899979
 11
208.900024
 21
174.899979
  0
LINE
  8
0
 10
260.899872
 20
167.499908
 11
260.899872
 21
178.499908
  0
LINE
  8
0
 10
260.899933
 20
178.499939
 11
253.099945
 21
178.499939
  0
LINE
  8
0
 10
253.099884
 20
167.499908
 11
253.099884
 21
178.499908
  0
LINE
  8
0
 10
260.899933
 20
167.499939
 11
253.099945
 21
167.499939
  0
LINE
  8
0
 10
201.100037
 20
174.899979
 11
129.500031
 21
174.899979
  0
LINE
  8
0
 10
201.100037
 20
168.099991
 11
129.500031
 21
168.099991
  0
LINE
  8
0
 10
292.964172
 20
178.428177
 11
291.035736
 21
178.428177
  0
LINE
  8
0
 10
292.800079
 20
168.035904
 11
291.035980
 21
168.035904
  0
LINE
  8
0
 10
292.964264
 20
164.571762
 11
291.035919
 21
164.571762
  0
LINE
  8
0
 10
293.499969
 20
177.499985
 11
293.499969
 21
165.499969
  0
LINE
  8
0
 10
292.964020
 20
178.427917
 11
293.499908
 21
177.499741
  0
LINE
  8
0
 10
292.964172
 20
174.964127
 11
291.035980
 21
174.964127
  0
LINE
  8
0
 10
292.964417
 20
164.571686
 11
293.500305
 21
165.499878
  0
LINE
  8
0
 10
290.500031
 20
177.499985
 11
290.500031
 21
165.499969
  0
LINE
  8
0
 10
291.035736
 20
164.571594
 11
290.499817
 21
165.499832
  0
LINE
  8
0
 10
291.035858
 20
178.428162
 11
290.499939
 21
177.499924
  0
LINE
  8
0
 10
290.500031
 20
158.000015
 11
172.623688
 21
158.000015
  0
LINE
  8
0
 10
174.672073
 20
177.295013
 11
166.729767
 21
185.237320
  0
LINE
  8
0
 10
177.644821
 20
179.979172
 11
169.558228
 21
188.065765
  0
LINE
  8
0
 62
     2
 10
166.729614
 20
185.237274
 11
169.558044
 21
188.065704
  0
LINE
  8
0
  6
CENTER
 62
     2
 10
176.158417
 20
178.637085
 11
166.126312
 21
188.669189
  0
LINE
  8
0
 10
172.166901
 20
179.800003
 11
129.500031
 21
179.800003
  0
LINE
  8
0
 10
280.500031
 20
181.500015
 11
176.123932
 21
181.500015
  0
LINE
  8
0
 10
192.800034
 20
167.462448
 11
178.914642
 21
167.462448
  0
LINE
  8
0
  6
CENTER
 62
     2
 10
192.800034
 20
165.534592
 11
178.986786
 21
165.534592
  0
LINE
  8
0
 10
192.800034
 20
163.606735
 11
179.058929
 21
163.606735
  0
LINE
  8
0
 62
     2
 10
166.729767
 20
157.762909
 11
169.558197
 21
154.934479
  0
LINE
  8
0
 10
177.644684
 20
163.021042
 11
169.558090
 21
154.934464
  0
LINE
  8
0
  6
CENTER
 62
     2
 10
176.158371
 20
164.363129
 11
166.126236
 21
154.330994
  0
LINE
  8
0
 10
174.671967
 20
165.705215
 11
166.729660
 21
157.762909
  0
LINE
  8
0
 10
172.166901
 20
163.199997
 11
129.500031
 21
163.199997
  0
LINE
  8
0
 10
290.500000
 20
177.499985
 11
290.500000
 21
165.499969
  0
LINE
  8
0
 10
155.000061
 20
205.000015
 11
255.000061
 21
205.000015
  0
LINE
  8
0
 10
255.000031
 20
150.000000
 11
155.000031
 21
150.000000
  0
LINE
  8
0
 10
155.000061
 20
197.000000
 11
255.000061
 21
197.000000
  0
LINE
  8
0
 10
166.000031
 20
196.000000
 11
244.000031
 21
196.000000
  0
LINE
  8
0
 10
119.500038
 20
186.500000
 11
167.992401
 21
186.500000
  0
LINE
  8
0
  6
CENTER
 62
     2
 10
205.000000
 20
210.904907
 11
205.000000
 21
145.901306
  0
LINE
  8
0
 10
253.000000
 20
158.000000
 11
253.000000
 21
149.999969
  0
LINE
  8
0
 10
280.500000
 20
186.499969
 11
280.500000
 21
157.999985
  0
LINE
  8
0
 10
157.000000
 20
205.000000
 11
157.000000
 21
197.000000
  0
LINE
  8
0
 10
155.000000
 20
205.000000
 11
155.000000
 21
197.000000
  0
LINE
  8
0
 10
157.000000
 20
150.000000
 11
157.000000
 21
158.000000
  0
LINE
  8
0
 10
255.000000
 20
196.999969
 11
255.000000
 21
205.000000
  0
LINE
  8
0
 10
253.000000
 20
196.999969
 11
253.000000
 21
205.000000
  0
LINE
  8
0
 10
290.500000
 20
186.499969
 11
290.500000
 21
157.999969
  0
LINE
  8
0
 10
244.000000
 20
195.999985
 11
244.000000
 21
186.499985
  0
LINE
  8
0
 10
166.000000
 20
195.999985
 11
166.000000
 21
186.499985
  0
LINE
  8
0
 10
117.035927
 20
178.428177
 11
118.964363
 21
178.428177
  0
LINE
  8
0
 10
117.199989
 20
168.035904
 11
118.964088
 21
168.035904
  0
LINE
  8
0
 10
117.035805
 20
164.571762
 11
118.964149
 21
164.571762
  0
LINE
  8
0
 10
116.500008
 20
177.500015
 11
116.500008
 21
165.500031
  0
LINE
  8
0
 10
117.036064
 20
178.427933
 11
116.500183
 21
177.499741
  0
LINE
  8
0
 10
117.035896
 20
174.964127
 11
118.964088
 21
174.964127
  0
LINE
  8
0
 10
117.035667
 20
164.571716
 11
116.499779
 21
165.499893
  0
LINE
  8
0
 10
119.499977
 20
177.500015
 11
119.499977
 21
165.500031
  0
LINE
  8
0
 10
118.964355
 20
164.571640
 11
119.500275
 21
165.499878
  0
LINE
  8
0
 10
118.964180
 20
178.428207
 11
119.500099
 21
177.499969
  0
LINE
  8
0
 10
119.500008
 20
177.500015
 11
119.500008
 21
165.500031
  0
LINE
  8
0
 10
119.500008
 20
186.500000
 11
119.500008
 21
158.000031
  0
LINE
  8
0
 10
171.123932
 20
186.500000
 11
290.500031
 21
186.500000
  0
LINE
  8
0
 10
243.799927
 20
179.800034
 11
177.850006
 21
179.800034
  0
LINE
  8
0
 10
170.467072
 20
181.500015
 11
129.500031
 21
181.500015
  0
LINE
  8
0
 10
166.966797
 20
158.000015
 11
119.500038
 21
158.000015
  0
LINE
  8
0
 10
170.467072
 20
161.500015
 11
129.500031
 21
161.500015
  0
LINE
  8
0
 10
280.500031
 20
161.500015
 11
176.123901
 21
161.500015
  0
LINE
  8
0
 10
129.500000
 20
158.000015
 11
129.500000
 21
186.500000
  0
LINE
  8
0
 10
155.000000
 20
158.000000
 11
155.000000
 21
150.000000
  0
LINE
  8
0
 10
255.000000
 20
158.000000
 11
255.000000
 21
149.999969
  0
LINE
  8
0
 10
95.799782
 20
166.500015
 11
116.500046
 21
166.500015
  0
LINE
  8
0
 62
     2
 10
94.999794
 20
167.300003
 11
116.500046
 21
167.300003
  0
LINE
  8
0
 10
90.999916
 20
167.300003
 11
94.999794
 21
167.300003
  0
LINE
  8
0
 62
     2
 10
94.999794
 20
175.699997
 11
116.500046
 21
175.699997
  0
LINE
  8
0
 10
95.799782
 20
176.500015
 11
116.500046
 21
176.500015
  0
LINE
  8
0
 10
90.999916
 20
175.699997
 11
94.999794
 21
175.699997
  0
LINE
  8
0
 10
95.799515
 20
166.499741
 11
94.999512
 21
167.299744
  0
LINE
  8
0
 10
94.999794
 20
175.700027
 11
94.999794
 21
167.300034
  0
LINE
  8
0
 10
95.799782
 20
176.500046
 11
95.799782
 21
166.500046
  0
LINE
  8
0
 10
94.999939
 20
175.699829
 11
95.799942
 21
176.499832
  0
LINE
  8
0
 10
91.999794
 20
167.300034
 11
91.999794
 21
175.699997
  0
LINE
  8
0
 10
90.999916
 20
175.699997
 11
90.999916
 21
167.300003
  0
LINE
  8
0
 10
314.200226
 20
166.500015
 11
293.499939
 21
166.500015
  0
LINE
  8
0
 62
     2
 10
315.000214
 20
167.300003
 11
293.499939
 21
167.300003
  0
LINE
  8
0
 10
319.000092
 20
167.300003
 11
315.000214
 21
167.300003
  0
LINE
  8
0
 62
     2
 10
315.000214
 20
175.699997
 11
293.499939
 21
175.699997
  0
LINE
  8
0
 10
314.200226
 20
176.500015
 11
293.499939
 21
176.500015
  0
LINE
  8
0
 10
319.000092
 20
175.699997
 11
315.000214
 21
175.699997
  0
LINE
  8
0
 10
314.200500
 20
166.499756
 11
315.000519
 21
167.299744
  0
LINE
  8
0
 10
315.000214
 20
175.700027
 11
315.000214
 21
167.300034
  0
LINE
  8
0
 10
314.200226
 20
176.500046
 11
314.200226
 21
166.500046
  0
LINE
  8
0
 10
315.000061
 20
175.699844
 11
314.200073
 21
176.499847
  0
LINE
  8
0
 10
318.000214
 20
167.300034
 11
318.000214
 21
175.699997
  0
LINE
  8
0
 10
319.000092
 20
175.699997
 11
319.000092
 21
167.300003
  0
LINE
  8
0
  6
CENTER
 62
     2
 10
162.500000
 20
209.058548
 11
162.500000
 21
194.342133
  0
LINE
  8
0
  6
CENTER
 62
     2
 10
172.500000
 20
209.307983
 11
172.500000
 21
194.342133
  0
LINE
  8
0
  6
CENTER
 62
     2
 10
162.500000
 20
159.671249
 11
162.500000
 21
146.451416
  0
LINE
  8
0
  6
CENTER
 62
     2
 10
247.500000
 20
209.058548
 11
247.500000
 21
194.342133
  0
LINE
  8
0
  6
CENTER
 62
     2
 10
237.500000
 20
209.307983
 11
237.500000
 21
194.342133
  0
LINE
  8
0
  6
CENTER
 62
     2
 10
247.500000
 20
159.671249
 11
247.500000
 21
146.451416
  0
LINE
  8
0
 10
281.500061
 20
-183.809387
 11
285.500031
 21
-186.118774
  0
LINE
  8
0
 10
285.500031
 20
-176.881134
 11
289.500000
 21
-179.190521
  0
LINE
  8
0
 10
289.500000
 20
-183.809464
 11
289.500000
 21
-179.190659
  0
LINE
  8
0
 10
281.500000
 20
-183.809494
 11
281.500000
 21
-179.190689
  0
LINE
  8
0
 10
285.499969
 20
-186.118866
 11
289.499969
 21
-183.809464
  0
LINE
  8
0
 10
281.500031
 20
-179.190704
 11
285.500031
 21
-176.881302
  0
LINE
  8
0
 10
290.399994
 20
-181.500076
 11
290.399994
 21
-166.000076
  0
LINE
  8
0
 10
290.499969
 20
-161.500015
 11
280.499969
 21
-161.500015
  0
LINE
  8
0
 10
290.499969
 20
-163.100021
 11
280.499969
 21
-163.100021
  0
LINE
  8
0
 10
288.899994
 20
-177.971634
 11
288.899994
 21
-175.500076
  0
LINE
  8
0
 10
290.399963
 20
-174.000015
 11
280.599976
 21
-174.000015
  0
LINE
  8
0
 10
288.899963
 20
-175.500015
 11
282.099976
 21
-175.500015
  0
LINE
  8
0
 10
290.399963
 20
-166.000015
 11
280.599976
 21
-166.000015
  0
LINE
  8
0
 10
290.249969
 20
-164.400009
 11
280.749969
 21
-164.400009
  0
LINE
  8
0
 10
290.500000
 20
-163.100082
 11
290.500000
 21
-161.500076
  0
LINE
  8
0
 10
290.250000
 20
-166.000076
 11
290.250000
 21
-164.400070
  0
LINE
  8
0
 10
280.500000
 20
-163.100082
 11
280.500000
 21
-161.500076
  0
LINE
  8
0
 10
280.750000
 20
-166.000076
 11
280.750000
 21
-164.400040
  0
LINE
  8
0
 10
280.600006
 20
-181.500076
 11
280.600006
 21
-166.000076
  0
LINE
  8
0
 10
282.100006
 20
-177.971634
 11
282.100006
 21
-175.500076
  0
LINE
  8
0
 10
288.750000
 20
-164.400070
 11
288.750000
 21
-163.100082
  0
LINE
  8
0
 10
282.250000
 20
-164.400070
 11
282.250000
 21
-163.100082
  0
LINE
  8
0
 10
290.400177
 20
-174.000305
 11
288.900146
 21
-175.500320
  0
LINE
  8
0
 10
280.600098
 20
-173.999924
 11
282.100098
 21
-175.499908
  0
LINE
  8
0
 10
234.942871
 20
-201.633102
 11
233.057068
 21
-201.633102
  0
LINE
  8
0
 10
234.942871
 20
-198.366867
 11
233.057068
 21
-198.366867
  0
LINE
  8
0
 10
234.942856
 20
-201.633148
 11
235.885757
 21
-200.000000
  0
LINE
  8
0
 10
232.114197
 20
-200.000046
 11
233.057083
 21
-198.366928
  0
LINE
  8
0
 10
235.885773
 20
-199.999969
 11
234.942886
 21
-198.366837
  0
LINE
  8
0
 10
233.057144
 20
-201.633179
 11
232.114258
 21
-200.000046
  0
LINE
  8
0
 10
238.800018
 20
-202.771301
 11
238.800018
 21
-197.228760
  0
LINE
  8
0
 10
229.200012
 20
-202.771301
 11
229.200012
 21
-197.228760
  0
LINE
  8
0
 10
238.799957
 20
-202.771301
 11
233.999954
 21
-205.542572
  0
LINE
  8
0
 10
233.999969
 20
-194.457474
 11
229.199966
 21
-197.228745
  0
LINE
  8
0
 10
233.999908
 20
-205.542587
 11
229.199936
 21
-202.771317
  0
LINE
  8
0
 10
238.799942
 20
-197.228729
 11
233.999969
 21
-194.457458
  0
LINE
  8
0
 10
314.199951
 20
-186.500015
 11
290.499969
 21
-186.500015
  0
LINE
  8
0
 62
     2
 10
314.999939
 20
-185.700027
 11
290.499969
 21
-185.700027
  0
LINE
  8
0
 62
     2
 10
314.999939
 20
-177.300034
 11
290.499939
 21
-177.300034
  0
LINE
  8
0
 10
314.199951
 20
-176.500015
 11
290.399963
 21
-176.500015
  0
LINE
  8
0
 10
318.999969
 20
-177.500046
 11
318.999969
 21
-185.500046
  0
LINE
  8
0
 10
314.200348
 20
-186.500565
 11
315.000336
 21
-185.700577
  0
LINE
  8
0
 10
314.999969
 20
-177.300095
 11
314.999969
 21
-185.700089
  0
LINE
  8
0
 10
314.199982
 20
-176.500076
 11
314.199982
 21
-186.500076
  0
LINE
  8
0
 10
314.999817
 20
-177.300354
 11
314.199829
 21
-176.500336
  0
LINE
  8
0
 10
317.999969
 20
-185.500046
 11
317.999969
 21
-177.500046
  0
LINE
  8
0
 10
314.999939
 20
-185.500015
 11
318.999939
 21
-185.500015
  0
LINE
  8
0
 10
314.999939
 20
-177.500015
 11
318.999939
 21
-177.500015
  0
LINE
  8
0
  6
CENTER
 62
     2
 10
323.449158
 20
-181.500015
 11
84.723846
 21
-181.500015
  0
LINE
  8
0
 10
280.499969
 20
-168.000015
 11
129.499969
 21
-168.000015
  0
LINE
  8
0
 10
154.999969
 20
-215.000015
 11
254.999969
 21
-215.000015
  0
LINE
  8
0
 10
254.999969
 20
-160.000000
 11
154.999969
 21
-160.000000
  0
LINE
  8
0
 10
154.999969
 20
-207.000000
 11
254.999969
 21
-207.000000
  0
LINE
  8
0
 10
165.999969
 20
-206.000000
 11
243.999969
 21
-206.000000
  0
LINE
  8
0
  6
CENTER
 62
     2
 10
205.000000
 20
-220.904938
 11
205.000000
 21
-155.901337
  0
LINE
  8
0
 10
253.000000
 20
-168.000031
 11
253.000000
 21
-160.000031
  0
LINE
  8
0
 10
280.500000
 20
-196.500046
 11
280.500000
 21
-166.000046
  0
LINE
  8
0
 10
157.000000
 20
-215.000031
 11
157.000000
 21
-207.000000
  0
LINE
  8
0
 10
155.000000
 20
-215.000031
 11
155.000000
 21
-207.000000
  0
LINE
  8
0
 10
157.000000
 20
-160.000000
 11
157.000000
 21
-168.000031
  0
LINE
  8
0
 10
155.000000
 20
-160.000000
 11
155.000000
 21
-168.000031
  0
LINE
  8
0
 10
255.000000
 20
-207.000031
 11
255.000000
 21
-215.000031
  0
LINE
  8
0
 10
253.000000
 20
-207.000031
 11
253.000000
 21
-215.000031
  0
LINE
  8
0
 10
244.000000
 20
-206.000015
 11
244.000000
 21
-196.500015
  0
LINE
  8
0
 10
166.000000
 20
-206.000015
 11
166.000000
 21
-196.500015
  0
LINE
  8
0
 10
243.999969
 20
-196.500000
 11
290.499969
 21
-196.500000
  0
LINE
  8
0
 10
290.500000
 20
-196.500046
 11
290.500000
 21
-168.000046
  0
LINE
  8
0
 10
119.500008
 20
-196.499985
 11
119.500008
 21
-168.000015
  0
LINE
  8
0
 10
175.057068
 20
-201.633102
 11
176.942871
 21
-201.633102
  0
LINE
  8
0
 10
175.057068
 20
-198.366867
 11
176.942841
 21
-198.366867
  0
LINE
  8
0
 10
175.057022
 20
-201.633209
 11
174.114105
 21
-200.000061
  0
LINE
  8
0
 10
177.885696
 20
-200.000092
 11
176.942810
 21
-198.366959
  0
LINE
  8
0
 10
174.114166
 20
-199.999924
 11
175.057053
 21
-198.366806
  0
LINE
  8
0
 10
176.942810
 20
-201.633194
 11
177.885696
 21
-200.000061
  0
LINE
  8
0
 10
171.199982
 20
-202.771301
 11
171.199982
 21
-197.228760
  0
LINE
  8
0
 10
180.799988
 20
-202.771301
 11
180.799988
 21
-197.228760
  0
LINE
  8
0
 10
171.199997
 20
-202.771271
 11
175.999985
 21
-205.542542
  0
LINE
  8
0
 10
176.000015
 20
-194.457428
 11
180.799988
 21
-197.228699
  0
LINE
  8
0
 10
176.000000
 20
-205.542618
 11
180.799973
 21
-202.771347
  0
LINE
  8
0
 10
171.199951
 20
-197.228714
 11
175.999954
 21
-194.457428
  0
LINE
  8
0
 10
165.999969
 20
-196.500000
 11
119.599968
 21
-196.500000
  0
LINE
  8
0
 10
128.499893
 20
-183.809357
 11
124.499893
 21
-186.118759
  0
LINE
  8
0
 10
124.499908
 20
-176.881134
 11
120.499931
 21
-179.190521
  0
LINE
  8
0
 10
120.500008
 20
-183.809402
 11
120.500008
 21
-179.190598
  0
LINE
  8
0
 10
128.500000
 20
-183.809433
 11
128.500000
 21
-179.190628
  0
LINE
  8
0
 10
124.500023
 20
-186.118790
 11
120.500023
 21
-183.809387
  0
LINE
  8
0
 10
128.500000
 20
-179.190628
 11
124.500000
 21
-176.881210
  0
LINE
  8
0
 10
119.600014
 20
-181.500015
 11
119.600014
 21
-166.000015
  0
LINE
  8
0
 10
119.499977
 20
-161.500015
 11
129.499969
 21
-161.500015
  0
LINE
  8
0
 10
119.499977
 20
-163.100021
 11
129.499969
 21
-163.100021
  0
LINE
  8
0
 10
121.100014
 20
-177.971573
 11
121.100014
 21
-175.500015
  0
LINE
  8
0
 10
119.599983
 20
-174.000015
 11
129.399963
 21
-174.000015
  0
LINE
  8
0
 10
121.099983
 20
-175.500015
 11
127.899971
 21
-175.500015
  0
LINE
  8
0
 10
119.599983
 20
-166.000015
 11
129.399963
 21
-166.000015
  0
LINE
  8
0
 10
119.749977
 20
-164.400009
 11
129.249969
 21
-164.400009
  0
LINE
  8
0
 10
119.500008
 20
-163.100021
 11
119.500008
 21
-161.500015
  0
LINE
  8
0
 10
119.750008
 20
-166.000015
 11
119.750008
 21
-164.400009
  0
LINE
  8
0
 10
129.500000
 20
-163.100021
 11
129.500000
 21
-161.500015
  0
LINE
  8
0
 10
129.250000
 20
-166.000015
 11
129.250000
 21
-163.100021
  0
LINE
  8
0
 10
129.399994
 20
-181.500015
 11
129.399994
 21
-166.000015
  0
LINE
  8
0
 10
127.900002
 20
-177.971573
 11
127.900002
 21
-175.500015
  0
LINE
  8
0
 10
121.250008
 20
-164.400009
 11
121.250008
 21
-163.100021
  0
LINE
  8
0
 10
127.750008
 20
-164.400009
 11
127.750008
 21
-163.100021
  0
LINE
  8
0
 10
119.599754
 20
-174.000259
 11
121.099762
 21
-175.500275
  0
LINE
  8
0
 10
129.399826
 20
-173.999878
 11
127.899841
 21
-175.499863
  0
LINE
  8
0
 10
95.799980
 20
-186.500015
 11
119.499962
 21
-186.500015
  0
LINE
  8
0
 62
     2
 10
94.999992
 20
-185.700027
 11
119.499962
 21
-185.700027
  0
LINE
  8
0
 62
     2
 10
94.999992
 20
-177.300034
 11
119.499992
 21
-177.300034
  0
LINE
  8
0
 10
95.799995
 20
-176.500015
 11
119.599983
 21
-176.500015
  0
LINE
  8
0
 10
91.000038
 20
-177.500015
 11
91.000038
 21
-185.500015
  0
LINE
  8
0
 10
95.799637
 20
-186.500458
 11
94.999657
 21
-185.700485
  0
LINE
  8
0
 10
95.000038
 20
-177.300034
 11
95.000038
 21
-185.700027
  0
LINE
  8
0
 10
95.800026
 20
-176.500046
 11
95.800026
 21
-186.500046
  0
LINE
  8
0
 10
95.000153
 20
-177.300278
 11
95.800179
 21
-176.500259
  0
LINE
  8
0
 10
92.000038
 20
-185.500015
 11
92.000038
 21
-177.500015
  0
LINE
  8
0
 10
94.999992
 20
-185.500015
 11
90.999992
 21
-185.500015
  0
LINE
  8
0
 10
94.999992
 20
-177.500015
 11
90.999992
 21
-177.500015
  0
LINE
  8
0
 10
129.500000
 20
-168.000015
 11
129.500000
 21
-196.499985
  0
LINE
  8
0
 10
255.000000
 20
-160.000031
 11
255.000000
 21
-168.000031
  0
LINE
  8
0
  6
CENTER
 62
     2
 10
162.500000
 20
-156.466660
 11
162.500000
 21
-170.794098
  0
LINE
  8
0
  6
CENTER
 62
     2
 10
162.500000
 20
-217.975800
 11
162.500000
 21
-204.389450
  0
LINE
  8
0
  6
CENTER
 62
     2
 10
172.500000
 20
-217.728790
 11
172.500000
 21
-204.142426
  0
LINE
  8
0
  6
CENTER
 62
     2
 10
247.500000
 20
-156.466660
 11
247.500000
 21
-170.794098
  0
LINE
  8
0
  6
CENTER
 62
     2
 10
247.500000
 20
-217.975800
 11
247.500000
 21
-204.389450
  0
LINE
  8
0
  6
CENTER
 62
     2
 10
237.500000
 20
-217.728790
 11
237.500000
 21
-204.142426
  0
LINE
  8
0
 10
-200.000000
 20
48.000031
 11
-200.000000
 21
-47.999969
  0
LINE
  8
0
 10
-300.000000
 20
48.000031
 11
-300.000000
 21
-47.999969
  0
LINE
  8
0
 10
-298.000061
 20
50.000000
 11
-202.000061
 21
50.000000
  0
LINE
  8
0
 10
-164.500000
 20
40.500031
 11
-164.500000
 21
-40.499969
  0
LINE
  8
0
 10
-161.499939
 20
30.500031
 11
-161.499939
 21
16.500031
  0
LINE
  8
0
 10
-163.874817
 20
27.541443
 11
-162.125244
 21
27.541443
  0
LINE
  8
0
 10
-163.874817
 20
31.582886
 11
-162.125244
 21
31.582886
  0
LINE
  8
0
 10
-162.125122
 20
31.583160
 11
-161.499878
 21
30.500208
  0
LINE
  8
0
 10
-163.874817
 20
15.417114
 11
-162.125244
 21
15.417114
  0
LINE
  8
0
 10
-163.874878
 20
19.458557
 11
-162.125244
 21
19.458557
  0
LINE
  8
0
 10
-162.125229
 20
15.417128
 11
-161.499985
 21
16.499992
  0
LINE
  8
0
 10
-298.000061
 20
-50.000000
 11
-202.000061
 21
-50.000000
  0
LINE
  8
0
 10
-276.000000
 20
-55.780487
 11
-276.000000
 21
-49.999969
  0
LINE
  8
0
 62
     2
 10
-276.799988
 20
-55.780487
 11
-276.799988
 21
-49.999969
  0
LINE
  8
0
 10
-282.000000
 20
-55.780487
 11
-282.000000
 21
-49.999969
  0
LINE
  8
0
 62
     2
 10
-281.199951
 20
-55.780487
 11
-281.199951
 21
-49.999969
  0
LINE
  8
0
 10
-276.000031
 20
-55.780502
 11
-282.000000
 21
-55.780502
  0
LINE
  8
0
 10
-215.093964
 20
-13.592332
 11
-227.013031
 21
-8.655257
  0
LINE
  8
0
 10
-215.706268
 20
-15.070600
 11
-227.625443
 21
-10.133533
  0
LINE
  8
0
  6
CENTER
 62
     2
 10
-223.458313
 20
-32.500000
 11
-212.131348
 21
-32.500000
  0
LINE
  8
0
  6
CENTER
 62
     2
 10
-217.500000
 20
-27.277618
 11
-217.500000
 21
-38.818329
  0
LINE
  8
0
  6
CENTER
 62
     2
 10
-207.500000
 20
3.925049
 11
-207.500000
 21
-3.341339
  0
LINE
  8
0
  6
CENTER
 62
     2
 10
-217.500000
 20
3.925049
 11
-217.500000
 21
-3.341339
  0
LINE
  8
0
  6
CENTER
 62
     2
 10
-213.841125
 20
42.500000
 11
-200.804382
 21
42.500000
  0
LINE
  8
0
  6
CENTER
 62
     2
 10
-207.500000
 20
35.398895
 11
-207.500000
 21
49.076782
  0
LINE
  8
0
  6
CENTER
 62
     2
 10
-217.500000
 20
27.277679
 11
-217.500000
 21
38.818359
  0
LINE
  8
0
  6
CENTER
 62
     2
 10
-223.458374
 20
32.500000
 11
-212.131348
 21
32.500000
  0
LINE
  8
0
 10
-163.874725
 20
15.417150
 11
-164.499908
 21
16.500048
  0
LINE
  8
0
 10
-163.874725
 20
31.582874
 11
-164.499939
 21
30.499989
  0
LINE
  8
0
  6
CENTER
 62
     2
 10
-250.000000
 20
53.401794
 11
-250.000000
 21
-52.515015
  0
LINE
  8
0
 10
-200.000061
 20
40.500000
 11
-164.500061
 21
40.500000
  0
LINE
  8
0
 10
-200.000061
 20
-40.500000
 11
-164.500061
 21
-40.500000
  0
LINE
  8
0
  6
CENTER
 62
     2
 10
-340.993164
 20
0.000000
 11
-160.000061
 21
0.000000
  0
LINE
  8
0
 10
-200.000061
 20
-39.500000
 11
-164.500061
 21
-39.500000
  0
LINE
  8
0
 10
-200.000061
 20
39.500000
 11
-164.500061
 21
39.500000
  0
LINE
  8
0
  6
CENTER
 62
     2
 10
-213.841064
 20
-42.500000
 11
-200.804321
 21
-42.500000
  0
LINE
  8
0
  6
CENTER
 62
     2
 10
-207.500000
 20
-35.398834
 11
-207.500000
 21
-49.076721
  0
LINE
  8
0
 10
-200.000061
 20
47.999863
 11
-202.000092
 21
49.999924
  0
LINE
  8
0
 10
-298.000000
 20
49.999924
 11
-300.000000
 21
47.999920
  0
LINE
  8
0
 10
-297.999939
 20
-49.999817
 11
-299.999878
 21
-47.999844
  0
LINE
  8
0
 10
-199.999939
 20
-47.999954
 11
-201.999939
 21
-49.999954
  0
LINE
  8
0
 10
-167.499969
 20
-69.000008
 11
-171.499969
 21
-69.000008
  0
LINE
  8
0
 10
-172.000000
 20
-68.500023
 11
-172.000000
 21
-65.500023
  0
LINE
  8
0
 10
-167.000000
 20
-68.500023
 11
-167.000000
 21
-65.500023
  0
LINE
  8
0
 10
-171.999847
 20
-68.500031
 11
-171.499847
 21
-69.000015
  0
LINE
  8
0
 10
-167.500122
 20
-68.999702
 11
-167.000168
 21
-68.499733
  0
LINE
  8
0
 10
-167.499969
 20
-65.000008
 11
-171.499969
 21
-65.000008
  0
LINE
  8
0
 10
-166.999786
 20
-65.499825
 11
-167.499756
 21
-64.999855
  0
LINE
  8
0
 10
-171.500153
 20
-64.999931
 11
-172.000153
 21
-65.499916
  0
LINE
  8
0
 10
-166.999969
 20
-68.500008
 11
-171.999969
 21
-68.500008
  0
LINE
  8
0
 10
-166.999969
 20
-65.500008
 11
-171.999969
 21
-65.500008
  0
LINE
  8
0
 62
     2
 10
-169.000000
 20
-68.500023
 11
-169.000000
 21
-65.500023
  0
LINE
  8
0
 10
-165.600037
 20
-41.600006
 11
-173.400024
 21
-41.600006
  0
LINE
  8
0
 10
-165.499969
 20
-56.100021
 11
-173.499969
 21
-56.100021
  0
LINE
  8
0
 10
-165.999969
 20
-56.900009
 11
-172.999969
 21
-56.900009
  0
LINE
  8
0
 10
-165.999969
 20
-59.400009
 11
-172.999969
 21
-59.400009
  0
LINE
  8
0
 10
-173.500000
 20
-58.899979
 11
-173.500000
 21
-57.399979
  0
LINE
  8
0
 10
-165.500000
 20
-58.899979
 11
-165.500000
 21
-57.399979
  0
LINE
  8
0
 10
-173.499802
 20
-58.899796
 11
-172.999832
 21
-59.399765
  0
LINE
  8
0
 10
-166.000092
 20
-59.399837
 11
-165.500092
 21
-58.899853
  0
LINE
  8
0
 10
-165.500031
 20
-57.400063
 11
-166.000046
 21
-56.900043
  0
LINE
  8
0
 10
-173.000381
 20
-56.899666
 11
-173.500473
 21
-57.399727
  0
LINE
  8
0
 62
     2
 10
-166.500000
 20
-58.899979
 11
-166.500000
 21
-57.399979
  0
LINE
  8
0
 62
     2
 10
-167.500000
 20
-58.899979
 11
-167.500000
 21
-57.399979
  0
LINE
  8
0
 62
     2
 10
-168.500000
 20
-58.899979
 11
-168.500000
 21
-57.399979
  0
LINE
  8
0
 10
-165.499969
 20
-58.900009
 11
-173.499969
 21
-58.900009
  0
LINE
  8
0
 10
-165.499969
 20
-57.400009
 11
-173.499969
 21
-57.400009
  0
LINE
  8
0
 10
-172.000000
 20
-56.899979
 11
-172.000000
 21
-56.099991
  0
LINE
  8
0
 10
-167.000000
 20
-56.899979
 11
-167.000000
 21
-56.099991
  0
LINE
  8
0
 10
-168.000000
 20
-65.000023
 11
-168.000000
 21
-59.399979
  0
LINE
  8
0
 10
-171.000000
 20
-65.000023
 11
-171.000000
 21
-59.399979
  0
LINE
  8
0
 62
     2
 10
-170.729492
 20
-65.000023
 11
-170.729492
 21
-59.399979
  0
LINE
  8
0
 62
     2
 10
-168.270508
 20
-65.000023
 11
-168.270508
 21
-59.399979
  0
LINE
  8
0
 62
     2
 10
-168.000000
 20
-68.500023
 11
-168.000000
 21
-65.500023
  0
LINE
  8
0
 10
-172.750000
 20
-43.100006
 11
-172.750000
 21
-41.600006
  0
LINE
  8
0
 10
-166.250000
 20
-43.100006
 11
-166.250000
 21
-41.600006
  0
LINE
  8
0
 10
-173.399963
 20
-41.600006
 11
-173.399963
 21
-40.499969
  0
LINE
  8
0
 10
-165.599976
 20
-41.600006
 11
-165.599976
 21
-40.499969
  0
LINE
  8
0
 10
-174.399963
 20
-52.099960
 11
-174.399963
 21
-49.094986
  0
LINE
  8
0
 10
-164.600006
 20
-52.100006
 11
-174.500031
 21
-52.100006
  0
LINE
  8
0
 10
-164.600037
 20
-43.100006
 11
-174.400024
 21
-43.100006
  0
LINE
  8
0
 10
-173.500000
 20
-56.099960
 11
-173.500000
 21
-52.099991
  0
LINE
  8
0
 10
-165.500000
 20
-56.099991
 11
-165.500000
 21
-52.099991
  0
LINE
  8
0
 10
-169.500000
 20
-55.742752
 11
-169.500000
 21
-53.099991
  0
LINE
  8
0
 10
-164.599976
 20
-52.099960
 11
-164.599976
 21
-43.100006
  0
LINE
  8
0
  6
CENTER
 62
     2
 10
-292.500000
 20
-3.924988
 11
-292.500000
 21
3.341370
  0
LINE
  8
0
  6
CENTER
 62
     2
 10
-282.500000
 20
-3.924988
 11
-282.500000
 21
3.341370
  0
LINE
  8
0
  6
CENTER
 62
     2
 10
-276.541748
 20
-32.500000
 11
-287.868774
 21
-32.500000
  0
LINE
  8
0
  6
CENTER
 62
     2
 10
-282.500000
 20
-27.277618
 11
-282.500000
 21
-38.818329
  0
LINE
  8
0
  6
CENTER
 62
     2
 10
-292.500000
 20
-35.398834
 11
-292.500000
 21
-49.076721
  0
LINE
  8
0
  6
CENTER
 62
     2
 10
-286.158997
 20
-42.500000
 11
-299.195740
 21
-42.500000
  0
LINE
  8
0
  6
CENTER
 62
     2
 10
-286.159058
 20
42.500000
 11
-299.195801
 21
42.500000
  0
LINE
  8
0
  6
CENTER
 62
     2
 10
-292.500000
 20
35.398895
 11
-292.500000
 21
49.076782
  0
LINE
  8
0
  6
CENTER
 62
     2
 10
-276.541809
 20
32.500000
 11
-287.868774
 21
32.500000
  0
LINE
  8
0
  6
CENTER
 62
     2
 10
-282.500000
 20
27.277679
 11
-282.500000
 21
38.818359
  0
LINE
  8
0
 10
-218.000000
 20
-55.780487
 11
-218.000000
 21
-49.999969
  0
LINE
  8
0
 62
     2
 10
-218.799988
 20
-55.780487
 11
-218.799988
 21
-49.999969
  0
LINE
  8
0
 62
     2
 10
-223.200012
 20
-55.780487
 11
-223.200012
 21
-49.999969
  0
LINE
  8
0
 10
-224.000000
 20
-55.780487
 11
-224.000000
 21
-49.999969
  0
LINE
  8
0
 10
-224.000031
 20
-55.780502
 11
-218.000031
 21
-55.780502
  0
LINE
  8
0
 10
-265.071136
 20
34.293514
 11
-260.134094
 21
22.374428
  0
LINE
  8
0
 10
-263.592896
 20
34.905869
 11
-258.655823
 21
22.986771
  0
LINE
  8
0
  6
CENTER
 62
     2
 10
-286.798798
 20
15.242438
 11
-270.280212
 21
8.400251
  0
LINE
  8
0
  6
CENTER
 62
     2
 10
-265.242615
 20
36.798515
 11
-258.400421
 21
20.279932
  0
LINE
  8
0
  6
CENTER
 62
     2
 10
-234.757996
 20
36.798779
 11
-241.600220
 21
20.280136
  0
LINE
  8
0
  6
CENTER
 62
     2
 10
-213.201614
 20
15.242850
 11
-229.720184
 21
8.400620
  0
LINE
  8
0
  6
CENTER
 62
     2
 10
-213.201248
 20
-15.242061
 11
-229.719864
 21
-8.399840
  0
LINE
  8
0
  6
CENTER
 62
     2
 10
-234.757095
 20
-36.798401
 11
-241.599304
 21
-20.279795
  0
LINE
  8
0
  6
CENTER
 62
     2
 10
-265.242096
 20
-36.798691
 11
-258.399872
 21
-20.280111
  0
LINE
  8
0
  6
CENTER
 62
     2
 10
-286.798553
 20
-15.242554
 11
-270.279999
 21
-8.400309
  0
LINE
  8
0
 10
-174.399963
 20
-52.099960
 11
-174.399963
 21
-43.100006
  0
LINE
  8
0
 10
-174.500000
 20
40.500031
 11
-174.500000
 21
-40.499969
  0
LINE
  8
0
 10
-335.500000
 20
40.500031
 11
-335.500000
 21
-40.499969
  0
LINE
  8
0
 10
-338.500061
 20
30.500031
 11
-338.500061
 21
16.500031
  0
LINE
  8
0
 10
-336.125183
 20
27.541443
 11
-337.874756
 21
27.541443
  0
LINE
  8
0
 10
-336.125183
 20
31.582886
 11
-337.874756
 21
31.582886
  0
LINE
  8
0
 10
-337.874695
 20
31.583099
 11
-338.499939
 21
30.500145
  0
LINE
  8
0
 10
-336.125183
 20
15.417114
 11
-337.874756
 21
15.417114
  0
LINE
  8
0
 10
-336.125122
 20
19.458557
 11
-337.874756
 21
19.458557
  0
LINE
  8
0
 10
-337.874817
 20
15.417096
 11
-338.500092
 21
16.499975
  0
LINE
  8
0
 10
-336.125244
 20
15.417094
 11
-335.500061
 21
16.499981
  0
LINE
  8
0
 10
-336.125092
 20
31.582937
 11
-335.499908
 21
30.500053
  0
LINE
  8
0
 10
-299.999939
 20
40.500000
 11
-335.499939
 21
40.500000
  0
LINE
  8
0
 10
-299.999939
 20
-40.500000
 11
-335.499939
 21
-40.500000
  0
LINE
  8
0
 10
-299.999939
 20
-39.500000
 11
-335.499939
 21
-39.500000
  0
LINE
  8
0
 10
-299.999939
 20
39.500000
 11
-335.499939
 21
39.500000
  0
LINE
  8
0
 10
-332.500000
 20
-69.000008
 11
-328.500000
 21
-69.000008
  0
LINE
  8
0
 10
-328.000000
 20
-68.500023
 11
-328.000000
 21
-65.500023
  0
LINE
  8
0
 10
-333.000000
 20
-68.500023
 11
-333.000000
 21
-65.500023
  0
LINE
  8
0
 10
-328.000092
 20
-68.500069
 11
-328.500092
 21
-69.000053
  0
LINE
  8
0
 10
-332.499847
 20
-68.999672
 11
-332.999786
 21
-68.499710
  0
LINE
  8
0
 10
-332.500000
 20
-65.000008
 11
-328.500000
 21
-65.000008
  0
LINE
  8
0
 10
-333.000214
 20
-65.499825
 11
-332.500214
 21
-64.999847
  0
LINE
  8
0
 10
-328.499847
 20
-64.999916
 11
-327.999847
 21
-65.499901
  0
LINE
  8
0
 10
-333.000000
 20
-68.500008
 11
-328.000000
 21
-68.500008
  0
LINE
  8
0
 10
-333.000000
 20
-65.500008
 11
-328.000000
 21
-65.500008
  0
LINE
  8
0
 62
     2
 10
-331.000000
 20
-68.500023
 11
-331.000000
 21
-65.500023
  0
LINE
  8
0
 10
-334.399963
 20
-41.600006
 11
-326.599976
 21
-41.600006
  0
LINE
  8
0
 10
-334.500000
 20
-56.100021
 11
-326.500000
 21
-56.100021
  0
LINE
  8
0
 10
-334.000000
 20
-56.900009
 11
-327.000000
 21
-56.900009
  0
LINE
  8
0
 10
-334.000000
 20
-59.400009
 11
-327.000000
 21
-59.400009
  0
LINE
  8
0
 10
-326.500000
 20
-58.899979
 11
-326.500000
 21
-57.399979
  0
LINE
  8
0
 10
-334.500000
 20
-58.899979
 11
-334.500000
 21
-57.399979
  0
LINE
  8
0
 10
-326.500122
 20
-58.899803
 11
-327.000122
 21
-59.399803
  0
LINE
  8
0
 10
-333.999939
 20
-59.399811
 11
-334.499939
 21
-58.899826
  0
LINE
  8
0
 10
-334.500031
 20
-57.400032
 11
-334.000031
 21
-56.900013
  0
LINE
  8
0
 10
-326.999786
 20
-56.899837
 11
-326.499664
 21
-57.399902
  0
LINE
  8
0
 62
     2
 10
-333.500000
 20
-58.899979
 11
-333.500000
 21
-57.399979
  0
LINE
  8
0
 62
     2
 10
-332.500000
 20
-58.899979
 11
-332.500000
 21
-57.399979
  0
LINE
  8
0
 62
     2
 10
-331.500000
 20
-58.899979
 11
-331.500000
 21
-57.399979
  0
LINE
  8
0
 10
-334.500000
 20
-58.900009
 11
-326.500000
 21
-58.900009
  0
LINE
  8
0
 10
-334.500000
 20
-57.400009
 11
-326.500000
 21
-57.400009
  0
LINE
  8
0
 10
-328.000000
 20
-56.899979
 11
-328.000000
 21
-56.099991
  0
LINE
  8
0
 10
-333.000000
 20
-56.899979
 11
-333.000000
 21
-56.099991
  0
LINE
  8
0
 10
-332.000000
 20
-65.000023
 11
-332.000000
 21
-59.399979
  0
LINE
  8
0
 10
-329.000000
 20
-65.000023
 11
-329.000000
 21
-59.399979
  0
LINE
  8
0
 62
     2
 10
-329.270508
 20
-65.000023
 11
-329.270508
 21
-59.399979
  0
LINE
  8
0
 62
     2
 10
-331.729492
 20
-65.000023
 11
-331.729492
 21
-59.399979
  0
LINE
  8
0
 62
     2
 10
-332.000000
 20
-68.500023
 11
-332.000000
 21
-65.500023
  0
LINE
  8
0
 10
-327.250000
 20
-43.100006
 11
-327.250000
 21
-41.600006
  0
LINE
  8
0
 10
-333.750000
 20
-43.100006
 11
-333.750000
 21
-41.600006
  0
LINE
  8
0
 10
-326.600037
 20
-41.600006
 11
-326.600037
 21
-40.499969
  0
LINE
  8
0
 10
-334.400024
 20
-41.600006
 11
-334.400024
 21
-40.499969
  0
LINE
  8
0
 10
-325.600037
 20
-52.099960
 11
-325.600037
 21
-49.094986
  0
LINE
  8
0
 10
-335.400024
 20
-52.100006
 11
-325.500000
 21
-52.100006
  0
LINE
  8
0
 10
-335.399963
 20
-43.100006
 11
-325.599976
 21
-43.100006
  0
LINE
  8
0
 10
-326.500000
 20
-56.099960
 11
-326.500000
 21
-52.099991
  0
LINE
  8
0
 10
-334.500000
 20
-56.099991
 11
-334.500000
 21
-52.099991
  0
LINE
  8
0
 10
-330.500000
 20
-55.742752
 11
-330.500000
 21
-53.099991
  0
LINE
  8
0
 10
-335.400024
 20
-52.099960
 11
-335.400024
 21
-43.100006
  0
LINE
  8
0
 10
-325.600037
 20
-52.099960
 11
-325.600037
 21
-43.100006
  0
LINE
  8
0
 10
-325.500000
 20
40.500031
 11
-325.500000
 21
-40.499969
  0
LINE
  8
0
 10
-140.799744
 20
18.500015
 11
-161.500000
 21
18.500015
  0
LINE
  8
0
 62
     2
 10
-139.999741
 20
19.300003
 11
-161.500000
 21
19.300003
  0
LINE
  8
0
 10
-136.999741
 20
19.300003
 11
-139.999741
 21
19.300003
  0
LINE
  8
0
 62
     2
 10
-139.999741
 20
27.699997
 11
-161.500000
 21
27.699997
  0
LINE
  8
0
 10
-140.799728
 20
28.500015
 11
-161.500000
 21
28.500015
  0
LINE
  8
0
 10
-136.999741
 20
27.699997
 11
-139.999741
 21
27.699997
  0
LINE
  8
0
 10
-140.799515
 20
18.499624
 11
-139.999512
 21
19.299631
  0
LINE
  8
0
 10
-139.999756
 20
27.699951
 11
-139.999756
 21
19.299957
  0
LINE
  8
0
 10
-140.799744
 20
28.499969
 11
-140.799744
 21
18.499969
  0
LINE
  8
0
 10
-139.999725
 20
27.699867
 11
-140.799728
 21
28.499876
  0
LINE
  8
0
 10
-136.999771
 20
19.299974
 11
-135.999771
 21
20.299974
  0
LINE
  8
0
 10
-136.999817
 20
27.699856
 11
-135.999817
 21
26.699854
  0
LINE
  8
0
 10
-139.999741
 20
20.489609
 11
-136.999741
 21
20.489609
  0
LINE
  8
0
 10
-139.999741
 20
26.510391
 11
-136.999741
 21
26.510391
  0
LINE
  8
0
 10
-136.999756
 20
19.299942
 11
-136.999756
 21
20.489548
  0
LINE
  8
0
 10
-137.000366
 20
26.510345
 11
-137.000366
 21
27.699951
  0
LINE
  8
0
 62
     2
 10
-136.999573
 20
20.489651
 11
-139.999573
 21
26.510466
  0
LINE
  8
0
 62
     2
 10
-139.999832
 20
20.489527
 11
-136.999817
 21
26.510345
  0
LINE
  8
0
 10
-135.999878
 20
26.699890
 11
-135.999878
 21
20.299988
  0
LINE
  8
0
 10
-359.200256
 20
18.500015
 11
-338.500000
 21
18.500015
  0
LINE
  8
0
 62
     2
 10
-360.000244
 20
19.300003
 11
-338.500000
 21
19.300003
  0
LINE
  8
0
 10
-363.000244
 20
19.300003
 11
-360.000244
 21
19.300003
  0
LINE
  8
0
 62
     2
 10
-360.000244
 20
27.699997
 11
-338.500000
 21
27.699997
  0
LINE
  8
0
 10
-359.200256
 20
28.500015
 11
-338.500000
 21
28.500015
  0
LINE
  8
0
 10
-363.000244
 20
27.699997
 11
-360.000244
 21
27.699997
  0
LINE
  8
0
 10
-359.200500
 20
18.499722
 11
-360.000549
 21
19.299749
  0
LINE
  8
0
 10
-360.000244
 20
27.700012
 11
-360.000244
 21
19.300018
  0
LINE
  8
0
 10
-359.200256
 20
28.500031
 11
-359.200256
 21
18.500031
  0
LINE
  8
0
 10
-360.000092
 20
27.699858
 11
-359.200073
 21
28.499863
  0
LINE
  8
0
 10
-363.000183
 20
19.300074
 11
-364.000183
 21
20.300076
  0
LINE
  8
0
 10
-363.000122
 20
27.699934
 11
-364.000122
 21
26.699932
  0
LINE
  8
0
 10
-360.000244
 20
20.489609
 11
-363.000244
 21
20.489609
  0
LINE
  8
0
 10
-360.000244
 20
26.510391
 11
-363.000244
 21
26.510391
  0
LINE
  8
0
 10
-363.000244
 20
19.300034
 11
-363.000244
 21
20.489639
  0
LINE
  8
0
 10
-362.999634
 20
26.510406
 11
-362.999634
 21
27.700012
  0
LINE
  8
0
 62
     2
 10
-363.000214
 20
20.489658
 11
-360.000214
 21
26.510462
  0
LINE
  8
0
 62
     2
 10
-360.000244
 20
20.489588
 11
-363.000275
 21
26.510435
  0
LINE
  8
0
 10
-364.000122
 20
26.700012
 11
-364.000122
 21
20.300110
  0
ARC
  8
0
 10
-31.000061
 20
42.650024
 40
3.049999
 50
10.388991
 51
169.611084
  0
ARC
  8
0
 10
-53.830170
 20
-41.444092
 40
2.555851
 50
235.616211
 51
304.383789
  0
ARC
  8
0
 10
-49.500061
 20
-34.446411
 40
9.553544
 50
252.412277
 51
287.587708
  0
CIRCLE
  8
0
 10
-31.000061
 20
25.000061
 40
8.000000
  0
CIRCLE
  8
0
 10
-31.000061
 20
25.000061
 40
5.000000
  0
CIRCLE
  8
0
 10
-31.000061
 20
25.000061
 40
4.200000
  0
ARC
  8
0
 10
-45.169922
 20
-41.444092
 40
2.555851
 50
235.616211
 51
304.383789
  0
ARC
  8
0
 10
-34.464142
 20
-53.555267
 40
2.044656
 50
235.615692
 51
304.384308
  0
ARC
  8
0
 10
-27.535919
 20
-53.555267
 40
2.044656
 50
235.615692
 51
304.384277
  0
ARC
  8
0
 10
-31.000031
 20
-47.957214
 40
7.642726
 50
252.411957
 51
287.587952
  0
ARC
  8
0
 10
313.968994
 20
23.499956
 40
5.031250
 50
323.248901
 51
36.751144
  0
ARC
  8
0
 10
120.078194
 20
29.562216
 40
3.578194
 50
145.616196
 51
214.383774
  0
ARC
  8
0
 10
129.874939
 20
23.500031
 40
13.374962
 50
162.412277
 51
197.587708
  0
ARC
  8
0
 10
120.078171
 20
17.437864
 40
3.578194
 50
145.616196
 51
214.383774
  0
ARC
  8
0
 10
115.921783
 20
17.437859
 40
3.578193
 50
325.616241
 51
34.383804
  0
ARC
  8
0
 10
106.125023
 20
23.500042
 40
13.374960
 50
342.412323
 51
17.587732
  0
ARC
  8
0
 10
115.921791
 20
29.562220
 40
3.578193
 50
325.616211
 51
34.383804
  0
ARC
  8
0
 10
280.125061
 20
23.499969
 40
13.374960
 50
342.412323
 51
17.587732
  0
ARC
  8
0
 10
289.921814
 20
17.437777
 40
3.578180
 50
325.616089
 51
34.383945
  0
ARC
  8
0
 10
294.078186
 20
29.562124
 40
3.578182
 50
145.616058
 51
214.383911
  0
ARC
  8
0
 10
303.874939
 20
23.499958
 40
13.374962
 50
162.412277
 51
197.587708
  0
ARC
  8
0
 10
294.078186
 20
17.437782
 40
3.578182
 50
145.616058
 51
214.383911
  0
ARC
  8
0
 10
289.921814
 20
29.562128
 40
3.578181
 50
325.616089
 51
34.383945
  0
CIRCLE
  8
0
 10
124.499931
 20
-48.099991
 40
2.000000
  0
ARC
  8
0
 10
122.499931
 20
-50.323288
 40
5.776711
 50
249.743927
 51
290.256226
  0
CIRCLE
  8
0
 10
124.499931
 20
-48.099991
 40
5.000000
  0
ARC
  8
0
 10
126.499931
 20
-50.323288
 40
5.776711
 50
249.743851
 51
290.256226
  0
CIRCLE
  8
0
 10
285.499939
 20
-48.100067
 40
2.000000
  0
ARC
  8
0
 10
283.499939
 20
-50.323364
 40
5.776714
 50
249.743866
 51
290.256165
  0
CIRCLE
  8
0
 10
285.499939
 20
-48.100067
 40
5.000000
  0
ARC
  8
0
 10
287.499939
 20
-50.323364
 40
5.776711
 50
249.743851
 51
290.256165
  0
CIRCLE
  8
0
 62
     2
 10
162.499969
 20
-42.499981
 40
2.500000
  0
CIRCLE
  8
0
 10
162.499969
 20
-42.499981
 40
1.800000
  0
CIRCLE
  8
0
 10
247.499985
 20
-42.500019
 40
1.800000
  0
CIRCLE
  8
0
 62
     2
 10
247.499985
 20
-42.500019
 40
2.500000
  0
CIRCLE
  8
0
 10
162.500031
 20
42.500019
 40
1.800000
  0
CIRCLE
  8
0
 62
     2
 10
162.500031
 20
42.500019
 40
2.500000
  0
CIRCLE
  8
0
 10
247.500015
 20
42.499981
 40
1.800000
  0
CIRCLE
  8
0
 62
     2
 10
247.500015
 20
42.499981
 40
2.500000
  0
CIRCLE
  8
0
 10
204.999985
 20
-42.500000
 40
3.000000
  0
ARC
  8
0
 10
205.000015
 20
41.500000
 40
3.000000
 50
180.000000
 51
0.000000
  0
ARC
  8
0
 10
96.031006
 20
23.500044
 40
5.031249
 50
143.248764
 51
216.751083
  0
CIRCLE
  8
0
 10
205.000000
 20
0.000000
 40
20.000000
  0
CIRCLE
  8
0
 10
205.000031
 20
171.500000
 40
2.750000
  0
CIRCLE
  8
0
 10
256.999939
 20
171.499908
 40
2.750000
  0
ARC
  8
0
 10
282.035950
 20
171.499969
 40
11.464123
 50
342.412018
 51
17.588043
  0
ARC
  8
0
 10
293.567047
 20
176.696136
 40
3.066972
 50
145.615448
 51
214.384323
  0
ARC
  8
0
 10
290.433105
 20
176.696136
 40
3.066963
 50
325.615692
 51
34.384556
  0
ARC
  8
0
 10
293.567047
 20
166.303833
 40
3.066963
 50
145.615677
 51
214.384552
  0
ARC
  8
0
 10
301.964203
 20
171.499969
 40
11.464123
 50
162.412033
 51
197.587967
  0
ARC
  8
0
 10
290.433105
 20
166.303833
 40
3.066972
 50
325.615448
 51
34.384319
  0
ARC
  8
0
 10
179.058929
 20
181.393250
 40
2.000002
 50
225.000000
 51
270.000000
  0
ARC
  8
0
  6
CENTER
 62
     2
 10
178.986786
 20
181.465393
 40
4.000004
 50
225.000000
 51
270.000000
  0
ARC
  8
0
 10
178.914642
 20
181.537537
 40
6.000007
 50
225.000000
 51
270.000000
  0
ARC
  8
0
 10
179.058929
 20
161.606750
 40
2.000000
 50
90.000000
 51
135.000000
  0
ARC
  8
0
  6
CENTER
 62
     2
 10
178.986786
 20
161.534607
 40
4.000000
 50
90.000000
 51
135.000000
  0
ARC
  8
0
 10
178.914642
 20
161.462463
 40
6.000000
 50
90.000000
 51
135.000000
  0
ARC
  8
0
 10
119.566963
 20
166.303894
 40
3.066970
 50
145.615768
 51
214.384552
  0
ARC
  8
0
 10
108.035866
 20
171.500031
 40
11.464135
 50
342.411957
 51
17.587959
  0
ARC
  8
0
 10
116.433022
 20
166.303894
 40
3.066966
 50
325.615356
 51
34.384239
  0
ARC
  8
0
 10
127.964119
 20
171.500031
 40
11.464128
 50
162.411957
 51
197.587891
  0
ARC
  8
0
 10
116.433022
 20
176.696198
 40
3.066970
 50
325.615753
 51
34.384556
  0
ARC
  8
0
 10
119.566963
 20
176.696198
 40
3.066966
 50
145.615372
 51
214.384232
  0
CIRCLE
  8
0
 10
285.500000
 20
-181.500061
 40
2.500000
  0
CIRCLE
  8
0
 10
285.500000
 20
-181.500061
 40
4.000000
  0
CIRCLE
  8
0
 10
285.500000
 20
-181.500061
 40
4.900000
  0
CIRCLE
  8
0
 10
233.999969
 20
-200.000031
 40
3.000000
  0
CIRCLE
  8
0
 10
175.999969
 20
-200.000031
 40
3.000000
  0
CIRCLE
  8
0
 10
124.499977
 20
-181.500031
 40
2.500000
  0
CIRCLE
  8
0
 10
124.499977
 20
-181.500031
 40
4.000000
  0
CIRCLE
  8
0
 10
124.499977
 20
-181.500031
 40
4.900000
  0
CIRCLE
  8
0
 62
     2
 10
194.999969
 20
-200.000031
 40
2.500000
  0
CIRCLE
  8
0
 10
194.999969
 20
-200.000031
 40
1.800000
  0
ARC
  8
0
 10
-165.078217
 20
29.562195
 40
3.578193
 50
325.616211
 51
34.383781
  0
ARC
  8
0
 10
-174.875000
 20
23.500031
 40
13.374962
 50
342.412292
 51
17.587708
  0
ARC
  8
0
 10
-165.078217
 20
17.437836
 40
3.578194
 50
325.616211
 51
34.383781
  0
CIRCLE
  8
0
 10
-221.359802
 20
-11.863159
 40
7.000000
  0
CIRCLE
  8
0
 10
-221.359802
 20
11.863220
 40
7.000000
  0
CIRCLE
  8
0
 62
     2
 10
-221.359802
 20
11.863220
 40
5.000000
  0
CIRCLE
  8
0
 10
-221.359802
 20
11.863220
 40
4.200000
  0
CIRCLE
  8
0
 10
-221.359802
 20
-11.863159
 40
6.500000
  0
CIRCLE
  8
0
 10
-250.000061
 20
0.000031
 40
8.500000
  0
CIRCLE
  8
0
 62
     2
 10
-250.000061
 20
0.000031
 40
6.000000
  0
CIRCLE
  8
0
 10
-250.000061
 20
0.000031
 40
5.200000
  0
CIRCLE
  8
0
 10
-217.500061
 20
-32.499969
 40
2.250000
  0
CIRCLE
  8
0
  6
DASHED
 62
     2
 10
-217.500061
 20
-32.499969
 40
4.000000
  0
CIRCLE
  8
0
 10
-250.000061
 20
32.500031
 40
2.000000
  0
CIRCLE
  8
0
 10
-207.500061
 20
0.000031
 40
2.000000
  0
CIRCLE
  8
0
 10
-217.500061
 20
0.000031
 40
2.000000
  0
CIRCLE
  8
0
  6
DASHED
 62
     2
 10
-207.500061
 20
42.500031
 40
4.750000
  0
CIRCLE
  8
0
 10
-207.500061
 20
42.500031
 40
2.750000
  0
CIRCLE
  8
0
  6
DASHED
 62
     2
 10
-217.500061
 20
32.500031
 40
4.000000
  0
CIRCLE
  8
0
 10
-217.500061
 20
32.500031
 40
2.250000
  0
CIRCLE
  8
0
  6
CENTER
 62
     2
 10
-250.000061
 20
0.000031
 40
31.000000
  0
ARC
  8
0
 10
-160.921844
 20
17.437836
 40
3.578194
 50
145.616196
 51
214.383774
  0
ARC
  8
0
 10
-151.125061
 20
23.500031
 40
13.374962
 50
162.412277
 51
197.587708
  0
ARC
  8
0
 10
-160.921844
 20
29.562195
 40
3.578194
 50
145.616196
 51
214.383774
  0
CIRCLE
  8
0
 10
-250.000061
 20
0.000031
 40
2.000000
  0
CIRCLE
  8
0
  6
DASHED
 62
     2
 10
-207.500061
 20
-42.499969
 40
4.750000
  0
CIRCLE
  8
0
 10
-207.500061
 20
-42.499969
 40
2.750000
  0
CIRCLE
  8
0
 10
-250.000061
 20
42.500031
 40
2.000000
  0
ARC
  8
0
 10
-167.500000
 20
-50.323303
 40
5.776712
 50
249.743698
 51
290.256165
  0
ARC
  8
0
 10
-171.500000
 20
-50.323303
 40
5.776711
 50
249.743851
 51
290.256165
  0
CIRCLE
  8
0
 10
-250.000061
 20
-42.499969
 40
2.000000
  0
CIRCLE
  8
0
 10
-250.000061
 20
-32.499969
 40
2.000000
  0
CIRCLE
  8
0
 10
-292.500061
 20
0.000031
 40
2.000000
  0
CIRCLE
  8
0
 10
-282.500061
 20
0.000031
 40
2.000000
  0
CIRCLE
  8
0
  6
DASHED
 62
     2
 10
-282.500061
 20
-32.499969
 40
4.000000
  0
CIRCLE
  8
0
 10
-282.500061
 20
-32.499969
 40
2.250000
  0
CIRCLE
  8
0
  6
DASHED
 62
     2
 10
-292.500061
 20
-42.499969
 40
4.750000
  0
CIRCLE
  8
0
 10
-292.500061
 20
-42.499969
 40
2.750000
  0
CIRCLE
  8
0
  6
DASHED
 62
     2
 10
-292.500061
 20
42.500031
 40
4.750000
  0
CIRCLE
  8
0
 10
-292.500061
 20
42.500031
 40
2.750000
  0
CIRCLE
  8
0
  6
DASHED
 62
     2
 10
-282.500061
 20
32.500031
 40
4.000000
  0
CIRCLE
  8
0
 10
-282.500061
 20
32.500031
 40
2.250000
  0
CIRCLE
  8
0
 10
-238.136871
 20
-28.640228
 40
7.000000
  0
CIRCLE
  8
0
 62
     2
 10
-238.136871
 20
-28.640228
 40
5.000000
  0
CIRCLE
  8
0
 10
-238.136871
 20
-28.640228
 40
4.200000
  0
CIRCLE
  8
0
 10
-261.863220
 20
-28.640228
 40
7.000000
  0
CIRCLE
  8
0
 62
     2
 10
-261.863220
 20
-28.640228
 40
5.000000
  0
CIRCLE
  8
0
 10
-261.863220
 20
-28.640228
 40
4.200000
  0
CIRCLE
  8
0
 10
-278.640320
 20
-11.863159
 40
7.000000
  0
CIRCLE
  8
0
 62
     2
 10
-278.640320
 20
-11.863159
 40
5.000000
  0
CIRCLE
  8
0
 10
-278.640320
 20
-11.863159
 40
4.200000
  0
CIRCLE
  8
0
 10
-278.640320
 20
11.863190
 40
7.000000
  0
CIRCLE
  8
0
 62
     2
 10
-278.640320
 20
11.863190
 40
5.000000
  0
CIRCLE
  8
0
 10
-278.640320
 20
11.863190
 40
4.200000
  0
CIRCLE
  8
0
 10
-261.863251
 20
28.640289
 40
7.000000
  0
CIRCLE
  8
0
 10
-261.863251
 20
28.640289
 40
6.500000
  0
CIRCLE
  8
0
 10
-238.136871
 20
28.640289
 40
7.000000
  0
CIRCLE
  8
0
 62
     2
 10
-238.136871
 20
28.640289
 40
5.000000
  0
CIRCLE
  8
0
 10
-238.136871
 20
28.640289
 40
4.200000
  0
ARC
  8
0
 10
-328.500000
 20
-50.323303
 40
5.776711
 50
249.743851
 51
290.256165
  0
ARC
  8
0
 10
-334.921753
 20
29.562195
 40
3.578182
 50
145.616058
 51
214.383621
  0
ARC
  8
0
 10
-325.125000
 20
23.500031
 40
13.374964
 50
162.412262
 51
197.587677
  0
ARC
  8
0
 10
-334.921753
 20
17.437836
 40
3.578182
 50
145.616058
 51
214.383636
  0
ARC
  8
0
 10
-339.078125
 20
17.437836
 40
3.578182
 50
325.616058
 51
34.383919
  0
ARC
  8
0
 10
-348.874939
 20
23.500031
 40
13.374964
 50
342.412262
 51
17.587685
  0
ARC
  8
0
 10
-339.078125
 20
29.562195
 40
3.578182
 50
325.616058
 51
34.383919
  0
ARC
  8
0
 10
-332.500000
 20
-50.323303
 40
5.776711
 50
249.743851
 51
290.256165
  0
ARC
  8
0
 10
-141.030991
 20
23.499954
 40
5.031250
 50
323.248901
 51
36.751144
  0
ARC
  8
0
 10
-358.968994
 20
23.500046
 40
5.031255
 50
143.248825
 51
216.751083
  0
TEXT
  8
0
 10
-387.785309
 20
256.649994
 40
9.000000
  1
HANDLING MODULE
 50
0.000000
 41
1.052632
 51
0.000000
  7
STANDARD
  0
TEXT
  8
0
 10
242.014816
 20
-274.500000
 40
12.500000
  1
KOGANEI CORP.
 50
0.000000
 41
1.052632
 51
0.000000
  7
STANDARD
  0
TEXT
  8
0
 10
251.264664
 20
256.649994
 40
9.000000
  1
DATE: Apr ,1994
 50
0.000000
 41
1.052632
 51
0.000000
  7
STANDARD
  0
TEXT
  8
0
 10
-384.785309
 20
224.149994
 40
9.000000
  1
MODEL:SHM21L-MA
 50
0.000000
 41
1.052632
 51
0.000000
  7
STANDARD
  0
ENDSEC
  0
EOF
