  0
SECTION
  2
HEADER
  0
ENDSEC
  0
SECTION
  2
TABLES
  0
TABLE
  2
LTYPE
 70
     4
  0
LTYPE
  2
CONTINUOUS
 70
    64
  3
Solid line
 72
    65
 73
     0
 40
0.000000
  0
LTYPE
  2
DASHED
 70
    64
  3
__ __ __ __ __ __ __ __ __ __ __ __ __ __ __
 72
    65
 73
     2
 40
3.500000
 49
2.000000
 49
-1.500000
  0
LTYPE
  2
CENTER
 70
    64
  3
____ _ ____ _ ____ _ ____ _ ____ _ ____ _ ____
 72
    65
 73
     4
 40
17.500000
 49
13.000000
 49
-1.500000
 49
1.500000
 49
-1.500000
  0
LTYPE
  2
PHANTOM
 70
    64
  3
_____ _ _ _____ _ _ _____ _ _ _____ _ _ ____  
 72
    65
 73
     6
 40
15.500000
 49
8.000000
 49
-1.500000
 49
1.500000
 49
-1.500000
 49
1.500000
 49
-1.500000
  0
LTYPE
  2
DASHED1
 70
    64
  3
__ __ __ __ __ __ __ __ __ __ __ __ __ __ __
 72
    65
 73
     2
 40
1.500000
 49
1.000000
 49
-0.500000
  0
LTYPE
  2
DASHED2
 70
    64
  3
__ __ __ __ __ __ __ __ __ __ __ __ __ __ __
 72
    65
 73
     2
 40
3.500000
 49
2.500000
 49
-1.000000
  0
LTYPE
  2
DASHED3
 70
    64
  3
__ __ __ __ __ __ __ __ __ __ __ __ __ __ __
 72
    65
 73
     2
 40
6.000000
 49
4.000000
 49
-2.000000
  0
LTYPE
  2
DASHED4
 70
    64
  3
__ __ __ __ __ __ __ __ __ __ __ __ __ __ __
 72
    65
 73
     2
 40
12.000000
 49
10.000000
 49
-2.000000
  0
LTYPE
  2
DASHED5
 70
    64
  3
__ __ __ __ __ __ __ __ __ __ __ __ __ __ __
 72
    65
 73
     2
 40
17.000000
 49
15.000000
 49
-2.000000
  0
LTYPE
  2
DASHED6
 70
    64
  3
__ __ __ __ __ __ __ __ __ __ __ __ __ __ __
 72
    65
 73
     2
 40
29.000000
 49
27.000000
 49
-2.000000
  0
LTYPE
  2
PHANTOM1
 70
    64
  3
_____ _ _ _____ _ _ _____ _ _ _____ _ _ ____  
 72
    65
 73
     6
 40
31.000000
 49
25.000000
 49
-1.500000
 49
1.000000
 49
-1.000000
 49
1.000000
 49
-1.500000
  0
LTYPE
  2
PHANTOM2
 70
    64
  3
_____ _ _ _____ _ _ _____ _ _ _____ _ _ ____  
 72
    65
 73
     6
 40
36.000000
 49
27.000000
 49
-1.500000
 49
2.500000
 49
-1.000000
 49
2.500000
 49
-1.500000
  0
LTYPE
  2
PHANTOM3
 70
    64
  3
_____ _ _ _____ _ _ _____ _ _ _____ _ _ ____  
 72
    65
 73
     6
 40
78.000000
 49
64.000000
 49
-2.000000
 49
4.000000
 49
-2.000000
 49
4.000000
 49
-2.000000
  0
LTYPE
  2
CENTER1
 70
    64
  3
____ _ ____ _ ____ _ ____ _ ____ _ ____ _ ____
 72
    65
 73
     4
 40
19.000000
 49
14.000000
 49
-1.000000
 49
3.000000
 49
-1.000000
  0
LTYPE
  2
CENTER2
 70
    64
  3
____ _ ____ _ ____ _ ____ _ ____ _ ____ _ ____
 72
    65
 73
     4
 40
28.500000
 49
25.000000
 49
-1.000000
 49
1.500000
 49
-1.000000
  0
LTYPE
  2
CENTER3
 70
    64
  3
____ _ ____ _ ____ _ ____ _ ____ _ ____ _ ____
 72
    65
 73
     4
 40
31.500000
 49
27.000000
 49
-1.000000
 49
2.500000
 49
-1.000000
  0
LTYPE
  2
CENTER4
 70
    64
  3
____ _ ____ _ ____ _ ____ _ ____ _ ____ _ ____
 72
    65
 73
     4
 40
50.000000
 49
45.000000
 49
-1.000000
 49
3.000000
 49
-1.000000
  0
LTYPE
  2
CENTER5
 70
    64
  3
____ _ ____ _ ____ _ ____ _ ____ _ ____ _ ____
 72
    65
 73
     4
 40
100.000000
 49
92.000000
 49
-2.000000
 49
4.000000
 49
-2.000000
  0
LTYPE
  2
SBK1
 70
    64
  3
______ _ _ _ ______ _ _ _ ______ _ _ _ _____  
 72
    65
 73
     8
 40
60.500000
 49
45.000000
 49
-2.000000
 49
2.500000
 49
-2.000000
 49
2.500000
 49
-2.000000
 49
2.500000
 49
-2.000000
  0
LTYPE
  2
SBK2
 70
    64
  3
______ _ _ _ ______ _ _ _ ______ _ _ _ _____  
 72
    65
 73
     8
 40
84.000000
 49
64.000000
 49
-2.000000
 49
4.000000
 49
-2.000000
 49
4.000000
 49
-2.000000
 49
4.000000
 49
-2.000000
  0
LTYPE
  2
STCH
 70
    64
  3
__ __ __ __ __ __ __ __ __ __ __ __ __ __ __
 72
    65
 73
     2
 40
3.000000
 49
1.000000
 49
-2.000000
  0
LTYPE
  2
MTCH
 70
    64
  3
_____ _ _ _____ _ _ _____ _ _ _____ _ _ ____  
 72
    65
 73
     6
 40
80.000000
 49
66.000000
 49
-2.000000
 49
4.000000
 49
-2.000000
 49
4.000000
 49
-2.000000
  0
ENDTAB
  0
TABLE
  2
LAYER
 70
     1
  0
LAYER
  2
0
 70
     0
 62
     7
  6
CONTINUOUS
  0
ENDTAB
  0
TABLE
  2
STYLE
 70
     1
  0
STYLE
  2
STANDARD
 70
     0
 40
0.000000
 41
1.000000
 50
0.000000
 71
     0
 42
0.200000
  3
txt
  4
BIGFONT
  0
ENDTAB
  0
TABLE
  2
VIEW
 70
     0
  0
ENDTAB
  0
ENDSEC
  0
SECTION
  2
BLOCKS
  0
ENDSEC
  0
SECTION
  2
ENTITIES
  0
LINE
  8
0
 10
-281.250000
 20
195.500000
 11
282.099976
 21
195.500000
  0
LINE
  8
0
 10
-281.250000
 20
195.500000
 11
-281.250000
 21
-195.000000
  0
LINE
  8
0
 10
282.099976
 20
195.500000
 11
282.099976
 21
-195.000000
  0
LINE
  8
0
 10
-281.250000
 20
-195.000000
 11
282.099976
 21
-195.000000
  0
LINE
  8
0
 10
162.099976
 20
-175.000000
 11
162.099976
 21
-195.000000
  0
LINE
  8
0
 10
162.099976
 20
-175.000000
 11
282.099976
 21
-175.000000
  0
LINE
  8
0
 10
162.099976
 20
175.500000
 11
282.099976
 21
175.500000
  0
LINE
  8
0
 10
-281.250000
 20
175.500000
 11
-161.250000
 21
175.500000
  0
LINE
  8
0
 10
162.099976
 20
195.500000
 11
162.099976
 21
175.500000
  0
LINE
  8
0
 10
-161.250000
 20
195.500000
 11
-161.250000
 21
175.500000
  0
LINE
  8
0
  6
CENTER
 62
     2
 10
62.844177
 20
-12.064920
 11
206.255859
 21
-12.064920
  0
LINE
  8
0
  6
CENTER
 62
     2
 10
133.246979
 20
-57.627609
 11
133.246979
 21
32.995354
  0
LINE
  8
0
 10
93.246964
 20
27.935080
 11
173.246979
 21
27.935080
  0
LINE
  8
0
 10
93.246971
 20
27.935072
 11
93.246971
 21
-52.164970
  0
LINE
  8
0
 10
65.782913
 20
-4.493143
 11
67.711349
 21
-4.493143
  0
LINE
  8
0
 10
65.782913
 20
5.899191
 11
67.711105
 21
5.899191
  0
LINE
  8
0
 10
65.782822
 20
9.363272
 11
67.711166
 21
9.363272
  0
LINE
  8
0
 10
65.246994
 20
-3.564930
 11
65.246994
 21
8.435068
  0
LINE
  8
0
 10
65.782509
 20
-4.493222
 11
65.246620
 21
-3.565036
  0
LINE
  8
0
 10
65.782913
 20
-1.029032
 11
67.711105
 21
-1.029032
  0
LINE
  8
0
 10
65.782524
 20
9.363428
 11
65.246605
 21
8.435189
  0
LINE
  8
0
 10
67.711098
 20
9.363204
 11
68.247009
 21
8.434992
  0
LINE
  8
0
 10
67.711357
 20
-4.493164
 11
68.247246
 21
-3.564977
  0
LINE
  8
0
 10
74.746948
 20
-68.664963
 11
69.746948
 21
-68.664963
  0
LINE
  8
0
 10
69.746941
 20
-68.664970
 11
69.746941
 21
-64.664970
  0
LINE
  8
0
 10
74.746941
 20
-68.664970
 11
74.746941
 21
-64.664970
  0
LINE
  8
0
 10
74.746948
 20
-64.664963
 11
69.746948
 21
-64.664963
  0
LINE
  8
0
 10
76.147064
 20
-41.664963
 11
68.347015
 21
-41.664963
  0
LINE
  8
0
 10
76.247009
 20
-56.164963
 11
68.247009
 21
-56.164963
  0
LINE
  8
0
 10
76.246948
 20
-56.964951
 11
68.246948
 21
-56.964951
  0
LINE
  8
0
 10
76.246948
 20
-59.464951
 11
68.246948
 21
-59.464951
  0
LINE
  8
0
 10
68.246948
 20
-59.464958
 11
68.246948
 21
-56.964958
  0
LINE
  8
0
 10
76.246941
 20
-59.464958
 11
76.246941
 21
-56.964958
  0
LINE
  8
0
 10
69.746941
 20
-56.964958
 11
69.746941
 21
-56.164970
  0
LINE
  8
0
 10
74.746941
 20
-56.964958
 11
74.746941
 21
-56.164970
  0
LINE
  8
0
 10
73.746941
 20
-64.664970
 11
73.746941
 21
-59.464958
  0
LINE
  8
0
 10
70.746941
 20
-64.664970
 11
70.746941
 21
-59.464958
  0
LINE
  8
0
 62
     2
 10
71.017448
 20
-64.664970
 11
71.017448
 21
-59.464958
  0
LINE
  8
0
 62
     2
 10
73.476433
 20
-64.664970
 11
73.476433
 21
-59.464958
  0
LINE
  8
0
 10
68.996948
 20
-43.164970
 11
68.996948
 21
-41.664970
  0
LINE
  8
0
 10
68.346954
 20
-41.664970
 11
68.346954
 21
-41.064995
  0
LINE
  8
0
 10
67.346954
 20
-52.164970
 11
67.346954
 21
-49.159966
  0
LINE
  8
0
 10
77.246979
 20
-43.164963
 11
67.346954
 21
-43.164963
  0
LINE
  8
0
 10
68.246948
 20
-56.164970
 11
68.246948
 21
-52.164970
  0
LINE
  8
0
 10
76.246941
 20
-56.164970
 11
76.246941
 21
-52.164970
  0
LINE
  8
0
 10
72.246941
 20
-55.807732
 11
72.246941
 21
-53.164970
  0
LINE
  8
0
 10
67.346954
 20
-47.169975
 11
67.346954
 21
-43.164970
  0
LINE
  8
0
 10
69.247009
 20
-52.164963
 11
67.347015
 21
-52.164963
  0
LINE
  8
0
  6
CENTER
 62
     2
 10
100.746979
 20
17.177971
 11
100.746979
 21
23.799002
  0
LINE
  8
0
  6
CENTER
 62
     2
 10
97.051994
 20
20.435080
 11
104.555832
 21
20.435080
  0
LINE
  8
0
  6
CENTER
 62
     2
 10
100.746979
 20
-40.204315
 11
100.746979
 21
-48.370262
  0
LINE
  8
0
  6
CENTER
 62
     2
 10
96.831299
 20
-44.564926
 11
104.997238
 21
-44.564926
  0
LINE
  8
0
  6
CENTER
 62
     2
 10
165.746979
 20
-40.425007
 11
165.746979
 21
-47.928841
  0
LINE
  8
0
  6
CENTER
 62
     2
 10
170.104065
 20
-44.564926
 11
161.717422
 21
-44.564926
  0
LINE
  8
0
 10
136.246979
 20
19.435080
 11
136.246979
 21
27.935080
  0
LINE
  8
0
 10
130.246979
 20
19.435080
 11
130.246979
 21
27.935080
  0
LINE
  8
0
 10
173.246979
 20
27.935087
 11
173.246979
 21
-52.164955
  0
LINE
  8
0
 10
77.246979
 20
-41.064926
 11
67.746979
 21
-41.064926
  0
LINE
  8
0
 10
53.546967
 20
-2.564928
 11
65.247025
 21
-2.564928
  0
LINE
  8
0
 62
     2
 10
52.746979
 20
-1.764925
 11
65.247025
 21
-1.764925
  0
LINE
  8
0
 10
49.746994
 20
-1.764925
 11
52.746979
 21
-1.764925
  0
LINE
  8
0
 62
     2
 10
52.746979
 20
6.635069
 11
65.247025
 21
6.635069
  0
LINE
  8
0
 10
53.546967
 20
7.435072
 11
65.247025
 21
7.435072
  0
LINE
  8
0
 10
49.746994
 20
6.635069
 11
52.746979
 21
6.635069
  0
LINE
  8
0
 10
53.546730
 20
-2.565289
 11
52.746727
 21
-1.765282
  0
LINE
  8
0
 10
52.746979
 20
6.635048
 11
52.746979
 21
-1.764946
  0
LINE
  8
0
 10
53.546967
 20
7.435051
 11
53.546967
 21
-2.564949
  0
LINE
  8
0
 10
52.747101
 20
6.634926
 11
53.547104
 21
7.434934
  0
LINE
  8
0
 10
49.747044
 20
-1.764905
 11
48.747040
 21
-0.764904
  0
LINE
  8
0
 10
49.747044
 20
6.635005
 11
48.747044
 21
5.635004
  0
LINE
  8
0
 10
52.746994
 20
-0.575327
 11
49.746994
 21
-0.575327
  0
LINE
  8
0
 10
52.746994
 20
5.445471
 11
49.746994
 21
5.445471
  0
LINE
  8
0
 10
49.746979
 20
-1.764946
 11
49.746979
 21
-0.575341
  0
LINE
  8
0
 10
49.747589
 20
5.445457
 11
49.747589
 21
6.635048
  0
LINE
  8
0
 62
     2
 10
49.746853
 20
-0.575291
 11
52.746857
 21
5.445522
  0
LINE
  8
0
 62
     2
 10
52.747059
 20
-0.575331
 11
49.747055
 21
5.445474
  0
LINE
  8
0
 10
93.246971
 20
10.935080
 11
173.246979
 21
10.935080
  0
LINE
  8
0
 10
93.246971
 20
-35.064919
 11
173.246979
 21
-35.064919
  0
LINE
  8
0
 10
75.497063
 20
-43.164970
 11
75.497063
 21
-41.664970
  0
LINE
  8
0
 10
77.246979
 20
-52.164963
 11
75.247055
 21
-52.164963
  0
LINE
  8
0
  6
CENTER
 62
     2
 10
165.746979
 20
17.177982
 11
165.746979
 21
24.240419
  0
LINE
  8
0
  6
CENTER
 62
     2
 10
170.104065
 20
20.435080
 11
161.717422
 21
20.435080
  0
LINE
  8
0
  6
CENTER
 62
     2
 10
128.766556
 20
-44.564926
 11
137.881699
 21
-44.564926
  0
LINE
  8
0
 10
72.247002
 20
-53.164940
 11
72.247002
 21
-55.807678
  0
LINE
  8
0
 10
190.246994
 20
-41.064926
 11
198.246979
 21
-41.064926
  0
LINE
  8
0
 10
191.747025
 20
-68.664963
 11
196.747025
 21
-68.664963
  0
LINE
  8
0
 10
196.747009
 20
-68.664948
 11
196.747009
 21
-64.664948
  0
LINE
  8
0
 10
191.747009
 20
-68.664948
 11
191.747009
 21
-64.664948
  0
LINE
  8
0
 10
191.747025
 20
-64.664963
 11
196.747025
 21
-64.664963
  0
LINE
  8
0
 10
190.346909
 20
-41.664963
 11
198.146942
 21
-41.664963
  0
LINE
  8
0
 10
190.246964
 20
-56.164963
 11
198.246948
 21
-56.164963
  0
LINE
  8
0
 10
190.247025
 20
-56.964951
 11
198.247009
 21
-56.964951
  0
LINE
  8
0
 10
190.247025
 20
-59.464951
 11
198.247009
 21
-59.464951
  0
LINE
  8
0
 10
198.247009
 20
-59.464935
 11
198.247009
 21
-56.964935
  0
LINE
  8
0
 10
190.247009
 20
-59.464935
 11
190.247009
 21
-56.964935
  0
LINE
  8
0
 10
196.747009
 20
-56.964935
 11
196.747009
 21
-56.164948
  0
LINE
  8
0
 10
191.747009
 20
-56.964935
 11
191.747009
 21
-56.164948
  0
LINE
  8
0
 10
192.747009
 20
-64.664948
 11
192.747009
 21
-59.464935
  0
LINE
  8
0
 10
195.747009
 20
-64.664948
 11
195.747009
 21
-59.464935
  0
LINE
  8
0
 62
     2
 10
195.476501
 20
-64.664948
 11
195.476501
 21
-59.464935
  0
LINE
  8
0
 62
     2
 10
193.017517
 20
-64.664948
 11
193.017517
 21
-59.464935
  0
LINE
  8
0
 10
197.497009
 20
-43.164948
 11
197.497009
 21
-41.664948
  0
LINE
  8
0
 10
198.147003
 20
-41.664948
 11
198.147003
 21
-41.064972
  0
LINE
  8
0
 10
199.147003
 20
-52.164948
 11
199.147003
 21
-49.159943
  0
LINE
  8
0
 10
189.246994
 20
-43.164963
 11
199.147003
 21
-43.164963
  0
LINE
  8
0
 10
198.247009
 20
-56.164948
 11
198.247009
 21
-52.164948
  0
LINE
  8
0
 10
190.247009
 20
-56.164948
 11
190.247009
 21
-52.164948
  0
LINE
  8
0
 10
194.247009
 20
-55.807709
 11
194.247009
 21
-53.164948
  0
LINE
  8
0
 10
199.147003
 20
-47.169952
 11
199.147003
 21
-43.164948
  0
LINE
  8
0
 10
197.246964
 20
-52.164963
 11
199.146942
 21
-52.164963
  0
LINE
  8
0
 10
189.246994
 20
-41.064926
 11
198.746979
 21
-41.064926
  0
LINE
  8
0
 10
190.996887
 20
-43.164951
 11
190.996887
 21
-41.664951
  0
LINE
  8
0
 10
189.246994
 20
-52.164963
 11
191.246918
 21
-52.164963
  0
LINE
  8
0
 10
194.246948
 20
-53.164917
 11
194.246948
 21
-55.807655
  0
LINE
  8
0
 10
76.147057
 20
-41.664970
 11
76.147057
 21
-41.064995
  0
LINE
  8
0
 10
200.711060
 20
9.363272
 11
198.782623
 21
9.363272
  0
LINE
  8
0
 10
200.546967
 20
-1.029032
 11
198.782867
 21
-1.029032
  0
LINE
  8
0
 10
200.711151
 20
-4.493143
 11
198.782806
 21
-4.493143
  0
LINE
  8
0
 10
201.246948
 20
8.435091
 11
201.246948
 21
-3.564911
  0
LINE
  8
0
 10
200.710907
 20
9.363005
 11
201.246796
 21
8.434825
  0
LINE
  8
0
 10
200.711060
 20
5.899191
 11
198.782867
 21
5.899191
  0
LINE
  8
0
 10
200.711426
 20
-4.493252
 11
201.247330
 21
-3.565039
  0
LINE
  8
0
 10
198.246979
 20
8.435091
 11
198.246979
 21
-3.564911
  0
LINE
  8
0
 10
198.782822
 20
-4.493136
 11
198.246902
 21
-3.564898
  0
LINE
  8
0
 10
198.782928
 20
9.363223
 11
198.247009
 21
8.434983
  0
LINE
  8
0
 10
67.746979
 20
-7.064920
 11
71.246971
 21
-7.064920
  0
LINE
  8
0
 10
67.746979
 20
-7.064930
 11
67.746979
 21
-41.064934
  0
LINE
  8
0
 10
198.746979
 20
-7.064920
 11
195.246979
 21
-7.064920
  0
LINE
  8
0
 10
198.746979
 20
-7.064911
 11
198.746979
 21
-41.064911
  0
LINE
  8
0
 10
190.346893
 20
-41.664951
 11
190.346893
 21
-41.064976
  0
LINE
  8
0
 10
195.246979
 20
13.935019
 11
189.246979
 21
13.935019
  0
LINE
  8
0
 10
195.246979
 20
10.113325
 11
189.246979
 21
10.113325
  0
LINE
  8
0
 10
195.246979
 20
13.935028
 11
195.246979
 21
-7.064911
  0
LINE
  8
0
 10
71.246964
 20
13.935019
 11
77.246964
 21
13.935019
  0
LINE
  8
0
 10
71.246971
 20
10.113325
 11
77.246971
 21
10.113325
  0
LINE
  8
0
 10
71.246971
 20
13.935009
 11
71.246971
 21
-7.064930
  0
LINE
  8
0
 10
48.747101
 20
5.635033
 11
48.747101
 21
-0.764901
  0
LINE
  8
0
 10
212.946991
 20
-2.564928
 11
201.246933
 21
-2.564928
  0
LINE
  8
0
 62
     2
 10
213.746979
 20
-1.764925
 11
201.246933
 21
-1.764925
  0
LINE
  8
0
 10
216.746979
 20
-1.764925
 11
213.746979
 21
-1.764925
  0
LINE
  8
0
 62
     2
 10
213.746979
 20
6.635069
 11
201.246933
 21
6.635069
  0
LINE
  8
0
 10
212.946991
 20
7.435072
 11
201.246933
 21
7.435072
  0
LINE
  8
0
 10
216.746979
 20
6.635069
 11
213.746979
 21
6.635069
  0
LINE
  8
0
 10
212.947281
 20
-2.565275
 11
213.747284
 21
-1.765268
  0
LINE
  8
0
 10
213.746979
 20
6.635075
 11
213.746979
 21
-1.764919
  0
LINE
  8
0
 10
212.946991
 20
7.435078
 11
212.946991
 21
-2.564922
  0
LINE
  8
0
 10
213.746887
 20
6.634946
 11
212.946899
 21
7.434943
  0
LINE
  8
0
 10
216.746918
 20
-1.764875
 11
217.746918
 21
-0.764874
  0
LINE
  8
0
 10
216.746857
 20
6.634984
 11
217.746857
 21
5.634984
  0
LINE
  8
0
 10
213.746979
 20
-0.575327
 11
216.746979
 21
-0.575327
  0
LINE
  8
0
 10
213.746979
 20
5.445471
 11
216.746979
 21
5.445471
  0
LINE
  8
0
 10
216.746979
 20
-1.764919
 11
216.746979
 21
-0.575313
  0
LINE
  8
0
 10
216.746368
 20
5.445484
 11
216.746368
 21
6.635075
  0
LINE
  8
0
 62
     2
 10
216.747070
 20
-0.575289
 11
213.747055
 21
5.445517
  0
LINE
  8
0
 62
     2
 10
213.746979
 20
-0.575343
 11
216.746994
 21
5.445477
  0
LINE
  8
0
 10
217.746857
 20
5.635059
 11
217.746857
 21
-0.764873
  0
LINE
  8
0
 10
158.246979
 20
-54.064926
 11
158.246979
 21
-52.064926
  0
LINE
  8
0
 10
154.246979
 20
-54.064926
 11
154.246979
 21
-52.064926
  0
LINE
  8
0
 10
154.246994
 20
-54.064926
 11
158.246994
 21
-54.064926
  0
LINE
  8
0
 62
     2
 10
157.646988
 20
-54.064926
 11
157.646988
 21
-52.064926
  0
LINE
  8
0
 62
     2
 10
154.846985
 20
-54.064926
 11
154.846985
 21
-52.064926
  0
LINE
  8
0
 10
108.246971
 20
-54.064926
 11
108.246971
 21
-52.064926
  0
LINE
  8
0
 62
     2
 10
108.846970
 20
-54.064926
 11
108.846970
 21
-52.064926
  0
LINE
  8
0
 62
     2
 10
111.646965
 20
-54.064926
 11
111.646965
 21
-52.064926
  0
LINE
  8
0
 10
112.246971
 20
-54.064926
 11
112.246971
 21
-52.064926
  0
LINE
  8
0
 10
112.246979
 20
-54.064926
 11
108.246979
 21
-54.064926
  0
LINE
  8
0
 10
189.246979
 20
16.935089
 11
189.246979
 21
-41.064915
  0
LINE
  8
0
 10
189.346893
 20
-47.169952
 11
189.346893
 21
-43.164951
  0
LINE
  8
0
 10
189.346893
 20
-52.164948
 11
189.346893
 21
-49.159943
  0
LINE
  8
0
 10
77.246971
 20
16.935070
 11
77.246971
 21
-41.064934
  0
LINE
  8
0
 10
77.147057
 20
-47.169975
 11
77.147057
 21
-43.164970
  0
LINE
  8
0
 10
77.147057
 20
-52.164970
 11
77.147057
 21
-49.159966
  0
LINE
  8
0
 10
77.246964
 20
16.935080
 11
93.246964
 21
16.935080
  0
LINE
  8
0
 10
77.246979
 20
-41.064926
 11
93.246979
 21
-41.064926
  0
LINE
  8
0
 10
77.246964
 20
14.935080
 11
93.246964
 21
14.935080
  0
LINE
  8
0
 10
189.246979
 20
16.935080
 11
173.246979
 21
16.935080
  0
LINE
  8
0
 10
189.246979
 20
14.935080
 11
173.246979
 21
14.935080
  0
LINE
  8
0
 10
189.246979
 20
-41.064926
 11
173.246979
 21
-41.064926
  0
LINE
  8
0
 10
68.782913
 20
-4.493143
 11
70.711342
 21
-4.493143
  0
LINE
  8
0
 10
68.782913
 20
5.899191
 11
70.711098
 21
5.899191
  0
LINE
  8
0
 10
68.782822
 20
9.363272
 11
70.711159
 21
9.363272
  0
LINE
  8
0
 10
68.246994
 20
-3.564930
 11
68.246994
 21
8.435068
  0
LINE
  8
0
 10
68.782532
 20
-4.493223
 11
68.246643
 21
-3.565036
  0
LINE
  8
0
 10
68.782913
 20
-1.029032
 11
70.711098
 21
-1.029032
  0
LINE
  8
0
 10
68.782585
 20
9.363421
 11
68.246666
 21
8.435182
  0
LINE
  8
0
 10
70.711098
 20
9.363220
 11
71.247002
 21
8.435008
  0
LINE
  8
0
 10
70.711342
 20
-4.493168
 11
71.247223
 21
-3.564985
  0
LINE
  8
0
 10
197.711060
 20
9.363272
 11
195.782623
 21
9.363272
  0
LINE
  8
0
 10
197.546967
 20
-1.029032
 11
195.782867
 21
-1.029032
  0
LINE
  8
0
 10
197.711151
 20
-4.493143
 11
195.782806
 21
-4.493143
  0
LINE
  8
0
 10
198.246948
 20
8.435091
 11
198.246948
 21
-3.564911
  0
LINE
  8
0
 10
197.710907
 20
9.363036
 11
198.246796
 21
8.434850
  0
LINE
  8
0
 10
197.711060
 20
5.899191
 11
195.782867
 21
5.899191
  0
LINE
  8
0
 10
197.711426
 20
-4.493269
 11
198.247330
 21
-3.565056
  0
LINE
  8
0
 10
195.246979
 20
8.435089
 11
195.246979
 21
-3.564911
  0
LINE
  8
0
 10
195.782822
 20
-4.493141
 11
195.246918
 21
-3.564909
  0
LINE
  8
0
 10
195.782928
 20
9.363191
 11
195.247009
 21
8.434952
  0
LINE
  8
0
 10
93.246979
 20
-52.064926
 11
173.246979
 21
-52.064926
  0
LINE
  8
0
 10
-40.752918
 20
27.935078
 11
-33.752918
 21
27.935078
  0
LINE
  8
0
 10
-40.752956
 20
-52.064922
 11
-33.752956
 21
-52.064922
  0
LINE
  8
0
 10
-40.752945
 20
-9.864898
 11
-40.752945
 21
-14.264892
  0
LINE
  8
0
 10
-40.752945
 20
27.935120
 11
-40.752945
 21
-52.064884
  0
LINE
  8
0
 10
4.247082
 20
27.935078
 11
-2.752918
 21
27.935078
  0
LINE
  8
0
 10
-2.752945
 20
27.935078
 11
-2.752945
 21
16.435081
  0
LINE
  8
0
 10
-33.752945
 20
-52.064915
 11
-33.752945
 21
27.935116
  0
LINE
  8
0
  6
CENTER
 62
     2
 10
-14.752945
 20
26.877575
 11
-14.752945
 21
-73.402573
  0
LINE
  8
0
 10
-8.252945
 20
6.187890
 11
-8.252945
 21
-1.317664
  0
LINE
  8
0
 10
-21.252945
 20
6.187894
 11
-21.252945
 21
-1.317660
  0
LINE
  8
0
 10
-14.752863
 20
9.940672
 11
-21.252867
 21
6.187897
  0
LINE
  8
0
 10
-8.252901
 20
-1.317748
 11
-14.752901
 21
-5.070522
  0
LINE
  8
0
 10
-21.252996
 20
-1.317782
 11
-14.752999
 21
-5.070562
  0
LINE
  8
0
 10
-14.753005
 20
9.940515
 11
-8.253007
 21
6.187735
  0
LINE
  8
0
 10
-11.752945
 20
5.374471
 11
-11.752945
 21
-0.504305
  0
LINE
  8
0
 10
-17.752945
 20
5.374473
 11
-17.752945
 21
-0.504303
  0
LINE
  8
0
 10
-11.182243
 20
-41.064919
 11
-18.323662
 21
-41.064919
  0
LINE
  8
0
 10
-9.852951
 20
-52.164898
 11
-9.852951
 21
-51.564922
  0
LINE
  8
0
 10
-19.652939
 20
-52.164890
 11
-19.652939
 21
-43.164890
  0
LINE
  8
0
 10
-19.652946
 20
-43.164894
 11
-9.852959
 21
-43.164894
  0
LINE
  8
0
 10
-19.652950
 20
-52.164898
 11
-9.852962
 21
-52.164898
  0
LINE
  8
0
 10
-14.752954
 20
-48.864910
 11
-7.252953
 21
-48.864910
  0
LINE
  8
0
 10
-14.752954
 20
-47.464916
 11
-7.252953
 21
-47.464916
  0
LINE
  8
0
 10
-9.853083
 20
-51.564941
 11
-11.153086
 21
-48.864933
  0
LINE
  8
0
 10
-9.853082
 20
-44.764767
 11
-11.153100
 21
-47.464802
  0
LINE
  8
0
 10
-9.852951
 20
-44.764904
 11
-9.852951
 21
-43.164894
  0
LINE
  8
0
 10
-7.252956
 20
-53.064922
 11
0.747044
 21
-53.064922
  0
LINE
  8
0
 10
5.247055
 20
-53.164898
 11
5.247055
 21
-43.164894
  0
LINE
  8
0
 10
3.647049
 20
-53.164898
 11
3.647049
 21
-43.164894
  0
LINE
  8
0
 10
-9.852962
 20
-51.564922
 11
-8.752956
 21
-51.564922
  0
LINE
  8
0
 10
-7.252945
 20
-53.064922
 11
-7.252945
 21
-43.264900
  0
LINE
  8
0
 10
-8.752945
 20
-51.564922
 11
-8.752945
 21
-48.864910
  0
LINE
  8
0
 10
0.747055
 20
-53.064922
 11
0.747055
 21
-43.264900
  0
LINE
  8
0
 10
2.347061
 20
-52.914898
 11
2.347061
 21
-43.414894
  0
LINE
  8
0
 10
3.647022
 20
-53.164898
 11
5.247028
 21
-53.164898
  0
LINE
  8
0
 10
0.747044
 20
-52.914898
 11
2.347034
 21
-52.914898
  0
LINE
  8
0
 10
3.647041
 20
-43.164894
 11
5.247047
 21
-43.164894
  0
LINE
  8
0
 10
0.747047
 20
-43.414894
 11
2.347054
 21
-43.414894
  0
LINE
  8
0
 10
-7.252953
 20
-43.264900
 11
0.747047
 21
-43.264900
  0
LINE
  8
0
 10
-9.852959
 20
-44.764904
 11
-8.752953
 21
-44.764904
  0
LINE
  8
0
 10
2.347034
 20
-51.414898
 11
3.647022
 21
-51.414898
  0
LINE
  8
0
 10
2.347054
 20
-44.914898
 11
3.647041
 21
-44.914898
  0
LINE
  8
0
 10
-8.752945
 20
-47.464916
 11
-8.752945
 21
-44.764904
  0
LINE
  8
0
 10
-7.253038
 20
-53.064968
 11
-8.753029
 21
-51.564976
  0
LINE
  8
0
 10
-7.252934
 20
-43.264977
 11
-8.752939
 21
-44.764980
  0
LINE
  8
0
 10
-18.652946
 20
-41.664894
 11
-10.852959
 21
-41.664894
  0
LINE
  8
0
 10
-11.502945
 20
-43.164894
 11
-11.502945
 21
-41.664894
  0
LINE
  8
0
 10
-18.002945
 20
-43.164890
 11
-18.002945
 21
-41.664890
  0
LINE
  8
0
 10
-10.852951
 20
-41.664894
 11
-10.852951
 21
-41.064919
  0
LINE
  8
0
 10
-18.652939
 20
-41.664890
 11
-18.652939
 21
-41.064915
  0
LINE
  8
0
 10
-17.252960
 20
-68.664894
 11
-12.252960
 21
-68.664894
  0
LINE
  8
0
 10
-12.252945
 20
-68.664894
 11
-12.252945
 21
-64.664894
  0
LINE
  8
0
 10
-17.252945
 20
-68.664886
 11
-17.252945
 21
-64.664886
  0
LINE
  8
0
 10
-17.252960
 20
-64.664894
 11
-12.252960
 21
-64.664894
  0
LINE
  8
0
 10
-18.217068
 20
-56.164898
 11
-11.288845
 21
-56.164898
  0
LINE
  8
0
 10
-18.752956
 20
-56.964886
 11
-10.752956
 21
-56.964886
  0
LINE
  8
0
 10
-18.752956
 20
-59.464886
 11
-10.752956
 21
-59.464886
  0
LINE
  8
0
 10
-10.752945
 20
-59.464886
 11
-10.752945
 21
-56.964886
  0
LINE
  8
0
 10
-18.752945
 20
-59.464878
 11
-18.752945
 21
-56.964878
  0
LINE
  8
0
 10
-10.134140
 20
-55.807659
 11
-10.134140
 21
-52.164898
  0
LINE
  8
0
 10
-12.443558
 20
-55.807659
 11
-12.443558
 21
-52.164898
  0
LINE
  8
0
 10
-17.062363
 20
-55.807652
 11
-17.062363
 21
-52.164890
  0
LINE
  8
0
 10
-19.371750
 20
-55.807652
 11
-19.371750
 21
-52.164890
  0
LINE
  8
0
 10
-12.252945
 20
-56.964886
 11
-12.252945
 21
-56.164898
  0
LINE
  8
0
 10
-17.252945
 20
-56.964878
 11
-17.252945
 21
-56.164890
  0
LINE
  8
0
 10
-16.252945
 20
-64.664886
 11
-16.252945
 21
-59.464878
  0
LINE
  8
0
 10
-13.252945
 20
-64.664894
 11
-13.252945
 21
-59.464886
  0
LINE
  8
0
 62
     2
 10
-13.523453
 20
-64.664894
 11
-13.523453
 21
-59.464886
  0
LINE
  8
0
 62
     2
 10
-15.982437
 20
-64.664886
 11
-15.982437
 21
-59.464878
  0
LINE
  8
0
 10
4.247055
 20
-43.164894
 11
4.247055
 21
27.935078
  0
LINE
  8
0
 10
-25.211899
 20
-43.452469
 11
-25.211899
 21
-41.064911
  0
LINE
  8
0
 10
-31.273468
 20
-43.452332
 11
-31.273468
 21
-40.564911
  0
LINE
  8
0
 10
-33.293991
 20
-43.452377
 11
-33.293991
 21
-40.564911
  0
LINE
  8
0
 10
-25.753304
 20
-43.764915
 11
-32.752602
 21
-43.764915
  0
LINE
  8
0
 10
-25.211994
 20
-43.452305
 11
-25.753393
 21
-43.764881
  0
LINE
  8
0
 10
-27.232407
 20
-43.452347
 11
-27.232407
 21
-41.064911
  0
LINE
  8
0
 10
-33.293976
 20
-43.452305
 11
-32.752579
 21
-43.764885
  0
LINE
  8
0
 10
-27.252945
 20
-43.764908
 11
-27.252945
 21
-54.064915
  0
LINE
  8
0
 10
-31.252945
 20
-43.764908
 11
-31.252945
 21
-54.064915
  0
LINE
  8
0
 62
     2
 10
-27.852951
 20
-43.764908
 11
-27.852951
 21
-54.064915
  0
LINE
  8
0
 62
     2
 10
-30.652939
 20
-43.764908
 11
-30.652939
 21
-54.064915
  0
LINE
  8
0
 10
-33.252968
 20
-40.564919
 11
-27.252953
 21
-40.564919
  0
LINE
  8
0
 10
-33.252945
 20
-40.564911
 11
-33.252945
 21
16.435089
  0
LINE
  8
0
 10
-31.252956
 20
-54.064922
 11
-27.252956
 21
-54.064922
  0
LINE
  8
0
 62
     4
 10
-10.916561
 20
17.508652
 11
-12.149018
 21
13.715543
  0
LINE
  8
0
 62
     4
 10
-19.269554
 20
19.435078
 11
-10.236183
 21
19.435078
  0
LINE
  8
0
 62
     4
 10
-10.236136
 20
19.435183
 11
-7.252882
 21
18.465862
  0
LINE
  8
0
 62
     4
 10
-7.252945
 20
18.465767
 11
-7.252945
 21
16.362846
  0
LINE
  8
0
 62
     4
 10
-18.240671
 20
16.435078
 11
-11.265236
 21
16.435078
  0
LINE
  8
0
 62
     4
 10
-18.565590
 20
17.435078
 11
-10.940464
 21
17.435078
  0
LINE
  8
0
 10
-6.533791
 20
16.435160
 11
-7.917835
 21
12.175516
  0
LINE
  8
0
 62
     4
 10
-18.589485
 20
17.508631
 11
-17.357002
 21
13.715436
  0
LINE
  8
0
 10
-22.972250
 20
16.435070
 11
-21.588203
 21
12.175411
  0
LINE
  8
0
 62
     4
 10
-22.393673
 20
16.272404
 11
-21.118078
 21
12.346523
  0
LINE
  8
0
 10
-2.252945
 20
-7.064921
 11
-27.252945
 21
-7.064921
  0
LINE
  8
0
 10
-2.252953
 20
-41.064919
 11
-27.252953
 21
-41.064919
  0
LINE
  8
0
 10
-12.752937
 20
13.935079
 11
-16.752907
 21
13.935079
  0
LINE
  8
0
 10
-12.752857
 20
13.935326
 11
-2.252939
 21
10.113664
  0
LINE
  8
0
 10
-16.753027
 20
13.935284
 11
-27.252943
 21
10.113631
  0
LINE
  8
0
 10
-2.752937
 20
16.435078
 11
-6.533669
 21
16.435078
  0
LINE
  8
0
 10
-26.752945
 20
16.435085
 11
-26.752945
 21
10.295377
  0
LINE
  8
0
 62
     4
 10
-18.589380
 20
17.508661
 11
-22.393650
 21
16.272581
  0
LINE
  8
0
 62
     4
 10
-10.916462
 20
17.508636
 11
-7.112192
 21
16.272554
  0
LINE
  8
0
 62
     4
 10
-7.112406
 20
16.272438
 11
-8.387979
 21
12.346635
  0
LINE
  8
0
 62
     4
 10
-13.252945
 20
17.435081
 11
-13.252945
 21
16.435081
  0
LINE
  8
0
 62
     4
 10
-16.252945
 20
17.435085
 11
-16.252945
 21
16.435085
  0
LINE
  8
0
 62
     4
 10
-19.269699
 20
19.435163
 11
-22.252954
 21
18.465847
  0
LINE
  8
0
 62
     4
 10
-22.252945
 20
18.465771
 11
-22.252945
 21
16.362850
  0
LINE
  8
0
 10
-2.752945
 20
-43.264900
 11
-2.752945
 21
-41.064919
  0
LINE
  8
0
  6
CENTER
 62
     2
 10
10.885208
 20
-12.064921
 11
-48.897743
 21
-12.064921
  0
LINE
  8
0
 10
-2.252945
 20
10.113658
 11
-2.252945
 21
-41.064919
  0
LINE
  8
0
 10
-27.252945
 20
10.113616
 11
-27.252945
 21
-41.064911
  0
LINE
  8
0
 10
-33.252937
 20
16.435078
 11
-22.972206
 21
16.435078
  0
LINE
  8
0
  6
CENTER
 62
     2
 10
-42.982975
 20
20.435078
 11
-32.168621
 21
20.435078
  0
LINE
  8
0
  6
CENTER
 62
     2
 10
6.454075
 20
-44.564922
 11
-4.580978
 21
-44.564922
  0
LINE
  8
0
  6
CENTER
 62
     2
 10
-43.203674
 20
12.935079
 11
-32.389320
 21
12.935079
  0
LINE
  8
0
  6
CENTER
 62
     2
 10
-42.982990
 20
-44.564922
 11
-32.389336
 21
-44.564922
  0
LINE
  8
0
  6
CENTER
 62
     2
 10
-43.203690
 20
-37.064919
 11
-32.168636
 21
-37.064919
  0
LINE
  8
0
  6
CENTER
 62
     2
 10
6.454075
 20
20.435078
 11
-4.580978
 21
20.435078
  0
LINE
  8
0
 10
173.247101
 20
152.270081
 11
93.247093
 21
152.270081
  0
LINE
  8
0
 10
173.246979
 20
107.270050
 11
93.246986
 21
107.270050
  0
LINE
  8
0
 10
173.247070
 20
145.270065
 11
93.247063
 21
145.270065
  0
LINE
  8
0
 10
189.246994
 20
114.270050
 11
101.370728
 21
114.270050
  0
LINE
  8
0
 10
173.246979
 20
145.269974
 11
173.246979
 21
152.269989
  0
LINE
  8
0
 10
198.746979
 20
132.269897
 11
198.746979
 21
138.769928
  0
LINE
  8
0
 10
195.246979
 20
113.769928
 11
195.246979
 21
138.769928
  0
LINE
  8
0
 62
     4
 10
166.307693
 20
127.330658
 11
164.186371
 21
125.209343
  0
LINE
  8
0
 62
     4
 10
166.307846
 20
125.209488
 11
164.186539
 21
127.330818
  0
LINE
  8
0
 62
     4
 10
143.046982
 20
117.778725
 11
143.046982
 21
122.830589
  0
LINE
  8
0
 62
     4
 10
175.046982
 20
129.669983
 11
175.046982
 21
134.761230
  0
LINE
  8
0
 62
     4
 10
141.546967
 20
117.376785
 11
118.047005
 21
117.376785
  0
LINE
  8
0
 62
     4
 10
118.046982
 20
117.376831
 11
118.046982
 21
122.870087
  0
LINE
  8
0
 62
     4
 10
150.046982
 20
129.670013
 11
150.046982
 21
135.163208
  0
LINE
  8
0
 62
     4
 10
141.546982
 20
117.376801
 11
141.546982
 21
122.870056
  0
LINE
  8
0
 62
     4
 10
173.546982
 20
129.669983
 11
173.546982
 21
135.163147
  0
LINE
  8
0
 62
     4
 10
173.547043
 20
135.163223
 11
150.047043
 21
135.163223
  0
LINE
  8
0
 62
     4
 10
143.047028
 20
117.778763
 11
141.547028
 21
117.376839
  0
LINE
  8
0
 62
     4
 10
175.047119
 20
134.761414
 11
173.547119
 21
135.163330
  0
LINE
  8
0
  6
CENTER
 62
     2
 10
165.746979
 20
142.358429
 11
165.746979
 21
154.886688
  0
LINE
  8
0
  6
CENTER
 62
     2
 10
100.746979
 20
143.947357
 11
100.746979
 21
154.755219
  0
LINE
  8
0
 10
142.647034
 20
138.270050
 11
189.247040
 21
138.270050
  0
LINE
  8
0
 10
173.246979
 20
114.269958
 11
173.246979
 21
107.269974
  0
LINE
  8
0
 10
93.246971
 20
145.270157
 11
93.246971
 21
152.270172
  0
LINE
  8
0
 10
93.246971
 20
114.270142
 11
93.246971
 21
107.270157
  0
LINE
  8
0
 62
     4
 10
132.186478
 20
127.330894
 11
134.307800
 21
125.209572
  0
LINE
  8
0
 62
     4
 10
132.186325
 20
125.209450
 11
134.307648
 21
127.330772
  0
LINE
  8
0
  6
CENTER
 62
     2
 10
133.246979
 20
101.450073
 11
133.246979
 21
158.570068
  0
LINE
  8
0
 10
136.247009
 20
111.270050
 11
130.247009
 21
111.270050
  0
LINE
  8
0
 10
130.246979
 20
107.270073
 11
130.246979
 21
111.270073
  0
LINE
  8
0
 10
136.246979
 20
107.270058
 11
136.246979
 21
111.270058
  0
LINE
  8
0
 10
189.247009
 20
122.870056
 11
169.147003
 21
122.870056
  0
LINE
  8
0
 10
189.247009
 20
117.970047
 11
143.047028
 21
117.970047
  0
LINE
  8
0
 10
118.047020
 20
117.970047
 11
105.096977
 21
117.970047
  0
LINE
  8
0
 10
189.247025
 20
129.670044
 11
169.147018
 21
129.670044
  0
LINE
  8
0
 10
189.247040
 20
134.570053
 11
175.047043
 21
134.570053
  0
LINE
  8
0
 10
150.047043
 20
134.570053
 11
105.070778
 21
134.570053
  0
LINE
  8
0
 62
     4
 10
150.047028
 20
130.307602
 11
106.161629
 21
130.307602
  0
LINE
  8
0
 62
     4
 10
150.047043
 20
134.163315
 11
106.305946
 21
134.163315
  0
LINE
  8
0
 62
     4
 10
137.146973
 20
130.270050
 11
137.146973
 21
119.270058
  0
LINE
  8
0
 62
     4
 10
129.346985
 20
130.270081
 11
129.346985
 21
119.270073
  0
LINE
  8
0
 62
     4
 10
129.347046
 20
130.270020
 11
137.147034
 21
130.270020
  0
LINE
  8
0
 62
     4
 10
129.347015
 20
119.270020
 11
137.147003
 21
119.270020
  0
LINE
  8
0
 10
161.347015
 20
122.870056
 11
137.147003
 21
122.870056
  0
LINE
  8
0
 10
161.347031
 20
129.670044
 11
137.147034
 21
129.670044
  0
LINE
  8
0
 62
     4
 10
169.146973
 20
122.269989
 11
169.146973
 21
133.269989
  0
LINE
  8
0
 62
     4
 10
169.147034
 20
133.270050
 11
161.347046
 21
133.270050
  0
LINE
  8
0
 62
     4
 10
161.346985
 20
122.270004
 11
161.346985
 21
133.270004
  0
LINE
  8
0
 62
     4
 10
169.147003
 20
122.270050
 11
161.347015
 21
122.270050
  0
LINE
  8
0
 10
129.347046
 20
129.670044
 11
77.247017
 21
129.670044
  0
LINE
  8
0
 10
129.347015
 20
122.870056
 11
77.247002
 21
122.870056
  0
LINE
  8
0
 10
198.746979
 20
113.769920
 11
198.746979
 21
120.269875
  0
LINE
  8
0
 10
67.746979
 20
132.270172
 11
67.746979
 21
138.770203
  0
LINE
  8
0
 10
71.246971
 20
113.770203
 11
71.246971
 21
138.770203
  0
LINE
  8
0
 10
67.746979
 20
113.770210
 11
67.746979
 21
120.270164
  0
LINE
  8
0
 10
77.247017
 20
124.270050
 11
71.247017
 21
124.270050
  0
LINE
  8
0
 10
77.247032
 20
128.270035
 11
71.247032
 21
128.270035
  0
LINE
  8
0
 10
189.247040
 20
128.270035
 11
195.247040
 21
128.270035
  0
LINE
  8
0
 10
189.247009
 20
124.270050
 11
195.247009
 21
124.270050
  0
LINE
  8
0
 10
198.746994
 20
113.770050
 11
192.247009
 21
113.770050
  0
LINE
  8
0
 10
198.747070
 20
138.770050
 11
189.247070
 21
138.770050
  0
LINE
  8
0
 10
67.747070
 20
138.770050
 11
77.247063
 21
138.770050
  0
LINE
  8
0
 10
67.747009
 20
113.770050
 11
77.247002
 21
113.770050
  0
LINE
  8
0
 10
103.247055
 20
144.770065
 11
163.247055
 21
144.770065
  0
LINE
  8
0
 10
123.847038
 20
138.270050
 11
101.370766
 21
138.270050
  0
LINE
  8
0
 62
     4
 10
101.919098
 20
132.065140
 11
93.976807
 21
140.007477
  0
LINE
  8
0
 62
     4
 10
104.882065
 20
134.759048
 11
96.805237
 21
142.835922
  0
LINE
  8
0
 62
     4
 10
93.976593
 20
140.007462
 11
96.805031
 21
142.835892
  0
LINE
  8
0
 10
99.413902
 20
134.570053
 11
77.247032
 21
134.570053
  0
LINE
  8
0
 10
95.713905
 20
138.270050
 11
77.247032
 21
138.270050
  0
LINE
  8
0
 62
     4
 10
118.047020
 20
122.232498
 11
106.161613
 21
122.232498
  0
LINE
  8
0
 62
     4
 10
118.047020
 20
118.376785
 11
106.305916
 21
118.376785
  0
LINE
  8
0
 62
     4
 10
93.976761
 20
112.533035
 11
96.805183
 21
109.704597
  0
LINE
  8
0
 62
     4
 10
104.891594
 20
117.791161
 11
96.804970
 21
109.704575
  0
LINE
  8
0
 62
     4
 10
101.918907
 20
120.475372
 11
93.976585
 21
112.533081
  0
LINE
  8
0
 10
99.413887
 20
117.970047
 11
77.247002
 21
117.970047
  0
LINE
  8
0
 10
95.713860
 20
114.270050
 11
77.246986
 21
114.270050
  0
LINE
  8
0
 10
189.246979
 20
138.769943
 11
189.246979
 21
113.769928
  0
LINE
  8
0
 10
77.246971
 20
138.770187
 11
77.246971
 21
113.770172
  0
LINE
  8
0
 10
142.646973
 20
138.270020
 11
142.646973
 21
144.770050
  0
LINE
  8
0
 10
163.246979
 20
138.269989
 11
163.246979
 21
144.769989
  0
LINE
  8
0
 10
123.846977
 20
138.270081
 11
123.846977
 21
144.770081
  0
LINE
  8
0
 10
103.246979
 20
138.270111
 11
103.246979
 21
144.770142
  0
LINE
  8
0
 10
198.747009
 20
113.770050
 11
189.247009
 21
113.770050
  0
LINE
  8
0
 62
     2
 10
213.746964
 20
122.070045
 11
201.246964
 21
122.070045
  0
LINE
  8
0
 62
     2
 10
213.746979
 20
130.470062
 11
201.246979
 21
130.470062
  0
LINE
  8
0
 10
212.946930
 20
131.269867
 11
212.946930
 21
121.269875
  0
LINE
  8
0
 10
213.746933
 20
130.469879
 11
213.746933
 21
122.069878
  0
LINE
  8
0
 10
216.746933
 20
130.269867
 11
216.746933
 21
122.269867
  0
LINE
  8
0
 10
217.746933
 20
130.269867
 11
217.746933
 21
122.269859
  0
LINE
  8
0
 10
212.946960
 20
121.270050
 11
201.246964
 21
121.270050
  0
LINE
  8
0
 10
212.946976
 20
131.270050
 11
201.246979
 21
131.270050
  0
LINE
  8
0
 10
217.746964
 20
122.270050
 11
213.746964
 21
122.270050
  0
LINE
  8
0
 10
217.746979
 20
130.270050
 11
213.746979
 21
130.270050
  0
LINE
  8
0
 62
     2
 10
52.747070
 20
130.470062
 11
65.247070
 21
130.470062
  0
LINE
  8
0
 10
53.547073
 20
131.270050
 11
65.247070
 21
131.270050
  0
LINE
  8
0
 10
53.547028
 20
131.270233
 11
53.547028
 21
121.270226
  0
LINE
  8
0
 10
52.747025
 20
130.470215
 11
52.747025
 21
122.070229
  0
LINE
  8
0
 10
52.747036
 20
122.070213
 11
53.547043
 21
121.270210
  0
LINE
  8
0
 62
     2
 10
52.747055
 20
122.070045
 11
65.247055
 21
122.070045
  0
LINE
  8
0
 10
53.547058
 20
121.270050
 11
65.247055
 21
121.270050
  0
LINE
  8
0
 10
48.747025
 20
130.270233
 11
48.747025
 21
122.270241
  0
LINE
  8
0
 10
49.747025
 20
130.270233
 11
49.747025
 21
122.270233
  0
LINE
  8
0
 10
48.747055
 20
122.270050
 11
52.747055
 21
122.270050
  0
LINE
  8
0
 10
48.747070
 20
130.270050
 11
52.747070
 21
130.270050
  0
LINE
  8
0
 10
213.747025
 20
130.469894
 11
212.947021
 21
131.269897
  0
LINE
  8
0
 10
213.746948
 20
122.069885
 11
212.946930
 21
121.269882
  0
LINE
  8
0
 10
52.747047
 20
130.470230
 11
53.547058
 21
131.270233
  0
LINE
  8
0
  6
CENTER
 62
     2
 10
100.746971
 20
114.897156
 11
100.746971
 21
104.706070
  0
LINE
  8
0
  6
CENTER
 62
     2
 10
165.746979
 20
115.680946
 11
165.746979
 21
105.228554
  0
LINE
  8
0
  6
CENTER
 62
     2
 10
108.246971
 20
143.118622
 11
108.246971
 21
154.877563
  0
LINE
  8
0
  6
CENTER
 62
     2
 10
158.246979
 20
142.334579
 11
158.246979
 21
155.138763
  0
LINE
  8
0
  6
CENTER
 62
     2
 10
224.145569
 20
126.270027
 11
41.131088
 21
126.270027
  0
LINE
  8
0
 10
198.246933
 20
132.269897
 11
198.246933
 21
120.269875
  0
LINE
  8
0
 10
201.246887
 20
132.269882
 11
201.246887
 21
120.269867
  0
LINE
  8
0
 10
198.246948
 20
132.270035
 11
201.246948
 21
132.270035
  0
LINE
  8
0
 10
198.246918
 20
120.270020
 11
201.246918
 21
120.270020
  0
LINE
  8
0
 10
200.711151
 20
126.270027
 11
198.782715
 21
126.270027
  0
LINE
  8
0
 10
197.711212
 20
126.270027
 11
195.782745
 21
126.270027
  0
LINE
  8
0
 10
195.246964
 20
120.270020
 11
198.246964
 21
120.270020
  0
LINE
  8
0
 10
195.246994
 20
132.270035
 11
198.246994
 21
132.270035
  0
LINE
  8
0
 10
71.247086
 20
132.270035
 11
68.247086
 21
132.270035
  0
LINE
  8
0
 10
71.247055
 20
120.270020
 11
68.247055
 21
120.270020
  0
LINE
  8
0
 10
68.247025
 20
132.270172
 11
68.247025
 21
120.270164
  0
LINE
  8
0
 10
65.247070
 20
132.270187
 11
65.247070
 21
120.270172
  0
LINE
  8
0
 10
68.247131
 20
132.270035
 11
65.247131
 21
132.270035
  0
LINE
  8
0
 10
68.247101
 20
120.270020
 11
65.247101
 21
120.270020
  0
LINE
  8
0
 10
65.782890
 20
126.270027
 11
67.711342
 21
126.270027
  0
LINE
  8
0
 10
68.782845
 20
126.270027
 11
70.711296
 21
126.270027
  0
LINE
  8
0
 10
77.246994
 20
106.270027
 11
67.246994
 21
106.270027
  0
LINE
  8
0
 10
77.246994
 20
107.870033
 11
67.246994
 21
107.870033
  0
LINE
  8
0
 10
77.246979
 20
110.770027
 11
67.347000
 21
110.770027
  0
LINE
  8
0
 10
76.996994
 20
109.170021
 11
67.496994
 21
109.170021
  0
LINE
  8
0
 10
77.246979
 20
107.870033
 11
77.246979
 21
106.270027
  0
LINE
  8
0
 10
76.996979
 20
110.770027
 11
76.996979
 21
109.170013
  0
LINE
  8
0
 10
67.246979
 20
107.870033
 11
67.246979
 21
106.270027
  0
LINE
  8
0
 10
67.496979
 20
110.770027
 11
67.496979
 21
109.170021
  0
LINE
  8
0
 10
67.346985
 20
120.270020
 11
67.346985
 21
110.770027
  0
LINE
  8
0
 10
75.496979
 20
109.170021
 11
75.496979
 21
107.870033
  0
LINE
  8
0
 10
68.996979
 20
109.170021
 11
68.996979
 21
107.870033
  0
LINE
  8
0
 10
199.147003
 20
120.270020
 11
199.147003
 21
110.770042
  0
LINE
  8
0
 10
199.247009
 20
106.270027
 11
189.247009
 21
106.270027
  0
LINE
  8
0
 10
199.247009
 20
107.870033
 11
189.247009
 21
107.870033
  0
LINE
  8
0
 10
199.147003
 20
110.770027
 11
189.247009
 21
110.770027
  0
LINE
  8
0
 10
198.997009
 20
109.170021
 11
189.497009
 21
109.170021
  0
LINE
  8
0
 10
199.247009
 20
107.870049
 11
199.247009
 21
106.270042
  0
LINE
  8
0
 10
198.997009
 20
110.770042
 11
198.997009
 21
109.170036
  0
LINE
  8
0
 10
189.247009
 20
107.870049
 11
189.247009
 21
106.270042
  0
LINE
  8
0
 10
189.497009
 20
110.770042
 11
189.497009
 21
109.170029
  0
LINE
  8
0
 10
197.497009
 20
109.170036
 11
197.497009
 21
107.870049
  0
LINE
  8
0
 10
190.997009
 20
109.170036
 11
190.997009
 21
107.870049
  0
LINE
  8
0
 10
189.247009
 20
110.770035
 11
189.247009
 21
138.770050
  0
LINE
  8
0
 10
77.246979
 20
110.770020
 11
77.246979
 21
113.770050
  0
LINE
  8
0
 10
93.246994
 20
-158.382782
 11
173.247009
 21
-158.382782
  0
LINE
  8
0
 10
93.246994
 20
-113.382782
 11
173.247009
 21
-113.382782
  0
LINE
  8
0
 10
93.246979
 20
-151.382782
 11
173.247009
 21
-151.382782
  0
LINE
  8
0
 10
77.246979
 20
-120.382782
 11
189.247009
 21
-120.382782
  0
LINE
  8
0
  6
CENTER
 62
     2
 10
133.246979
 20
-107.562782
 11
133.246979
 21
-164.682770
  0
LINE
  8
0
  6
CENTER
 62
     2
 10
40.166977
 20
-132.382782
 11
232.700317
 21
-132.382782
  0
LINE
  8
0
 10
107.046974
 20
-148.730301
 11
107.046974
 21
-145.035263
  0
LINE
  8
0
 10
113.446968
 20
-148.730301
 11
113.446968
 21
-145.035263
  0
LINE
  8
0
 10
107.047035
 20
-148.730179
 11
110.247032
 21
-150.577698
  0
LINE
  8
0
 10
110.247063
 20
-143.187637
 11
113.447075
 21
-145.035156
  0
LINE
  8
0
 10
110.247047
 20
-150.577866
 11
113.447044
 21
-148.730347
  0
LINE
  8
0
 10
107.047028
 20
-145.035294
 11
110.247025
 21
-143.187775
  0
LINE
  8
0
 10
68.247040
 20
-134.692123
 11
72.247055
 21
-137.001541
  0
LINE
  8
0
 10
72.247070
 20
-127.763817
 11
76.247047
 21
-130.073196
  0
LINE
  8
0
 10
76.246979
 20
-134.692169
 11
76.246979
 21
-130.073364
  0
LINE
  8
0
 10
68.246979
 20
-134.692200
 11
68.246979
 21
-130.073395
  0
LINE
  8
0
 10
72.246971
 20
-137.001587
 11
76.246971
 21
-134.692184
  0
LINE
  8
0
 10
68.246986
 20
-130.073410
 11
72.246986
 21
-127.764015
  0
LINE
  8
0
 10
75.646973
 20
-128.854340
 11
75.646973
 21
-126.382782
  0
LINE
  8
0
 10
77.146988
 20
-124.882782
 11
67.347000
 21
-124.882782
  0
LINE
  8
0
 10
75.646988
 20
-126.382782
 11
68.847000
 21
-126.382782
  0
LINE
  8
0
 10
68.846985
 20
-128.854340
 11
68.846985
 21
-126.382782
  0
LINE
  8
0
 10
77.147240
 20
-124.883049
 11
75.647240
 21
-126.383049
  0
LINE
  8
0
 10
67.347221
 20
-124.882599
 11
68.847214
 21
-126.382591
  0
LINE
  8
0
 10
190.247055
 20
-134.692139
 11
194.247055
 21
-137.001541
  0
LINE
  8
0
 10
194.247055
 20
-127.763878
 11
198.247025
 21
-130.073257
  0
LINE
  8
0
 10
198.247009
 20
-134.692184
 11
198.247009
 21
-130.073380
  0
LINE
  8
0
 10
190.247009
 20
-134.692215
 11
190.247009
 21
-130.073410
  0
LINE
  8
0
 10
194.246979
 20
-137.001633
 11
198.246994
 21
-134.692215
  0
LINE
  8
0
 10
190.247025
 20
-130.073486
 11
194.247040
 21
-127.764076
  0
LINE
  8
0
 10
197.647003
 20
-128.854355
 11
197.647003
 21
-126.382797
  0
LINE
  8
0
 10
199.147003
 20
-124.882782
 11
189.347015
 21
-124.882782
  0
LINE
  8
0
 10
197.647003
 20
-126.382782
 11
190.847015
 21
-126.382782
  0
LINE
  8
0
 10
190.847015
 20
-128.854355
 11
190.847015
 21
-126.382797
  0
LINE
  8
0
 10
199.147186
 20
-124.883049
 11
197.647186
 21
-126.383049
  0
LINE
  8
0
 10
189.347137
 20
-124.882652
 11
190.847137
 21
-126.382652
  0
LINE
  8
0
 10
159.446991
 20
-148.730301
 11
159.446991
 21
-145.035263
  0
LINE
  8
0
 10
153.046997
 20
-148.730301
 11
153.046997
 21
-145.035263
  0
LINE
  8
0
 10
159.446945
 20
-148.730286
 11
156.246948
 21
-150.577805
  0
LINE
  8
0
 10
156.246964
 20
-143.187729
 11
153.046967
 21
-145.035248
  0
LINE
  8
0
 10
156.246948
 20
-150.577820
 11
153.046951
 21
-148.730301
  0
LINE
  8
0
 10
159.446960
 20
-145.035248
 11
156.246948
 21
-143.187714
  0
LINE
  8
0
 10
173.247009
 20
-158.382782
 11
173.247009
 21
-151.382797
  0
LINE
  8
0
 10
93.246979
 20
-113.382782
 11
93.246979
 21
-120.382782
  0
LINE
  8
0
 10
93.246979
 20
-158.382782
 11
93.246979
 21
-151.382782
  0
LINE
  8
0
 10
159.246979
 20
-144.382782
 11
189.247009
 21
-144.382782
  0
LINE
  8
0
 10
104.746994
 20
-144.382782
 11
77.246979
 21
-144.382782
  0
LINE
  8
0
 10
67.746979
 20
-134.321808
 11
67.746979
 21
-144.882767
  0
LINE
  8
0
 10
198.747009
 20
-134.321854
 11
198.747009
 21
-144.882797
  0
LINE
  8
0
 10
77.246979
 20
-144.882782
 11
67.746979
 21
-144.882782
  0
LINE
  8
0
 10
189.247009
 20
-144.882782
 11
198.747009
 21
-144.882782
  0
LINE
  8
0
 10
103.246979
 20
-150.882782
 11
163.246979
 21
-150.882782
  0
LINE
  8
0
 10
212.946991
 20
-137.382782
 11
198.747009
 21
-137.382782
  0
LINE
  8
0
 62
     2
 10
213.746994
 20
-136.582794
 11
198.747009
 21
-136.582794
  0
LINE
  8
0
 62
     2
 10
213.746994
 20
-128.182800
 11
199.246979
 21
-128.182800
  0
LINE
  8
0
 10
212.947006
 20
-127.382782
 11
199.147003
 21
-127.382782
  0
LINE
  8
0
 10
217.746994
 20
-128.382782
 11
217.746994
 21
-136.382782
  0
LINE
  8
0
 10
212.947449
 20
-137.383316
 11
213.747437
 21
-136.583328
  0
LINE
  8
0
 10
213.746994
 20
-128.182831
 11
213.746994
 21
-136.582809
  0
LINE
  8
0
 10
212.947006
 20
-127.382812
 11
212.947006
 21
-137.382812
  0
LINE
  8
0
 10
213.746841
 20
-128.183044
 11
212.946823
 21
-127.383026
  0
LINE
  8
0
 10
216.746994
 20
-136.382782
 11
216.746994
 21
-128.382782
  0
LINE
  8
0
 10
213.746994
 20
-136.382782
 11
217.746994
 21
-136.382782
  0
LINE
  8
0
 10
213.746994
 20
-128.382782
 11
217.746994
 21
-128.382782
  0
LINE
  8
0
 10
173.247009
 20
-113.382797
 11
173.247009
 21
-120.382782
  0
LINE
  8
0
 10
159.246979
 20
-144.382782
 11
159.246979
 21
-144.919754
  0
LINE
  8
0
 10
163.246979
 20
-144.382782
 11
163.246979
 21
-150.882782
  0
LINE
  8
0
 10
159.246979
 20
-148.845749
 11
159.246979
 21
-150.882782
  0
LINE
  8
0
 10
107.246979
 20
-144.382782
 11
77.246964
 21
-144.382782
  0
LINE
  8
0
 10
107.246979
 20
-144.382782
 11
107.246979
 21
-144.919754
  0
LINE
  8
0
 10
107.246979
 20
-148.845749
 11
107.246979
 21
-150.882782
  0
LINE
  8
0
 10
103.246979
 20
-144.382782
 11
103.246979
 21
-150.882782
  0
LINE
  8
0
 10
53.546951
 20
-127.382782
 11
67.346962
 21
-127.382782
  0
LINE
  8
0
 10
52.746964
 20
-128.382782
 11
48.746964
 21
-128.382782
  0
LINE
  8
0
 10
52.747139
 20
-128.183029
 11
53.547157
 21
-127.383003
  0
LINE
  8
0
 62
     2
 10
52.746964
 20
-128.182800
 11
67.246979
 21
-128.182800
  0
LINE
  8
0
 10
52.746964
 20
-128.182800
 11
52.746964
 21
-136.582794
  0
LINE
  8
0
 10
53.546951
 20
-127.382812
 11
53.546951
 21
-137.382797
  0
LINE
  8
0
 62
     2
 10
52.746964
 20
-136.582794
 11
67.746956
 21
-136.582794
  0
LINE
  8
0
 10
52.746964
 20
-136.382782
 11
48.746964
 21
-136.382782
  0
LINE
  8
0
 10
53.546959
 20
-137.382782
 11
67.746956
 21
-137.382782
  0
LINE
  8
0
 10
53.546524
 20
-137.383255
 11
52.746532
 21
-136.583267
  0
LINE
  8
0
 10
49.746964
 20
-136.382767
 11
49.746964
 21
-128.382782
  0
LINE
  8
0
 10
48.746964
 20
-128.382782
 11
48.746964
 21
-136.382767
  0
LINE
  8
0
  6
CENTER
 62
     2
 10
100.746979
 20
-111.065422
 11
100.746979
 21
-122.541870
  0
LINE
  8
0
  6
CENTER
 62
     2
 10
165.747009
 20
-111.065422
 11
165.747009
 21
-122.321167
  0
LINE
  8
0
  6
CENTER
 62
     2
 10
100.746979
 20
-160.281769
 11
100.746979
 21
-149.467407
  0
LINE
  8
0
  6
CENTER
 62
     2
 10
165.747009
 20
-160.281769
 11
165.747009
 21
-149.246704
  0
LINE
  8
0
  6
CENTER
 62
     2
 10
158.247009
 20
-160.281769
 11
158.247009
 21
-149.246704
  0
LINE
  8
0
  6
CENTER
 62
     2
 10
108.246979
 20
-160.281769
 11
108.246979
 21
-149.467407
  0
LINE
  8
0
 10
77.246994
 20
-112.382782
 11
67.246994
 21
-112.382782
  0
LINE
  8
0
 10
77.246994
 20
-113.982788
 11
67.246994
 21
-113.982788
  0
LINE
  8
0
 10
77.246979
 20
-116.882782
 11
67.347000
 21
-116.882782
  0
LINE
  8
0
 10
76.996994
 20
-115.282776
 11
67.496994
 21
-115.282776
  0
LINE
  8
0
 10
77.246979
 20
-113.982788
 11
77.246979
 21
-112.382782
  0
LINE
  8
0
 10
76.996979
 20
-116.882782
 11
76.996979
 21
-115.282768
  0
LINE
  8
0
 10
67.246979
 20
-113.982788
 11
67.246979
 21
-112.382782
  0
LINE
  8
0
 10
67.496979
 20
-116.882782
 11
67.496979
 21
-115.282776
  0
LINE
  8
0
 10
67.346985
 20
-132.382782
 11
67.346985
 21
-116.882782
  0
LINE
  8
0
 10
75.496979
 20
-115.282776
 11
75.496979
 21
-113.982788
  0
LINE
  8
0
 10
68.996979
 20
-115.282776
 11
68.996979
 21
-113.982788
  0
LINE
  8
0
 10
77.246979
 20
-116.882774
 11
77.246979
 21
-144.882782
  0
LINE
  8
0
 10
199.147003
 20
-132.382797
 11
199.147003
 21
-116.882797
  0
LINE
  8
0
 10
199.247009
 20
-112.382782
 11
189.247009
 21
-112.382782
  0
LINE
  8
0
 10
199.247009
 20
-113.982788
 11
189.247009
 21
-113.982788
  0
LINE
  8
0
 10
199.147003
 20
-116.882782
 11
189.247009
 21
-116.882782
  0
LINE
  8
0
 10
198.997009
 20
-115.282776
 11
189.497009
 21
-115.282776
  0
LINE
  8
0
 10
199.247009
 20
-113.982803
 11
199.247009
 21
-112.382797
  0
LINE
  8
0
 10
198.997009
 20
-116.882797
 11
198.997009
 21
-115.282791
  0
LINE
  8
0
 10
189.247009
 20
-113.982803
 11
189.247009
 21
-112.382797
  0
LINE
  8
0
 10
189.497009
 20
-116.882797
 11
189.497009
 21
-115.282784
  0
LINE
  8
0
 10
197.497009
 20
-115.282791
 11
197.497009
 21
-113.982803
  0
LINE
  8
0
 10
190.997009
 20
-115.282791
 11
190.997009
 21
-113.982803
  0
LINE
  8
0
 10
189.247009
 20
-116.882790
 11
189.247009
 21
-144.882797
  0
LINE
  8
0
  6
CENTER
 62
     2
 10
-168.115723
 20
-56.101379
 11
-168.115723
 21
30.860136
  0
LINE
  8
0
 10
-208.115723
 20
27.935087
 11
-128.115723
 21
27.935087
  0
LINE
  8
0
 10
-208.115723
 20
27.935080
 11
-208.115723
 21
-52.064926
  0
LINE
  8
0
 10
-104.615730
 20
-69.164948
 11
-109.615730
 21
-69.164948
  0
LINE
  8
0
 10
-109.615746
 20
-69.164932
 11
-109.615746
 21
-65.164932
  0
LINE
  8
0
 10
-104.615746
 20
-69.164932
 11
-104.615746
 21
-65.164932
  0
LINE
  8
0
 10
-104.615730
 20
-65.164948
 11
-109.615730
 21
-65.164948
  0
LINE
  8
0
 10
-103.215698
 20
-42.164948
 11
-111.015678
 21
-42.164948
  0
LINE
  8
0
 10
-103.115692
 20
-56.664948
 11
-111.115685
 21
-56.664948
  0
LINE
  8
0
 10
-103.115738
 20
-57.464935
 11
-111.115730
 21
-57.464935
  0
LINE
  8
0
 10
-103.115738
 20
-59.964935
 11
-111.115730
 21
-59.964935
  0
LINE
  8
0
 10
-111.115746
 20
-59.964920
 11
-111.115746
 21
-57.464920
  0
LINE
  8
0
 10
-103.115753
 20
-59.964920
 11
-103.115753
 21
-57.464920
  0
LINE
  8
0
 10
-109.615746
 20
-57.464920
 11
-109.615746
 21
-56.664932
  0
LINE
  8
0
 10
-104.615746
 20
-57.464920
 11
-104.615746
 21
-56.664932
  0
LINE
  8
0
 10
-105.615746
 20
-65.164932
 11
-105.615746
 21
-59.964920
  0
LINE
  8
0
 10
-108.615746
 20
-65.164932
 11
-108.615746
 21
-59.964920
  0
LINE
  8
0
 62
     2
 10
-108.345238
 20
-65.164932
 11
-108.345238
 21
-59.964920
  0
LINE
  8
0
 62
     2
 10
-105.886253
 20
-65.164932
 11
-105.886253
 21
-59.964920
  0
LINE
  8
0
 10
-110.365746
 20
-43.664932
 11
-110.365746
 21
-42.164932
  0
LINE
  8
0
 10
-103.865753
 20
-43.664932
 11
-103.865753
 21
-42.164932
  0
LINE
  8
0
 10
-111.015739
 20
-42.164932
 11
-111.015739
 21
-41.064896
  0
LINE
  8
0
 10
-103.215759
 20
-42.164932
 11
-103.215759
 21
-41.064896
  0
LINE
  8
0
 10
-102.215698
 20
-52.664948
 11
-112.015755
 21
-52.664948
  0
LINE
  8
0
 10
-102.215698
 20
-43.664948
 11
-112.015755
 21
-43.664948
  0
LINE
  8
0
 10
-111.115746
 20
-56.664932
 11
-111.115746
 21
-52.664932
  0
LINE
  8
0
 10
-103.115753
 20
-56.664932
 11
-103.115753
 21
-52.664932
  0
LINE
  8
0
 10
-107.115746
 20
-56.307693
 11
-107.115746
 21
-53.664932
  0
LINE
  8
0
 10
-102.215759
 20
-52.664932
 11
-102.215759
 21
-43.664932
  0
LINE
  8
0
 10
-128.115723
 20
-52.064903
 11
-128.115723
 21
27.935095
  0
LINE
  8
0
 10
-208.115707
 20
-52.064911
 11
-128.115692
 21
-52.064911
  0
LINE
  8
0
  6
CENTER
 62
     2
 10
-199.098770
 20
12.935057
 11
-187.285583
 21
12.935057
  0
LINE
  8
0
  6
CENTER
 62
     2
 10
-193.115723
 20
6.508751
 11
-193.115723
 21
18.751488
  0
LINE
  8
0
  6
CENTER
 62
     2
 10
-143.115723
 20
-16.826717
 11
-143.115723
 21
-7.161388
  0
LINE
  8
0
  6
CENTER
 62
     2
 10
-200.615723
 20
14.008749
 11
-200.615723
 21
26.251486
  0
LINE
  8
0
  6
CENTER
 62
     2
 10
-135.615723
 20
-16.826715
 11
-135.615723
 21
-7.161386
  0
LINE
  8
0
  6
CENTER
 62
     2
 10
-199.098785
 20
-37.064911
 11
-187.285599
 21
-37.064911
  0
LINE
  8
0
  6
CENTER
 62
     2
 10
-193.115723
 20
-30.638588
 11
-193.115723
 21
-42.881355
  0
LINE
  8
0
  6
CENTER
 62
     2
 10
-200.615723
 20
-38.138618
 11
-200.615723
 21
-50.381386
  0
LINE
  8
0
  6
CENTER
 62
     2
 10
-135.615723
 20
14.008764
 11
-135.615723
 21
26.251501
  0
LINE
  8
0
  6
CENTER
 62
     2
 10
-129.632690
 20
20.435087
 11
-141.445877
 21
20.435087
  0
LINE
  8
0
  6
CENTER
 62
     2
 10
-137.132675
 20
-37.064911
 11
-148.945862
 21
-37.064911
  0
LINE
  8
0
  6
CENTER
 62
     2
 10
-143.115723
 20
-30.638577
 11
-143.115723
 21
-42.881344
  0
LINE
  8
0
  6
CENTER
 62
     2
 10
-135.615723
 20
-38.138603
 11
-135.615723
 21
-50.381371
  0
LINE
  8
0
  6
CENTER
 62
     2
 10
-129.632660
 20
-44.564911
 11
-141.445847
 21
-44.564911
  0
LINE
  8
0
  6
CENTER
 62
     2
 10
-200.615723
 20
-16.826715
 11
-200.615723
 21
-7.161402
  0
LINE
  8
0
  6
CENTER
 62
     2
 10
-193.115692
 20
-16.826714
 11
-193.115692
 21
-7.161400
  0
LINE
  8
0
  6
CENTER
 62
     2
 10
-237.383484
 20
-12.064913
 11
-96.515732
 21
-12.064913
  0
LINE
  8
0
  6
CENTER
 62
     2
 10
-171.406631
 20
-37.064911
 11
-164.662506
 21
-37.064911
  0
LINE
  8
0
  6
CENTER
 62
     2
 10
-171.713165
 20
-44.564911
 11
-164.049393
 21
-44.564911
  0
LINE
  8
0
 10
-112.115715
 20
-41.064911
 11
-102.615723
 21
-41.064911
  0
LINE
  8
0
 10
-112.015770
 20
-52.664932
 11
-112.015770
 21
-52.064896
  0
LINE
  8
0
 10
-231.615692
 20
-69.164948
 11
-226.615692
 21
-69.164948
  0
LINE
  8
0
 10
-226.615692
 20
-69.164963
 11
-226.615692
 21
-65.164963
  0
LINE
  8
0
 10
-231.615692
 20
-69.164963
 11
-231.615692
 21
-65.164963
  0
LINE
  8
0
 10
-231.615692
 20
-65.164948
 11
-226.615692
 21
-65.164948
  0
LINE
  8
0
 10
-233.015732
 20
-42.164948
 11
-225.215744
 21
-42.164948
  0
LINE
  8
0
 10
-233.115738
 20
-56.664948
 11
-225.115738
 21
-56.664948
  0
LINE
  8
0
 10
-233.115692
 20
-57.464935
 11
-225.115692
 21
-57.464935
  0
LINE
  8
0
 10
-233.115692
 20
-59.964935
 11
-225.115692
 21
-59.964935
  0
LINE
  8
0
 10
-225.115692
 20
-59.964951
 11
-225.115692
 21
-57.464951
  0
LINE
  8
0
 10
-233.115692
 20
-59.964951
 11
-233.115692
 21
-57.464951
  0
LINE
  8
0
 10
-226.615692
 20
-57.464951
 11
-226.615692
 21
-56.664963
  0
LINE
  8
0
 10
-231.615692
 20
-57.464951
 11
-231.615692
 21
-56.664963
  0
LINE
  8
0
 10
-230.615692
 20
-65.164963
 11
-230.615692
 21
-59.964951
  0
LINE
  8
0
 10
-227.615692
 20
-65.164963
 11
-227.615692
 21
-59.964951
  0
LINE
  8
0
 62
     2
 10
-227.886200
 20
-65.164963
 11
-227.886200
 21
-59.964951
  0
LINE
  8
0
 62
     2
 10
-230.345184
 20
-65.164963
 11
-230.345184
 21
-59.964951
  0
LINE
  8
0
 10
-225.865692
 20
-43.664963
 11
-225.865692
 21
-42.164963
  0
LINE
  8
0
 10
-232.365692
 20
-43.664967
 11
-232.365692
 21
-42.164967
  0
LINE
  8
0
 10
-225.215698
 20
-42.164963
 11
-225.215698
 21
-41.064926
  0
LINE
  8
0
 10
-233.015686
 20
-42.164967
 11
-233.015686
 21
-41.064930
  0
LINE
  8
0
 10
-234.015732
 20
-52.664948
 11
-224.115707
 21
-52.664948
  0
LINE
  8
0
 10
-234.015732
 20
-43.664948
 11
-224.115707
 21
-43.664948
  0
LINE
  8
0
 10
-225.115692
 20
-56.664963
 11
-225.115692
 21
-52.664963
  0
LINE
  8
0
 10
-233.115692
 20
-56.664963
 11
-233.115692
 21
-52.664963
  0
LINE
  8
0
 10
-229.115692
 20
-56.307724
 11
-229.115692
 21
-53.664963
  0
LINE
  8
0
 10
-234.015686
 20
-52.664963
 11
-234.015686
 21
-43.664967
  0
LINE
  8
0
 10
-224.115723
 20
-41.064911
 11
-233.615738
 21
-41.064911
  0
LINE
  8
0
 10
-229.115692
 20
-56.307663
 11
-229.115692
 21
-52.664963
  0
LINE
  8
0
 10
-107.115746
 20
-56.664932
 11
-107.115746
 21
-52.664932
  0
LINE
  8
0
 10
-155.201645
 20
-10.650657
 11
-158.030045
 21
-13.479061
  0
LINE
  8
0
 10
-155.201416
 20
-13.479062
 11
-158.029846
 21
-10.650628
  0
LINE
  8
0
  6
CENTER
 62
     2
 10
-143.115723
 20
6.508762
 11
-143.115723
 21
18.751499
  0
LINE
  8
0
  6
CENTER
 62
     2
 10
-137.132660
 20
12.935057
 11
-148.945847
 21
12.935057
  0
LINE
  8
0
  6
CENTER
 62
     2
 10
-206.598770
 20
20.435087
 11
-194.785583
 21
20.435087
  0
LINE
  8
0
  6
CENTER
 62
     2
 10
-206.598755
 20
-44.564911
 11
-194.785583
 21
-44.564911
  0
LINE
  8
0
 10
-232.579803
 20
9.363279
 11
-230.651367
 21
9.363279
  0
LINE
  8
0
 10
-232.415710
 20
-1.029024
 11
-230.651611
 21
-1.029024
  0
LINE
  8
0
 10
-232.579895
 20
-4.493135
 11
-230.651550
 21
-4.493135
  0
LINE
  8
0
 10
-233.115692
 20
8.435070
 11
-233.115692
 21
-3.564930
  0
LINE
  8
0
 10
-232.579849
 20
9.363179
 11
-233.115738
 21
8.434993
  0
LINE
  8
0
 10
-232.579803
 20
5.899199
 11
-230.651611
 21
5.899199
  0
LINE
  8
0
 10
-232.579849
 20
-4.493086
 11
-233.115768
 21
-3.564846
  0
LINE
  8
0
 10
-230.115723
 20
8.435072
 11
-230.115723
 21
-3.564928
  0
LINE
  8
0
 10
-230.651825
 20
-4.492951
 11
-230.115921
 21
-3.564738
  0
LINE
  8
0
 10
-230.651352
 20
9.363433
 11
-230.115433
 21
8.435193
  0
LINE
  8
0
 10
-103.651627
 20
9.363279
 11
-105.580063
 21
9.363279
  0
LINE
  8
0
 10
-103.815735
 20
-1.029024
 11
-105.579826
 21
-1.029024
  0
LINE
  8
0
 10
-103.651550
 20
-4.493135
 11
-105.579887
 21
-4.493135
  0
LINE
  8
0
 10
-103.115753
 20
8.435104
 11
-103.115753
 21
-3.564896
  0
LINE
  8
0
 10
-103.651276
 20
9.363379
 11
-103.115372
 21
8.435167
  0
LINE
  8
0
 10
-103.651627
 20
5.899199
 11
-105.579819
 21
5.899199
  0
LINE
  8
0
 10
-103.651703
 20
-4.492999
 11
-103.115784
 21
-3.564759
  0
LINE
  8
0
 10
-106.115715
 20
8.435102
 11
-106.115715
 21
-3.564898
  0
LINE
  8
0
 10
-105.579872
 20
-4.492987
 11
-106.115761
 21
-3.564808
  0
LINE
  8
0
 10
-105.580292
 20
9.363552
 11
-106.116211
 21
8.435312
  0
LINE
  8
0
 10
-88.415695
 20
7.435087
 11
-103.115738
 21
7.435087
  0
LINE
  8
0
 62
     2
 10
-87.615723
 20
6.635099
 11
-103.115738
 21
6.635099
  0
LINE
  8
0
 10
-84.615723
 20
6.635099
 11
-87.615723
 21
6.635099
  0
LINE
  8
0
 62
     2
 10
-87.615723
 20
-1.764894
 11
-103.115753
 21
-1.764894
  0
LINE
  8
0
 10
-88.415710
 20
-2.564913
 11
-103.115753
 21
-2.564913
  0
LINE
  8
0
 10
-84.615723
 20
-1.764894
 11
-87.615723
 21
-1.764894
  0
LINE
  8
0
 10
-83.615723
 20
-0.764889
 11
-83.615723
 21
5.635105
  0
LINE
  8
0
 10
-88.415283
 20
7.435615
 11
-87.615303
 21
6.635629
  0
LINE
  8
0
 10
-87.615723
 20
-1.764889
 11
-87.615723
 21
6.635105
  0
LINE
  8
0
 10
-88.415710
 20
-2.564892
 11
-88.415710
 21
7.435108
  0
LINE
  8
0
 10
-87.615952
 20
-1.764601
 11
-88.415955
 21
-2.564608
  0
LINE
  8
0
 10
-84.615814
 20
6.634976
 11
-83.615822
 21
5.634981
  0
LINE
  8
0
 10
-84.615692
 20
-1.764927
 11
-83.615692
 21
-0.764925
  0
LINE
  8
0
 10
-87.615723
 20
5.445494
 11
-84.615723
 21
5.445494
  0
LINE
  8
0
 10
-87.615723
 20
-0.575304
 11
-84.615723
 21
-0.575304
  0
LINE
  8
0
 10
-84.615723
 20
6.635105
 11
-84.615723
 21
5.445499
  0
LINE
  8
0
 10
-84.616333
 20
-0.575298
 11
-84.616333
 21
-1.764889
  0
LINE
  8
0
 62
     2
 10
-84.615669
 20
5.445513
 11
-87.615662
 21
-0.575280
  0
LINE
  8
0
 62
     2
 10
-87.615791
 20
5.445484
 11
-84.615791
 21
-0.575309
  0
LINE
  8
0
 10
-106.115715
 20
-7.064913
 11
-102.615723
 21
-7.064913
  0
LINE
  8
0
 10
-102.615723
 20
-41.064896
 11
-102.615723
 21
-7.064896
  0
LINE
  8
0
 10
-233.615723
 20
-41.064930
 11
-233.615723
 21
-7.064930
  0
LINE
  8
0
 10
-230.115723
 20
-7.064913
 11
-233.615723
 21
-7.064913
  0
LINE
  8
0
 10
-230.115723
 20
13.935026
 11
-224.115723
 21
13.935026
  0
LINE
  8
0
 10
-230.115723
 20
10.113340
 11
-224.115723
 21
10.113340
  0
LINE
  8
0
 10
-230.115723
 20
-7.064928
 11
-230.115723
 21
13.935011
  0
LINE
  8
0
 10
-106.115707
 20
13.935026
 11
-112.115707
 21
13.935026
  0
LINE
  8
0
 10
-106.115707
 20
10.113340
 11
-112.115707
 21
10.113340
  0
LINE
  8
0
 10
-106.115715
 20
-7.064898
 11
-106.115715
 21
13.935041
  0
LINE
  8
0
 10
-166.701645
 20
0.849416
 11
-169.530075
 21
-1.979011
  0
LINE
  8
0
 10
-169.529846
 20
0.849351
 11
-166.701416
 21
-1.979076
  0
LINE
  8
0
 10
-181.029892
 20
-10.650656
 11
-178.201462
 21
-13.479078
  0
LINE
  8
0
 10
-181.030060
 20
-13.479061
 11
-178.201630
 21
-10.650635
  0
LINE
  8
0
 10
-169.529999
 20
-24.979046
 11
-166.701584
 21
-22.150620
  0
LINE
  8
0
 10
-166.701401
 20
-24.979057
 11
-169.529816
 21
-22.150629
  0
LINE
  8
0
  6
CENTER
 62
     2
 10
-171.100098
 20
20.435087
 11
-164.662521
 21
20.435087
  0
LINE
  8
0
  6
CENTER
 62
     2
 10
-171.406631
 20
12.935087
 11
-165.275604
 21
12.935087
  0
LINE
  8
0
 10
-147.115707
 20
-54.064911
 11
-143.115707
 21
-54.064911
  0
LINE
  8
0
 10
-193.115723
 20
-54.064919
 11
-193.115723
 21
-52.064919
  0
LINE
  8
0
 10
-189.115723
 20
-54.064919
 11
-189.115723
 21
-52.064919
  0
LINE
  8
0
 10
-189.115723
 20
-54.064911
 11
-193.115723
 21
-54.064911
  0
LINE
  8
0
 62
     2
 10
-192.515732
 20
-54.064919
 11
-192.515732
 21
-52.064919
  0
LINE
  8
0
 62
     2
 10
-189.715729
 20
-54.064919
 11
-189.715729
 21
-52.064919
  0
LINE
  8
0
 10
-143.115723
 20
-54.064911
 11
-143.115723
 21
-52.064911
  0
LINE
  8
0
 62
     2
 10
-143.715714
 20
-54.064911
 11
-143.715714
 21
-52.064911
  0
LINE
  8
0
 62
     2
 10
-146.515717
 20
-54.064911
 11
-146.515717
 21
-52.064911
  0
LINE
  8
0
 10
-147.115723
 20
-54.064911
 11
-147.115723
 21
-52.064911
  0
LINE
  8
0
 10
-112.115715
 20
-41.064896
 11
-112.115715
 21
16.935102
  0
LINE
  8
0
 10
-112.015770
 20
-52.664932
 11
-112.015770
 21
-43.664932
  0
LINE
  8
0
 10
-128.115723
 20
16.935087
 11
-112.115715
 21
16.935087
  0
LINE
  8
0
 10
-128.115723
 20
-41.064911
 11
-112.115715
 21
-41.064911
  0
LINE
  8
0
 10
-128.115723
 20
14.935087
 11
-112.115715
 21
14.935087
  0
LINE
  8
0
 10
-224.215668
 20
-52.664963
 11
-224.215668
 21
-43.664963
  0
LINE
  8
0
 10
-224.115723
 20
-41.064926
 11
-224.115723
 21
16.935072
  0
LINE
  8
0
 10
-208.115723
 20
-41.064911
 11
-224.115723
 21
-41.064911
  0
LINE
  8
0
 10
-208.115723
 20
16.935087
 11
-224.115723
 21
16.935087
  0
LINE
  8
0
 10
-208.115723
 20
14.935087
 11
-224.115723
 21
14.935087
  0
LINE
  8
0
 10
-152.578323
 20
-19.042948
 11
-143.385834
 21
-22.850590
  0
LINE
  8
0
 10
-152.195633
 20
-18.119095
 11
-143.003143
 21
-21.926739
  0
LINE
  8
0
 10
-152.578369
 20
-5.086725
 11
-143.385895
 21
-1.279075
  0
LINE
  8
0
 10
-152.195648
 20
-6.010642
 11
-143.003159
 21
-2.202992
  0
LINE
  8
0
 10
-247.815750
 20
7.435087
 11
-233.115707
 21
7.435087
  0
LINE
  8
0
 62
     2
 10
-248.615723
 20
6.635099
 11
-233.115707
 21
6.635099
  0
LINE
  8
0
 10
-251.615723
 20
6.635099
 11
-248.615723
 21
6.635099
  0
LINE
  8
0
 62
     2
 10
-248.615723
 20
-1.764894
 11
-233.115692
 21
-1.764894
  0
LINE
  8
0
 10
-247.815735
 20
-2.564913
 11
-233.115692
 21
-2.564913
  0
LINE
  8
0
 10
-251.615723
 20
-1.764894
 11
-248.615723
 21
-1.764894
  0
LINE
  8
0
 10
-252.615723
 20
-0.764931
 11
-252.615723
 21
5.635063
  0
LINE
  8
0
 10
-247.816223
 20
7.435615
 11
-248.616196
 21
6.635628
  0
LINE
  8
0
 10
-248.615723
 20
-1.764931
 11
-248.615723
 21
6.635063
  0
LINE
  8
0
 10
-247.815735
 20
-2.564934
 11
-247.815735
 21
7.435066
  0
LINE
  8
0
 10
-248.615555
 20
-1.764697
 11
-247.815552
 21
-2.564704
  0
LINE
  8
0
 10
-251.615692
 20
6.634962
 11
-252.615692
 21
5.634970
  0
LINE
  8
0
 10
-251.615723
 20
-1.764974
 11
-252.615723
 21
-0.764972
  0
LINE
  8
0
 10
-248.615723
 20
5.445494
 11
-251.615723
 21
5.445494
  0
LINE
  8
0
 10
-248.615723
 20
-0.575304
 11
-251.615723
 21
-0.575304
  0
LINE
  8
0
 10
-251.615723
 20
6.635063
 11
-251.615723
 21
5.445457
  0
LINE
  8
0
 10
-251.615112
 20
-0.575340
 11
-251.615112
 21
-1.764931
  0
LINE
  8
0
 62
     2
 10
-251.615692
 20
5.445495
 11
-248.615692
 21
-0.575296
  0
LINE
  8
0
 62
     2
 10
-248.615646
 20
5.445414
 11
-251.615631
 21
-0.575381
  0
ARC
  8
0
 10
206.711121
 20
2.435092
 40
11.464125
 50
162.412003
 51
197.587967
  0
ARC
  8
0
 10
198.313965
 20
7.631258
 40
3.066973
 50
145.615417
 51
214.384155
  0
ARC
  8
0
 10
186.782837
 20
2.435088
 40
11.464137
 50
342.412048
 51
17.588018
  0
ARC
  8
0
 10
195.179993
 20
-2.761047
 40
3.066974
 50
325.615387
 51
34.384144
  0
ARC
  8
0
 10
195.179993
 20
7.631256
 40
3.066975
 50
325.615845
 51
34.384598
  0
ARC
  8
0
 10
68.313980
 20
7.631235
 40
3.066968
 50
145.615311
 51
214.384216
  0
ARC
  8
0
 10
65.180023
 20
-2.761099
 40
3.066973
 50
325.615417
 51
34.384251
  0
ARC
  8
0
 10
65.180023
 20
7.631235
 40
3.066968
 50
325.615814
 51
34.384708
  0
ARC
  8
0
 10
76.711128
 20
2.435070
 40
11.464130
 50
162.412033
 51
197.587997
  0
ARC
  8
0
 10
56.782867
 20
2.435066
 40
11.464131
 50
342.412018
 51
17.587982
  0
ARC
  8
0
 10
68.313980
 20
-2.761097
 40
3.066969
 50
145.615768
 51
214.384674
  0
ARC
  8
0
 10
70.246994
 20
-50.388237
 40
5.776711
 50
249.743851
 51
290.256165
  0
CIRCLE
  8
0
 10
72.246994
 20
-48.164940
 40
2.000000
  0
ARC
  8
0
 10
74.246994
 20
-50.388237
 40
5.776713
 50
249.743774
 51
290.256165
  0
CIRCLE
  8
0
 10
72.246994
 20
-48.164940
 40
5.000000
  0
CIRCLE
  8
0
 62
     2
 10
100.746971
 20
20.435072
 40
2.000000
  0
CIRCLE
  8
0
 62
     2
 10
100.746986
 20
-44.564934
 40
2.000000
  0
CIRCLE
  8
0
 62
     2
 10
165.746994
 20
-44.564919
 40
2.000000
  0
ARC
  8
0
 10
133.246979
 20
19.435080
 40
3.000000
 50
180.000031
 51
0.000036
  0
ARC
  8
0
 10
53.778244
 20
2.435059
 40
5.031250
 50
143.248810
 51
216.751114
  0
CIRCLE
  8
0
 62
     2
 10
165.746979
 20
20.435087
 40
2.000000
  0
CIRCLE
  8
0
 10
133.246979
 20
-44.564926
 40
3.000000
  0
CIRCLE
  8
0
 10
133.246979
 20
-12.064920
 40
12.200000
  0
CIRCLE
  8
0
 10
194.246979
 20
-48.164917
 40
5.000000
  0
ARC
  8
0
 10
192.246979
 20
-50.388222
 40
5.776711
 50
249.743851
 51
290.256165
  0
CIRCLE
  8
0
 10
194.246979
 20
-48.164917
 40
2.000000
  0
ARC
  8
0
 10
196.246979
 20
-50.388214
 40
5.776711
 50
249.743851
 51
290.256165
  0
ARC
  8
0
 10
189.782837
 20
2.435089
 40
11.464137
 50
342.412048
 51
17.588018
  0
ARC
  8
0
 10
201.313965
 20
7.631258
 40
3.066973
 50
145.615417
 51
214.384155
  0
ARC
  8
0
 10
198.179993
 20
7.631258
 40
3.066975
 50
325.615845
 51
34.384598
  0
ARC
  8
0
 10
201.313965
 20
-2.761045
 40
3.066975
 50
145.615860
 51
214.384613
  0
ARC
  8
0
 10
209.711121
 20
2.435093
 40
11.464125
 50
162.412003
 51
197.587967
  0
ARC
  8
0
 10
198.179993
 20
-2.761047
 40
3.066974
 50
325.615387
 51
34.384144
  0
ARC
  8
0
 10
212.715729
 20
2.435085
 40
5.031250
 50
323.248871
 51
36.751148
  0
ARC
  8
0
 10
68.180023
 20
-2.761099
 40
3.066973
 50
325.615417
 51
34.384251
  0
ARC
  8
0
 10
71.313972
 20
7.631237
 40
3.066968
 50
145.615311
 51
214.384216
  0
ARC
  8
0
 10
68.180023
 20
7.631235
 40
3.066968
 50
325.615814
 51
34.384708
  0
ARC
  8
0
 10
79.711128
 20
2.435071
 40
11.464130
 50
162.412033
 51
197.587997
  0
ARC
  8
0
 10
71.313972
 20
-2.761097
 40
3.066969
 50
145.615768
 51
214.384674
  0
ARC
  8
0
 10
59.782867
 20
2.435067
 40
11.464131
 50
342.412018
 51
17.587982
  0
ARC
  8
0
 10
198.313965
 20
-2.761045
 40
3.066975
 50
145.615860
 51
214.384613
  0
CIRCLE
  8
0
 10
165.746979
 20
20.435087
 40
1.600000
  0
CIRCLE
  8
0
 10
165.746994
 20
-44.564911
 40
1.600000
  0
CIRCLE
  8
0
 10
100.746964
 20
20.435072
 40
1.600000
  0
CIRCLE
  8
0
 10
100.746979
 20
-44.564926
 40
1.600000
  0
CIRCLE
  8
0
 10
-14.752941
 20
2.435083
 40
5.000000
  0
CIRCLE
  8
0
 62
     2
 10
-14.752941
 20
2.435083
 40
4.200000
  0
CIRCLE
  8
0
 10
-14.752941
 20
2.435083
 40
6.500000
  0
ARC
  8
0
 10
-18.217068
 20
-54.120243
 40
2.044656
 50
235.615692
 51
304.384308
  0
ARC
  8
0
 10
-11.288845
 20
-54.120251
 40
2.044654
 50
235.615585
 51
304.384308
  0
ARC
  8
0
 10
-14.752954
 20
-48.522198
 40
7.642726
 50
252.411957
 51
287.587952
  0
ARC
  8
0
 10
-26.222160
 20
-41.976028
 40
1.788888
 50
235.615799
 51
304.384644
  0
ARC
  8
0
 10
-32.283745
 20
-41.976028
 40
1.788887
 50
235.615402
 51
304.384186
  0
ARC
  8
0
 10
-29.252953
 20
-37.078156
 40
6.686742
 50
252.412033
 51
287.588013
  0
ARC
  8
0
 62
     4
 10
-14.752937
 20
18.885082
 40
3.050000
 50
10.388917
 51
169.611084
  0
CIRCLE
  8
0
 62
     4
 10
133.247025
 20
126.270065
 40
2.750000
  0
CIRCLE
  8
0
 62
     4
 10
165.247025
 20
126.269997
 40
2.750000
  0
ARC
  8
0
 62
     4
 10
106.305946
 20
136.163391
 40
2.000002
 50
225.000000
 51
269.999786
  0
ARC
  8
0
 62
     4
 10
106.161644
 20
136.307663
 40
6.000001
 50
224.999847
 51
269.999847
  0
ARC
  8
0
 62
     4
 10
106.305901
 20
116.376862
 40
2.000000
 50
89.999779
 51
134.999695
  0
ARC
  8
0
 62
     4
 10
106.161598
 20
116.232574
 40
6.000000
 50
89.999779
 51
134.999847
  0
CIRCLE
  8
0
 10
149.247025
 20
126.270012
 40
0.800000
  0
CIRCLE
  8
0
 62
     2
 10
149.247025
 20
126.270012
 40
1.500000
  0
ARC
  8
0
 10
192.579971
 20
129.269897
 40
8.666962
 50
339.748322
 51
20.251417
  0
ARC
  8
0
 10
192.579956
 20
123.269890
 40
8.666965
 50
339.748260
 51
20.251369
  0
ARC
  8
0
 10
206.913895
 20
129.269867
 40
8.666969
 50
159.748169
 51
200.251373
  0
ARC
  8
0
 10
206.913879
 20
123.269859
 40
8.666965
 50
159.748260
 51
200.251419
  0
ARC
  8
0
 10
203.913940
 20
129.269867
 40
8.666969
 50
159.748169
 51
200.251373
  0
ARC
  8
0
 10
189.580017
 20
129.269897
 40
8.666962
 50
339.748322
 51
20.251417
  0
ARC
  8
0
 10
189.580002
 20
123.269897
 40
8.666965
 50
339.748260
 51
20.251369
  0
ARC
  8
0
 10
203.913940
 20
123.269867
 40
8.666965
 50
159.748260
 51
200.251419
  0
ARC
  8
0
 10
62.580101
 20
123.270180
 40
8.666962
 50
339.748322
 51
20.251417
  0
ARC
  8
0
 10
76.914017
 20
123.270149
 40
8.666962
 50
159.748306
 51
200.251465
  0
ARC
  8
0
 10
73.914078
 20
129.270172
 40
8.666965
 50
159.748260
 51
200.251419
  0
ARC
  8
0
 10
59.580154
 20
129.270203
 40
8.666966
 50
339.748383
 51
20.251513
  0
ARC
  8
0
 10
62.580109
 20
129.270187
 40
8.666966
 50
339.748383
 51
20.251513
  0
ARC
  8
0
 10
73.914062
 20
123.270157
 40
8.666962
 50
159.748306
 51
200.251465
  0
ARC
  8
0
 10
76.914032
 20
129.270157
 40
8.666965
 50
159.748260
 51
200.251419
  0
ARC
  8
0
 10
59.580147
 20
123.270187
 40
8.666962
 50
339.748322
 51
20.251417
  0
CIRCLE
  8
0
 62
     2
 10
110.246979
 20
-146.882782
 40
2.000000
  0
CIRCLE
  8
0
 10
110.246979
 20
-146.882782
 40
3.200000
  0
CIRCLE
  8
0
 10
72.246994
 20
-132.382782
 40
2.500000
  0
CIRCLE
  8
0
 10
72.246994
 20
-132.382782
 40
4.000000
  0
CIRCLE
  8
0
 10
72.246994
 20
-132.382782
 40
4.900000
  0
CIRCLE
  8
0
 10
194.247009
 20
-132.382797
 40
2.500000
  0
CIRCLE
  8
0
 10
194.247009
 20
-132.382797
 40
4.000000
  0
CIRCLE
  8
0
 10
194.247009
 20
-132.382797
 40
4.900000
  0
CIRCLE
  8
0
 10
156.246979
 20
-146.882782
 40
3.200000
  0
CIRCLE
  8
0
 62
     2
 10
156.246979
 20
-146.882782
 40
2.000000
  0
CIRCLE
  8
0
 62
     2
 10
125.246986
 20
-146.882782
 40
1.500000
  0
CIRCLE
  8
0
 10
125.246986
 20
-146.882782
 40
1.000000
  0
CIRCLE
  8
0
 10
110.246979
 20
-146.882782
 40
1.400000
  0
CIRCLE
  8
0
 10
156.246979
 20
-146.882782
 40
1.400000
  0
ARC
  8
0
 10
-105.115707
 20
-50.888199
 40
5.776711
 50
249.743851
 51
290.256165
  0
ARC
  8
0
 10
-109.115707
 20
-50.888199
 40
5.776711
 50
249.743927
 51
290.256226
  0
CIRCLE
  8
0
 10
-193.115723
 20
12.935051
 40
2.250000
  0
CIRCLE
  8
0
 62
     2
 10
-200.615723
 20
20.435080
 40
4.000000
  0
CIRCLE
  8
0
 10
-200.615723
 20
20.435080
 40
2.250000
  0
CIRCLE
  8
0
 10
-143.115723
 20
-12.064907
 40
2.000000
  0
CIRCLE
  8
0
 10
-168.115723
 20
20.435087
 40
2.000000
  0
CIRCLE
  8
0
 10
-193.115723
 20
-37.064919
 40
2.250000
  0
CIRCLE
  8
0
 62
     2
 10
-193.115723
 20
-37.064919
 40
4.000000
  0
CIRCLE
  8
0
 62
     2
 10
-200.615707
 20
-44.564919
 40
4.000000
  0
CIRCLE
  8
0
 10
-200.615707
 20
-44.564919
 40
2.250000
  0
CIRCLE
  8
0
 62
     2
 10
-135.615723
 20
20.435095
 40
4.000000
  0
CIRCLE
  8
0
 10
-135.615723
 20
20.435095
 40
2.250000
  0
CIRCLE
  8
0
 10
-143.115723
 20
-37.064907
 40
2.250000
  0
CIRCLE
  8
0
 62
     2
 10
-143.115723
 20
-37.064907
 40
4.000000
  0
CIRCLE
  8
0
 62
     2
 10
-135.615723
 20
-44.564903
 40
4.000000
  0
CIRCLE
  8
0
 10
-135.615723
 20
-44.564903
 40
2.250000
  0
CIRCLE
  8
0
 10
-168.115723
 20
-44.564911
 40
2.000000
  0
CIRCLE
  8
0
 10
-193.115692
 20
-12.064919
 40
2.000000
  0
CIRCLE
  8
0
 10
-200.615723
 20
-12.064905
 40
2.000000
  0
CIRCLE
  8
0
 10
-168.115723
 20
12.935057
 40
2.000000
  0
CIRCLE
  8
0
 10
-168.115723
 20
-37.064911
 40
2.000000
  0
CIRCLE
  8
0
 10
-135.615723
 20
-12.064920
 40
2.000000
  0
CIRCLE
  8
0
 10
-143.115723
 20
12.935062
 40
2.250000
  0
ARC
  8
0
 10
-231.115723
 20
-50.888229
 40
5.776714
 50
249.743866
 51
290.256317
  0
ARC
  8
0
 10
-227.115723
 20
-50.888229
 40
5.776711
 50
249.743851
 51
290.256165
  0
CIRCLE
  8
0
 62
     2
 10
-193.115723
 20
12.935051
 40
4.000000
  0
CIRCLE
  8
0
 62
     2
 10
-159.696640
 20
-32.390259
 40
4.000000
  0
CIRCLE
  8
0
 62
     2
 10
-176.534714
 20
-32.390293
 40
4.000000
  0
CIRCLE
  8
0
 62
     2
 10
-188.441055
 20
-20.484001
 40
4.000000
  0
CIRCLE
  8
0
 62
     2
 10
-188.441101
 20
-3.645927
 40
4.000000
  0
CIRCLE
  8
0
 10
-168.115723
 20
-12.064913
 40
15.500000
  0
ARC
  8
0
 10
-221.651581
 20
2.435074
 40
11.464124
 50
162.412018
 51
197.588013
  0
ARC
  8
0
 10
-233.182709
 20
7.631237
 40
3.066975
 50
325.615875
 51
34.384613
  0
ARC
  8
0
 10
-230.048737
 20
7.631239
 40
3.066972
 50
145.615433
 51
214.384338
  0
ARC
  8
0
 10
-233.182709
 20
-2.761066
 40
3.066973
 50
325.615417
 51
34.384163
  0
ARC
  8
0
 10
-241.579849
 20
2.435083
 40
11.464134
 50
342.412109
 51
17.588041
  0
ARC
  8
0
 10
-230.048752
 20
-2.761066
 40
3.066974
 50
145.615891
 51
214.384628
  0
ARC
  8
0
 10
-103.048744
 20
7.631271
 40
3.066972
 50
145.615448
 51
214.384277
  0
ARC
  8
0
 10
-106.182693
 20
7.631269
 40
3.066968
 50
325.615814
 51
34.384724
  0
ARC
  8
0
 10
-103.048752
 20
-2.761032
 40
3.066967
 50
145.615829
 51
214.384735
  0
ARC
  8
0
 10
-94.651581
 20
2.435091
 40
11.464129
 50
162.412064
 51
197.588013
  0
ARC
  8
0
 10
-106.182709
 20
-2.761032
 40
3.066972
 50
325.615417
 51
34.384262
  0
ARC
  8
0
 10
-114.579849
 20
2.435101
 40
11.464134
 50
342.412109
 51
17.588066
  0
ARC
  8
0
 10
-88.646973
 20
2.435108
 40
5.031250
 50
323.248871
 51
36.751148
  0
CIRCLE
  8
0
 62
     2
 10
-143.115723
 20
12.935062
 40
4.000000
  0
CIRCLE
  8
0
 10
-168.115723
 20
-12.064913
 40
2.000000
  0
CIRCLE
  8
0
 10
-156.615723
 20
-12.064909
 40
3.000000
  0
CIRCLE
  8
0
 10
-168.115723
 20
-0.564913
 40
3.000000
  0
CIRCLE
  8
0
 10
-179.615723
 20
-12.064917
 40
3.000000
  0
CIRCLE
  8
0
 10
-168.115723
 20
-23.564911
 40
3.000000
  0
CIRCLE
  8
0
 10
-168.115723
 20
-12.064913
 40
7.500000
  0
CIRCLE
  8
0
 62
     2
 10
-159.696732
 20
8.260468
 40
4.000000
  0
CIRCLE
  8
0
 62
     2
 10
-176.534805
 20
8.260433
 40
4.000000
  0
CIRCLE
  8
0
 10
-147.790756
 20
-20.484905
 40
5.000000
  0
CIRCLE
  8
0
 10
-147.790756
 20
-20.484905
 40
6.000000
  0
CIRCLE
  8
0
 10
-147.790756
 20
-3.644909
 40
5.000000
  0
CIRCLE
  8
0
 10
-147.790756
 20
-3.644909
 40
6.000000
  0
ARC
  8
0
 10
-247.584473
 20
2.435066
 40
5.031252
 50
143.248856
 51
216.751129
  0
CIRCLE
  8
0
 10
-188.441101
 20
-3.645927
 40
3.500000
  0
CIRCLE
  8
0
 10
-188.441055
 20
-20.484001
 40
3.500000
  0
CIRCLE
  8
0
 10
-176.534714
 20
-32.390293
 40
3.500000
  0
CIRCLE
  8
0
 10
-159.696640
 20
-32.390259
 40
3.500000
  0
CIRCLE
  8
0
 10
-176.534805
 20
8.260433
 40
3.500000
  0
CIRCLE
  8
0
 10
-159.696732
 20
8.260468
 40
3.500000
  0
TEXT
  8
0
 10
174.200241
 20
180.830002
 40
6.300000
  1
DATE: MAY ,1993
 50
0.000000
 41
1.052632
 51
0.000000
  7
STANDARD
  0
TEXT
  8
0
 10
167.564667
 20
-192.100006
 40
9.000000
  1
KOGANEI CORP.
 50
0.000000
 41
1.052632
 51
0.000000
  7
STANDARD
  0
TEXT
  8
0
 10
-269.149719
 20
180.830002
 40
6.300000
  1
HANDLING MODULE
 50
0.000000
 41
1.052632
 51
0.000000
  7
STANDARD
  0
TEXT
  8
0
 10
-270.049713
 20
155.830002
 40
6.300000
  1
MODEL:SHM21M-MA
 50
0.000000
 41
1.052632
 51
0.000000
  7
STANDARD
  0
ENDSEC
  0
EOF
