  0
SECTION
  2
HEADER
  0
ENDSEC
  0
SECTION
  2
TABLES
  0
TABLE
  2
LTYPE
 70
     4
  0
LTYPE
  2
CONTINUOUS
 70
    64
  3
Solid line
 72
    65
 73
     0
 40
0.000000
  0
LTYPE
  2
DASHED
 70
    64
  3
__ __ __ __ __ __ __ __ __ __ __ __ __ __ __
 72
    65
 73
     2
 40
3.500000
 49
2.000000
 49
-1.500000
  0
LTYPE
  2
CENTER
 70
    64
  3
____ _ ____ _ ____ _ ____ _ ____ _ ____ _ ____
 72
    65
 73
     4
 40
17.500000
 49
13.000000
 49
-1.500000
 49
1.500000
 49
-1.500000
  0
LTYPE
  2
PHANTOM
 70
    64
  3
_____ _ _ _____ _ _ _____ _ _ _____ _ _ ____  
 72
    65
 73
     6
 40
15.500000
 49
8.000000
 49
-1.500000
 49
1.500000
 49
-1.500000
 49
1.500000
 49
-1.500000
  0
LTYPE
  2
DASHED1
 70
    64
  3
__ __ __ __ __ __ __ __ __ __ __ __ __ __ __
 72
    65
 73
     2
 40
1.500000
 49
1.000000
 49
-0.500000
  0
LTYPE
  2
DASHED2
 70
    64
  3
__ __ __ __ __ __ __ __ __ __ __ __ __ __ __
 72
    65
 73
     2
 40
3.500000
 49
2.500000
 49
-1.000000
  0
LTYPE
  2
DASHED3
 70
    64
  3
__ __ __ __ __ __ __ __ __ __ __ __ __ __ __
 72
    65
 73
     2
 40
6.000000
 49
4.000000
 49
-2.000000
  0
LTYPE
  2
DASHED4
 70
    64
  3
__ __ __ __ __ __ __ __ __ __ __ __ __ __ __
 72
    65
 73
     2
 40
12.000000
 49
10.000000
 49
-2.000000
  0
LTYPE
  2
DASHED5
 70
    64
  3
__ __ __ __ __ __ __ __ __ __ __ __ __ __ __
 72
    65
 73
     2
 40
17.000000
 49
15.000000
 49
-2.000000
  0
LTYPE
  2
DASHED6
 70
    64
  3
__ __ __ __ __ __ __ __ __ __ __ __ __ __ __
 72
    65
 73
     2
 40
29.000000
 49
27.000000
 49
-2.000000
  0
LTYPE
  2
PHANTOM1
 70
    64
  3
_____ _ _ _____ _ _ _____ _ _ _____ _ _ ____  
 72
    65
 73
     6
 40
31.000000
 49
25.000000
 49
-1.500000
 49
1.000000
 49
-1.000000
 49
1.000000
 49
-1.500000
  0
LTYPE
  2
PHANTOM2
 70
    64
  3
_____ _ _ _____ _ _ _____ _ _ _____ _ _ ____  
 72
    65
 73
     6
 40
36.000000
 49
27.000000
 49
-1.500000
 49
2.500000
 49
-1.000000
 49
2.500000
 49
-1.500000
  0
LTYPE
  2
PHANTOM3
 70
    64
  3
_____ _ _ _____ _ _ _____ _ _ _____ _ _ ____  
 72
    65
 73
     6
 40
78.000000
 49
64.000000
 49
-2.000000
 49
4.000000
 49
-2.000000
 49
4.000000
 49
-2.000000
  0
LTYPE
  2
CENTER1
 70
    64
  3
____ _ ____ _ ____ _ ____ _ ____ _ ____ _ ____
 72
    65
 73
     4
 40
19.000000
 49
14.000000
 49
-1.000000
 49
3.000000
 49
-1.000000
  0
LTYPE
  2
CENTER2
 70
    64
  3
____ _ ____ _ ____ _ ____ _ ____ _ ____ _ ____
 72
    65
 73
     4
 40
28.500000
 49
25.000000
 49
-1.000000
 49
1.500000
 49
-1.000000
  0
LTYPE
  2
CENTER3
 70
    64
  3
____ _ ____ _ ____ _ ____ _ ____ _ ____ _ ____
 72
    65
 73
     4
 40
31.500000
 49
27.000000
 49
-1.000000
 49
2.500000
 49
-1.000000
  0
LTYPE
  2
CENTER4
 70
    64
  3
____ _ ____ _ ____ _ ____ _ ____ _ ____ _ ____
 72
    65
 73
     4
 40
50.000000
 49
45.000000
 49
-1.000000
 49
3.000000
 49
-1.000000
  0
LTYPE
  2
CENTER5
 70
    64
  3
____ _ ____ _ ____ _ ____ _ ____ _ ____ _ ____
 72
    65
 73
     4
 40
100.000000
 49
92.000000
 49
-2.000000
 49
4.000000
 49
-2.000000
  0
LTYPE
  2
SBK1
 70
    64
  3
______ _ _ _ ______ _ _ _ ______ _ _ _ _____  
 72
    65
 73
     8
 40
60.500000
 49
45.000000
 49
-2.000000
 49
2.500000
 49
-2.000000
 49
2.500000
 49
-2.000000
 49
2.500000
 49
-2.000000
  0
LTYPE
  2
SBK2
 70
    64
  3
______ _ _ _ ______ _ _ _ ______ _ _ _ _____  
 72
    65
 73
     8
 40
84.000000
 49
64.000000
 49
-2.000000
 49
4.000000
 49
-2.000000
 49
4.000000
 49
-2.000000
 49
4.000000
 49
-2.000000
  0
LTYPE
  2
STCH
 70
    64
  3
__ __ __ __ __ __ __ __ __ __ __ __ __ __ __
 72
    65
 73
     2
 40
3.000000
 49
1.000000
 49
-2.000000
  0
LTYPE
  2
MTCH
 70
    64
  3
_____ _ _ _____ _ _ _____ _ _ _____ _ _ ____  
 72
    65
 73
     6
 40
80.000000
 49
66.000000
 49
-2.000000
 49
4.000000
 49
-2.000000
 49
4.000000
 49
-2.000000
  0
ENDTAB
  0
TABLE
  2
LAYER
 70
     1
  0
LAYER
  2
0
 70
     0
 62
     7
  6
CONTINUOUS
  0
ENDTAB
  0
TABLE
  2
STYLE
 70
     1
  0
STYLE
  2
STANDARD
 70
     0
 40
0.000000
 41
1.000000
 50
0.000000
 71
     0
 42
0.200000
  3
txt
  4
BIGFONT
  0
ENDTAB
  0
TABLE
  2
VIEW
 70
     0
  0
ENDTAB
  0
ENDSEC
  0
SECTION
  2
BLOCKS
  0
ENDSEC
  0
SECTION
  2
ENTITIES
  0
LINE
  8
0
 10
-281.250000
 20
195.500000
 11
282.099976
 21
195.500000
  0
LINE
  8
0
 10
-281.250000
 20
195.500000
 11
-281.250000
 21
-195.000000
  0
LINE
  8
0
 10
282.099976
 20
195.500000
 11
282.099976
 21
-195.000000
  0
LINE
  8
0
 10
-281.250000
 20
-195.000000
 11
282.099976
 21
-195.000000
  0
LINE
  8
0
 10
162.099976
 20
-175.000000
 11
162.099976
 21
-195.000000
  0
LINE
  8
0
 10
162.099976
 20
-175.000000
 11
282.099976
 21
-175.000000
  0
LINE
  8
0
 10
162.099976
 20
175.500000
 11
282.099976
 21
175.500000
  0
LINE
  8
0
 10
-281.250000
 20
175.500000
 11
-161.250000
 21
175.500000
  0
LINE
  8
0
 10
162.099976
 20
195.500000
 11
162.099976
 21
175.500000
  0
LINE
  8
0
 10
-161.250000
 20
195.500000
 11
-161.250000
 21
175.500000
  0
LINE
  8
0
  6
CENTER
 62
     2
 10
-85.523453
 20
-137.697968
 11
-85.523453
 21
-31.811295
  0
LINE
  8
0
  6
CENTER
 62
     2
 10
-31.926277
 20
-84.556389
 11
-139.726288
 21
-84.556389
  0
LINE
  8
0
 10
-35.523491
 20
-134.556396
 11
-135.523468
 21
-134.556396
  0
LINE
  8
0
 10
-35.523476
 20
-34.556389
 11
-135.523468
 21
-34.556389
  0
LINE
  8
0
 10
-35.523460
 20
-134.556396
 11
-35.523460
 21
-34.556412
  0
LINE
  8
0
 10
-135.523453
 20
-134.556396
 11
-135.523453
 21
-34.556396
  0
LINE
  8
0
 10
-88.523453
 20
-43.056404
 11
-88.523453
 21
-34.556404
  0
LINE
  8
0
 10
-82.523453
 20
-43.056404
 11
-82.523453
 21
-34.556404
  0
LINE
  8
0
  6
CENTER
 62
     2
 10
-124.863869
 20
-127.056389
 11
-131.539124
 21
-127.056389
  0
LINE
  8
0
  6
CENTER
 62
     2
 10
-39.377663
 20
-127.056389
 11
-46.483559
 21
-127.056389
  0
LINE
  8
0
  6
CENTER
 62
     2
 10
-39.808327
 20
-42.056389
 11
-46.483559
 21
-42.056389
  0
LINE
  8
0
  6
CENTER
 62
     2
 10
-43.023460
 20
-45.358475
 11
-43.023460
 21
-38.898556
  0
LINE
  8
0
  6
CENTER
 62
     2
 10
-124.863853
 20
-42.056389
 11
-131.277237
 21
-42.056389
  0
LINE
  8
0
  6
CENTER
 62
     2
 10
-128.023453
 20
-45.573792
 11
-128.023453
 21
-39.113876
  0
LINE
  8
0
  6
CENTER
 62
     2
 10
-80.601929
 20
-127.056389
 11
-90.556290
 21
-127.056389
  0
LINE
  8
0
  6
CENTER
 62
     2
 10
-80.145126
 20
-43.056389
 11
-90.830246
 21
-43.056389
  0
LINE
  8
0
  6
CENTER
 62
     2
 10
-128.023453
 20
-123.538986
 11
-128.023453
 21
-129.998901
  0
LINE
  8
0
  6
CENTER
 62
     2
 10
-43.023460
 20
-123.754303
 11
-43.023460
 21
-130.214218
  0
LINE
  8
0
 10
-190.523453
 20
-34.556385
 11
-251.523437
 21
-34.556385
  0
LINE
  8
0
 10
-190.523468
 20
-134.556396
 11
-251.523468
 21
-134.556396
  0
LINE
  8
0
  6
CENTER
 62
     2
 10
-188.050171
 20
-84.556389
 11
-262.520966
 21
-84.556389
  0
LINE
  8
0
 10
-190.523437
 20
-34.556396
 11
-190.523437
 21
-134.556396
  0
LINE
  8
0
 10
-260.523437
 20
-34.556381
 11
-260.523437
 21
-134.556396
  0
LINE
  8
0
 10
-253.523437
 20
-34.556385
 11
-260.523468
 21
-34.556385
  0
LINE
  8
0
 10
-253.523468
 20
-134.556396
 11
-260.523468
 21
-134.556396
  0
LINE
  8
0
 10
-240.923431
 20
-38.595619
 11
-240.923431
 21
-46.517159
  0
LINE
  8
0
 10
-204.523468
 20
-60.556389
 11
-244.523468
 21
-60.556389
  0
LINE
  8
0
 10
-204.523468
 20
-54.556389
 11
-244.523468
 21
-54.556389
  0
LINE
  8
0
 62
     2
 10
-204.523468
 20
-55.056389
 11
-244.523468
 21
-55.056389
  0
LINE
  8
0
 62
     2
 10
-204.523468
 20
-60.056389
 11
-244.523468
 21
-60.056389
  0
LINE
  8
0
 10
-252.523437
 20
-38.556389
 11
-252.523437
 21
-46.556389
  0
LINE
  8
0
 10
-252.523468
 20
-46.556389
 11
-253.523468
 21
-46.556389
  0
LINE
  8
0
 10
-252.523437
 20
-38.556385
 11
-253.523437
 21
-38.556385
  0
LINE
  8
0
 10
-251.523437
 20
-39.556385
 11
-252.023437
 21
-39.556385
  0
LINE
  8
0
 62
     2
 10
-251.523437
 20
-40.056385
 11
-252.523437
 21
-40.056385
  0
LINE
  8
0
 62
     2
 10
-251.523468
 20
-45.056389
 11
-252.523468
 21
-45.056389
  0
LINE
  8
0
 10
-251.523468
 20
-45.556389
 11
-252.023468
 21
-45.556389
  0
LINE
  8
0
 10
-232.523437
 20
-40.056389
 11
-232.523437
 21
-45.056389
  0
LINE
  8
0
 10
-204.523437
 20
-52.056389
 11
-204.523437
 21
-63.056389
  0
LINE
  8
0
 10
-202.523437
 20
-52.056389
 11
-202.523437
 21
-63.056389
  0
LINE
  8
0
 10
-202.523468
 20
-52.056389
 11
-204.523468
 21
-52.056389
  0
LINE
  8
0
 10
-202.523468
 20
-63.056389
 11
-204.523468
 21
-63.056389
  0
LINE
  8
0
 10
-241.523468
 20
-37.556385
 11
-243.923462
 21
-37.556385
  0
LINE
  8
0
 10
-241.523468
 20
-47.556389
 11
-243.923462
 21
-47.556389
  0
LINE
  8
0
 10
-233.023437
 20
-39.556389
 11
-233.023437
 21
-45.556389
  0
LINE
  8
0
 10
-233.023483
 20
-39.556416
 11
-232.523483
 21
-40.056416
  0
LINE
  8
0
 10
-232.523468
 20
-45.056396
 11
-233.023468
 21
-45.556408
  0
LINE
  8
0
 10
-205.523468
 20
-72.556389
 11
-236.523468
 21
-72.556389
  0
LINE
  8
0
  6
CENTER
 62
     2
 10
-195.356766
 20
-57.556389
 11
-248.023437
 21
-57.556389
  0
LINE
  8
0
  6
CENTER
 62
     2
 10
-230.982849
 20
-42.556385
 11
-254.976105
 21
-42.556385
  0
LINE
  8
0
 10
-198.523468
 20
-62.556389
 11
-202.523468
 21
-62.556389
  0
LINE
  8
0
 10
-198.523468
 20
-52.556389
 11
-202.523468
 21
-52.556389
  0
LINE
  8
0
 10
-233.023468
 20
-39.556385
 11
-240.923462
 21
-39.556385
  0
LINE
  8
0
 62
     2
 10
-232.523468
 20
-40.056385
 11
-240.923462
 21
-40.056385
  0
LINE
  8
0
 10
-233.023468
 20
-45.556389
 11
-240.923462
 21
-45.556389
  0
LINE
  8
0
 62
     2
 10
-232.523468
 20
-45.056389
 11
-240.923462
 21
-45.056389
  0
LINE
  8
0
 10
-251.523437
 20
-34.556389
 11
-251.523437
 21
-134.556396
  0
LINE
  8
0
 10
-244.523437
 20
-34.556389
 11
-244.523437
 21
-64.556389
  0
LINE
  8
0
 10
-241.523468
 20
-42.556385
 11
-243.923462
 21
-42.556385
  0
LINE
  8
0
 10
-199.523468
 20
-81.056389
 11
-230.523468
 21
-81.056389
  0
LINE
  8
0
 10
-199.523468
 20
-73.056389
 11
-207.023468
 21
-73.056389
  0
LINE
  8
0
 10
-199.523437
 20
-73.056389
 11
-199.523437
 21
-81.056389
  0
LINE
  8
0
 10
-230.523437
 20
-73.056389
 11
-230.523437
 21
-81.056389
  0
LINE
  8
0
  6
CENTER
 62
     2
 10
-198.029205
 20
-77.056389
 11
-231.190125
 21
-77.056389
  0
LINE
  8
0
 10
-199.523468
 20
-78.306389
 11
-199.817963
 21
-78.306389
  0
LINE
  8
0
 10
-199.523468
 20
-75.806389
 11
-199.817963
 21
-75.806389
  0
LINE
  8
0
 10
-200.523468
 20
-88.056389
 11
-222.523468
 21
-88.056389
  0
LINE
  8
0
 10
-200.523437
 20
-81.056389
 11
-200.523437
 21
-88.056389
  0
LINE
  8
0
 10
-222.523437
 20
-81.056389
 11
-222.523437
 21
-88.056389
  0
LINE
  8
0
  6
CENTER
 62
     2
 10
-211.523437
 20
-73.056389
 11
-211.523437
 21
-80.159996
  0
LINE
  8
0
 10
-197.523468
 20
-129.556396
 11
-251.523468
 21
-129.556396
  0
LINE
  8
0
  6
CENTER
 62
     2
 10
-202.323456
 20
-73.056389
 11
-202.323456
 21
-81.056389
  0
LINE
  8
0
  6
CENTER
 62
     2
 10
-227.723450
 20
-73.056389
 11
-227.723450
 21
-81.056389
  0
LINE
  8
0
 10
-204.828949
 20
-75.806389
 11
-207.023468
 21
-75.806389
  0
LINE
  8
0
 10
-204.828949
 20
-78.306389
 11
-207.023468
 21
-78.306389
  0
LINE
  8
0
 10
-230.228943
 20
-75.806389
 11
-230.523468
 21
-75.806389
  0
LINE
  8
0
 10
-230.228943
 20
-78.306389
 11
-230.523468
 21
-78.306389
  0
LINE
  8
0
 10
-216.023437
 20
-72.556389
 11
-216.023437
 21
-81.056389
  0
LINE
  8
0
 10
-216.023468
 20
-78.306389
 11
-225.217957
 21
-78.306389
  0
LINE
  8
0
 10
-216.023468
 20
-75.806389
 11
-225.217957
 21
-75.806389
  0
LINE
  8
0
 10
-210.795166
 20
-78.306389
 11
-212.251770
 21
-78.306389
  0
LINE
  8
0
 10
-210.795166
 20
-75.806389
 11
-212.251770
 21
-75.806389
  0
LINE
  8
0
 10
-210.795135
 20
-75.806374
 11
-210.073456
 21
-77.056374
  0
LINE
  8
0
 10
-212.973450
 20
-77.056381
 11
-212.251755
 21
-78.306381
  0
LINE
  8
0
 10
-212.251755
 20
-75.806374
 11
-212.973434
 21
-77.056358
  0
LINE
  8
0
 10
-210.073456
 20
-77.056366
 11
-210.795151
 21
-78.306381
  0
LINE
  8
0
 10
-227.323456
 20
-75.256386
 11
-228.123474
 21
-75.256386
  0
LINE
  8
0
 10
-227.323456
 20
-78.856377
 11
-228.123474
 21
-78.856377
  0
LINE
  8
0
 10
-225.923431
 20
-76.656380
 11
-225.923431
 21
-77.456383
  0
LINE
  8
0
 10
-229.523437
 20
-76.656380
 11
-229.523437
 21
-77.456383
  0
LINE
  8
0
 10
-225.923462
 20
-77.456383
 11
-227.323456
 21
-77.456383
  0
LINE
  8
0
 10
-225.923462
 20
-76.656380
 11
-227.323456
 21
-76.656380
  0
LINE
  8
0
 10
-227.323425
 20
-75.256386
 11
-227.323425
 21
-76.656380
  0
LINE
  8
0
 10
-228.123444
 20
-75.256386
 11
-228.123444
 21
-76.656380
  0
LINE
  8
0
 10
-227.323425
 20
-77.456383
 11
-227.323425
 21
-78.856377
  0
LINE
  8
0
 10
-228.123474
 20
-77.456383
 11
-229.523468
 21
-77.456383
  0
LINE
  8
0
 10
-228.123444
 20
-77.456383
 11
-228.123444
 21
-78.856377
  0
LINE
  8
0
 10
-228.123474
 20
-76.656380
 11
-229.523468
 21
-76.656380
  0
LINE
  8
0
 10
-200.523437
 20
-76.656380
 11
-200.523437
 21
-77.456383
  0
LINE
  8
0
 10
-200.523468
 20
-77.456383
 11
-201.923462
 21
-77.456383
  0
LINE
  8
0
 10
-200.523468
 20
-76.656380
 11
-201.923462
 21
-76.656380
  0
LINE
  8
0
 10
-201.923431
 20
-75.256386
 11
-201.923431
 21
-76.656380
  0
LINE
  8
0
 10
-201.923462
 20
-75.256386
 11
-202.723480
 21
-75.256386
  0
LINE
  8
0
 10
-202.723450
 20
-75.256386
 11
-202.723450
 21
-76.656380
  0
LINE
  8
0
 10
-202.723480
 20
-76.656380
 11
-204.123474
 21
-76.656380
  0
LINE
  8
0
 10
-202.723480
 20
-77.456383
 11
-204.123474
 21
-77.456383
  0
LINE
  8
0
 10
-201.923431
 20
-77.456383
 11
-201.923431
 21
-78.856377
  0
LINE
  8
0
 10
-202.723450
 20
-77.456383
 11
-202.723450
 21
-78.856377
  0
LINE
  8
0
 10
-201.923462
 20
-78.856377
 11
-202.723480
 21
-78.856377
  0
LINE
  8
0
 10
-204.123444
 20
-76.656380
 11
-204.123444
 21
-77.456383
  0
LINE
  8
0
 10
-207.023437
 20
-72.556389
 11
-207.023437
 21
-81.056389
  0
LINE
  8
0
 10
-216.023468
 20
-73.056389
 11
-230.523468
 21
-73.056389
  0
LINE
  8
0
 62
     2
 10
-217.523437
 20
-81.056389
 11
-217.523437
 21
-88.056389
  0
LINE
  8
0
  6
CENTER
 62
     2
 10
-205.023437
 20
-81.056389
 11
-205.023437
 21
-87.091301
  0
LINE
  8
0
  6
CENTER
 62
     2
 10
-201.510193
 20
-84.056389
 11
-208.790833
 21
-84.056389
  0
LINE
  8
0
 10
-241.523437
 20
-37.556370
 11
-240.923431
 21
-38.595612
  0
LINE
  8
0
 10
-240.923370
 20
-46.517147
 11
-241.523376
 21
-47.556389
  0
LINE
  8
0
 10
-243.923401
 20
-37.556431
 11
-244.523407
 21
-38.595673
  0
LINE
  8
0
 10
-244.523437
 20
-46.517139
 11
-243.923447
 21
-47.556366
  0
LINE
  8
0
 10
-253.523422
 20
-61.517159
 11
-252.923416
 21
-62.556385
  0
LINE
  8
0
 10
-251.523468
 20
-62.556389
 11
-252.923462
 21
-62.556389
  0
LINE
  8
0
 10
-251.523468
 20
-57.556389
 11
-252.923462
 21
-57.556389
  0
LINE
  8
0
 10
-252.923416
 20
-52.556416
 11
-253.523407
 21
-53.595631
  0
LINE
  8
0
 10
-251.523468
 20
-52.556389
 11
-252.923462
 21
-52.556389
  0
LINE
  8
0
 10
-198.523468
 20
-57.556389
 11
-202.523468
 21
-57.556389
  0
LINE
  8
0
 10
-251.523468
 20
-104.556381
 11
-253.523468
 21
-104.556381
  0
LINE
  8
0
 10
-197.523437
 20
-34.556396
 11
-197.523437
 21
-134.556396
  0
LINE
  8
0
 10
-198.523437
 20
-34.556396
 11
-198.523437
 21
-64.556389
  0
LINE
  8
0
 10
-252.023437
 20
-39.556389
 11
-252.023437
 21
-45.556389
  0
LINE
  8
0
 10
-252.023422
 20
-39.556385
 11
-252.523437
 21
-40.056396
  0
LINE
  8
0
 10
-252.523437
 20
-45.056381
 11
-252.023422
 21
-45.556393
  0
LINE
  8
0
 10
-253.523437
 20
-34.556389
 11
-253.523437
 21
-134.556396
  0
LINE
  8
0
 10
-251.523468
 20
-88.556389
 11
-253.523468
 21
-88.556389
  0
LINE
  8
0
 10
-251.523468
 20
-80.556389
 11
-253.523468
 21
-80.556389
  0
LINE
  8
0
 10
-251.523468
 20
-126.556389
 11
-253.523468
 21
-126.556389
  0
LINE
  8
0
  6
CENTER
 62
     2
 10
-187.023437
 20
-42.056385
 11
-201.356766
 21
-42.056385
  0
LINE
  8
0
  6
CENTER
 62
     2
 10
-187.023437
 20
-127.056396
 11
-201.356766
 21
-127.056396
  0
LINE
  8
0
  6
CENTER
 62
     2
 10
-264.023437
 20
-117.056396
 11
-249.690094
 21
-117.056396
  0
LINE
  8
0
  6
CENTER
 62
     2
 10
-264.023437
 20
-52.056385
 11
-249.690094
 21
-52.056385
  0
LINE
  8
0
  6
CENTER
 62
     2
 10
-264.023437
 20
-127.056396
 11
-249.690094
 21
-127.056396
  0
LINE
  8
0
  6
CENTER
 62
     2
 10
-264.023437
 20
-42.056385
 11
-249.690094
 21
-42.056385
  0
LINE
  8
0
 10
6.525467
 20
-134.556381
 11
67.525452
 21
-134.556381
  0
LINE
  8
0
 10
6.525513
 20
-34.556381
 11
67.525513
 21
-34.556381
  0
LINE
  8
0
  6
CENTER
 62
     2
 10
40.596817
 20
-84.556381
 11
66.525497
 21
-84.556381
  0
LINE
  8
0
 10
6.525528
 20
-134.556351
 11
6.525528
 21
-34.556351
  0
LINE
  8
0
 10
76.525528
 20
-134.556396
 11
76.525528
 21
-34.556389
  0
LINE
  8
0
 10
69.525452
 20
-134.556381
 11
76.525452
 21
-134.556381
  0
LINE
  8
0
 10
69.525513
 20
-34.556381
 11
76.525513
 21
-34.556381
  0
LINE
  8
0
 10
56.925522
 20
-130.517120
 11
56.925522
 21
-122.595612
  0
LINE
  8
0
 10
20.525490
 20
-108.556381
 11
60.525490
 21
-108.556381
  0
LINE
  8
0
 10
20.525473
 20
-114.556381
 11
60.525459
 21
-114.556381
  0
LINE
  8
0
 62
     2
 10
20.525473
 20
-114.056381
 11
60.525459
 21
-114.056381
  0
LINE
  8
0
 62
     2
 10
20.525490
 20
-109.056381
 11
60.525490
 21
-109.056381
  0
LINE
  8
0
 10
68.525528
 20
-130.556366
 11
68.525528
 21
-122.556366
  0
LINE
  8
0
 10
68.525452
 20
-122.556381
 11
69.525452
 21
-122.556381
  0
LINE
  8
0
 10
68.525452
 20
-130.556381
 11
69.525452
 21
-130.556381
  0
LINE
  8
0
 10
67.525452
 20
-129.556381
 11
68.025452
 21
-129.556381
  0
LINE
  8
0
 62
     2
 10
67.525452
 20
-129.056381
 11
68.525452
 21
-129.056381
  0
LINE
  8
0
 62
     2
 10
67.525452
 20
-124.056381
 11
68.525452
 21
-124.056381
  0
LINE
  8
0
 10
67.525452
 20
-123.556381
 11
68.025452
 21
-123.556381
  0
LINE
  8
0
 10
48.525528
 20
-129.056366
 11
48.525528
 21
-124.056366
  0
LINE
  8
0
 10
20.525528
 20
-117.056358
 11
20.525528
 21
-106.056358
  0
LINE
  8
0
 10
18.525528
 20
-117.056351
 11
18.525528
 21
-106.056351
  0
LINE
  8
0
 10
18.525473
 20
-117.056381
 11
20.525473
 21
-117.056381
  0
LINE
  8
0
 10
18.525490
 20
-106.056381
 11
20.525490
 21
-106.056381
  0
LINE
  8
0
 10
57.525467
 20
-131.556381
 11
59.925461
 21
-131.556381
  0
LINE
  8
0
 10
57.525471
 20
-121.556381
 11
59.925465
 21
-121.556381
  0
LINE
  8
0
 10
49.025528
 20
-129.556366
 11
49.025528
 21
-123.556366
  0
LINE
  8
0
 10
49.025368
 20
-129.556427
 11
48.525379
 21
-129.056442
  0
LINE
  8
0
 10
48.525555
 20
-124.056465
 11
49.025566
 21
-123.556458
  0
LINE
  8
0
 10
21.525494
 20
-96.556381
 11
58.025494
 21
-96.556381
  0
LINE
  8
0
  6
CENTER
 62
     2
 10
11.886055
 20
-111.556381
 11
72.381050
 21
-111.556381
  0
LINE
  8
0
  6
CENTER
 62
     2
 10
46.984852
 20
-126.556381
 11
72.042816
 21
-126.556381
  0
LINE
  8
0
 10
14.525491
 20
-106.556381
 11
18.525490
 21
-106.556381
  0
LINE
  8
0
 10
14.525473
 20
-116.556381
 11
18.525473
 21
-116.556381
  0
LINE
  8
0
 10
49.025467
 20
-129.556381
 11
56.925461
 21
-129.556381
  0
LINE
  8
0
 62
     2
 10
48.525467
 20
-129.056381
 11
56.925461
 21
-129.056381
  0
LINE
  8
0
 10
49.025471
 20
-123.556381
 11
56.925465
 21
-123.556381
  0
LINE
  8
0
 62
     2
 10
48.525471
 20
-124.056381
 11
56.925465
 21
-124.056381
  0
LINE
  8
0
 10
14.525528
 20
-134.556351
 11
14.525528
 21
-104.556351
  0
LINE
  8
0
 10
67.525528
 20
-134.556366
 11
67.525528
 21
-34.556374
  0
LINE
  8
0
 10
60.525528
 20
-134.556366
 11
60.525528
 21
-104.556374
  0
LINE
  8
0
 10
57.525471
 20
-126.556381
 11
59.925465
 21
-126.556381
  0
LINE
  8
0
 10
15.525496
 20
-88.056381
 11
66.525497
 21
-88.056381
  0
LINE
  8
0
 10
15.525494
 20
-96.056381
 11
49.025494
 21
-96.056381
  0
LINE
  8
0
 10
15.525528
 20
-96.056351
 11
15.525528
 21
-88.056351
  0
LINE
  8
0
 10
66.525528
 20
-96.056374
 11
66.525528
 21
-88.056374
  0
LINE
  8
0
  6
CENTER
 62
     2
 10
12.059782
 20
-92.056381
 11
71.294044
 21
-92.056381
  0
LINE
  8
0
 10
15.525496
 20
-90.806381
 11
15.819990
 21
-90.806381
  0
LINE
  8
0
 10
15.525495
 20
-93.306381
 11
15.819989
 21
-93.306381
  0
LINE
  8
0
 10
42.525497
 20
-81.056381
 11
64.525497
 21
-81.056381
  0
LINE
  8
0
 10
42.525528
 20
-88.056358
 11
42.525528
 21
-81.056358
  0
LINE
  8
0
 10
64.525528
 20
-88.056374
 11
64.525528
 21
-81.056374
  0
LINE
  8
0
  6
CENTER
 62
     2
 10
53.525528
 20
-95.669243
 11
53.525528
 21
-88.524300
  0
LINE
  8
0
 10
13.525511
 20
-39.556381
 11
67.525513
 21
-39.556381
  0
LINE
  8
0
  6
CENTER
 62
     2
 10
18.325516
 20
-96.056351
 11
18.325516
 21
-88.056351
  0
LINE
  8
0
  6
CENTER
 62
     2
 10
63.725540
 20
-96.056374
 11
63.725540
 21
-88.056374
  0
LINE
  8
0
 10
20.830975
 20
-93.306381
 11
49.025494
 21
-93.306381
  0
LINE
  8
0
 10
20.830976
 20
-90.806381
 11
49.025497
 21
-90.806381
  0
LINE
  8
0
 10
66.230972
 20
-93.306381
 11
66.525497
 21
-93.306381
  0
LINE
  8
0
 10
66.230972
 20
-90.806381
 11
66.525497
 21
-90.806381
  0
LINE
  8
0
 10
58.025528
 20
-96.556374
 11
58.025528
 21
-88.056374
  0
LINE
  8
0
 10
58.025497
 20
-90.806381
 11
61.219986
 21
-90.806381
  0
LINE
  8
0
 10
58.025494
 20
-93.306381
 11
61.219982
 21
-93.306381
  0
LINE
  8
0
 10
52.797180
 20
-90.806381
 11
54.253799
 21
-90.806381
  0
LINE
  8
0
 10
52.797176
 20
-93.306381
 11
54.253796
 21
-93.306381
  0
LINE
  8
0
 10
52.797176
 20
-93.306351
 11
52.075497
 21
-92.056366
  0
LINE
  8
0
 10
54.975513
 20
-92.056374
 11
54.253819
 21
-90.806358
  0
LINE
  8
0
 10
54.253708
 20
-93.306343
 11
54.975407
 21
-92.056328
  0
LINE
  8
0
 10
52.075451
 20
-92.056358
 11
52.797146
 21
-90.806343
  0
LINE
  8
0
 10
63.325481
 20
-93.856384
 11
64.125504
 21
-93.856384
  0
LINE
  8
0
 10
63.325485
 20
-90.256393
 11
64.125504
 21
-90.256393
  0
LINE
  8
0
 10
61.925522
 20
-92.456383
 11
61.925522
 21
-91.656380
  0
LINE
  8
0
 10
65.525528
 20
-92.456383
 11
65.525528
 21
-91.656380
  0
LINE
  8
0
 10
61.925491
 20
-91.656387
 11
63.325485
 21
-91.656387
  0
LINE
  8
0
 10
61.925488
 20
-92.456390
 11
63.325481
 21
-92.456390
  0
LINE
  8
0
 10
63.325516
 20
-93.856377
 11
63.325516
 21
-92.456383
  0
LINE
  8
0
 10
64.125534
 20
-93.856377
 11
64.125534
 21
-92.456383
  0
LINE
  8
0
 10
63.325516
 20
-91.656380
 11
63.325516
 21
-90.256386
  0
LINE
  8
0
 10
64.125504
 20
-91.656387
 11
65.525497
 21
-91.656387
  0
LINE
  8
0
 10
64.125534
 20
-91.656380
 11
64.125534
 21
-90.256386
  0
LINE
  8
0
 10
64.125504
 20
-92.456390
 11
65.525497
 21
-92.456390
  0
LINE
  8
0
 10
16.525528
 20
-92.456360
 11
16.525528
 21
-91.656357
  0
LINE
  8
0
 10
16.525496
 20
-91.656387
 11
17.925489
 21
-91.656387
  0
LINE
  8
0
 10
16.525496
 20
-92.456390
 11
17.925489
 21
-92.456390
  0
LINE
  8
0
 10
17.925522
 20
-93.856354
 11
17.925522
 21
-92.456360
  0
LINE
  8
0
 10
17.925488
 20
-93.856384
 11
18.725491
 21
-93.856384
  0
LINE
  8
0
 10
18.725525
 20
-93.856354
 11
18.725525
 21
-92.456360
  0
LINE
  8
0
 10
18.725492
 20
-92.456390
 11
20.125486
 21
-92.456390
  0
LINE
  8
0
 10
18.725492
 20
-91.656387
 11
20.125486
 21
-91.656387
  0
LINE
  8
0
 10
17.925522
 20
-91.656357
 11
17.925522
 21
-90.256363
  0
LINE
  8
0
 10
18.725525
 20
-91.656357
 11
18.725525
 21
-90.256363
  0
LINE
  8
0
 10
17.925489
 20
-90.256393
 11
18.725492
 21
-90.256393
  0
LINE
  8
0
 10
20.125519
 20
-92.456367
 11
20.125519
 21
-91.656364
  0
LINE
  8
0
 10
49.025528
 20
-96.556374
 11
49.025528
 21
-88.056374
  0
LINE
  8
0
 10
58.025494
 20
-96.056381
 11
66.525497
 21
-96.056381
  0
LINE
  8
0
  6
CENTER
 62
     2
 10
59.525528
 20
-88.056374
 11
59.525528
 21
-81.056374
  0
LINE
  8
0
  6
CENTER
 62
     2
 10
47.025528
 20
-88.056374
 11
47.025528
 21
-82.021461
  0
LINE
  8
0
  6
CENTER
 62
     2
 10
43.512222
 20
-85.056381
 11
50.792847
 21
-85.056381
  0
LINE
  8
0
 10
57.525490
 20
-131.556366
 11
56.925499
 21
-130.517151
  0
LINE
  8
0
 10
56.925434
 20
-122.595589
 11
57.525433
 21
-121.556358
  0
LINE
  8
0
 10
59.925404
 20
-131.556366
 11
60.525410
 21
-130.517120
  0
LINE
  8
0
 10
60.525494
 20
-122.595634
 11
59.925503
 21
-121.556419
  0
LINE
  8
0
 10
69.525528
 20
-107.595612
 11
68.925522
 21
-106.556374
  0
LINE
  8
0
 10
67.525490
 20
-106.556381
 11
68.925484
 21
-106.556381
  0
LINE
  8
0
 10
67.525459
 20
-111.556381
 11
68.925484
 21
-111.556381
  0
LINE
  8
0
 10
68.925385
 20
-116.556328
 11
69.525383
 21
-115.517105
  0
LINE
  8
0
 10
67.525459
 20
-116.556381
 11
68.925484
 21
-116.556381
  0
LINE
  8
0
 10
14.525475
 20
-111.556381
 11
18.525475
 21
-111.556381
  0
LINE
  8
0
 10
67.525513
 20
-42.556381
 11
69.525513
 21
-42.556381
  0
LINE
  8
0
 10
67.525505
 20
-64.556374
 11
69.525505
 21
-64.556374
  0
LINE
  8
0
 10
13.525528
 20
-134.556351
 11
13.525528
 21
-34.556351
  0
LINE
  8
0
 10
68.025528
 20
-129.556366
 11
68.025528
 21
-123.556366
  0
LINE
  8
0
 10
68.025375
 20
-129.556305
 11
68.525368
 21
-129.056305
  0
LINE
  8
0
 10
68.525475
 20
-124.056305
 11
68.025490
 21
-123.556320
  0
LINE
  8
0
 10
69.525528
 20
-134.556366
 11
69.525528
 21
-34.556374
  0
LINE
  8
0
 10
67.525497
 20
-80.556381
 11
69.525497
 21
-80.556381
  0
LINE
  8
0
 10
67.525497
 20
-88.556381
 11
69.525497
 21
-88.556381
  0
LINE
  8
0
  6
CENTER
 62
     2
 10
15.176837
 20
-75.556381
 11
27.586475
 21
-75.556381
  0
LINE
  8
0
  6
CENTER
 62
     2
 10
60.225540
 20
-80.634270
 11
60.225540
 21
-59.943275
  0
LINE
  8
0
 10
55.975502
 20
-60.856377
 11
64.475487
 21
-60.856377
  0
LINE
  8
0
 10
55.975540
 20
-72.922462
 11
55.975540
 21
-62.856377
  0
LINE
  8
0
 10
64.475540
 20
-72.922462
 11
64.475540
 21
-62.856377
  0
LINE
  8
0
 10
55.975502
 20
-61.856377
 11
64.475487
 21
-61.856377
  0
LINE
  8
0
 10
55.975502
 20
-62.856377
 11
64.475487
 21
-62.856377
  0
LINE
  8
0
 10
55.975540
 20
-61.856377
 11
55.975540
 21
-60.856377
  0
LINE
  8
0
 10
64.475540
 20
-61.856377
 11
64.475540
 21
-60.856377
  0
LINE
  8
0
 10
56.975540
 20
-62.856377
 11
56.975540
 21
-61.856377
  0
LINE
  8
0
 10
63.475540
 20
-62.856377
 11
63.475540
 21
-61.856377
  0
LINE
  8
0
 10
57.934895
 20
-71.556381
 11
62.516102
 21
-71.556381
  0
LINE
  8
0
 10
57.934891
 20
-79.556381
 11
62.516098
 21
-79.556381
  0
LINE
  8
0
 10
57.934917
 20
-79.556366
 11
55.625515
 21
-75.556358
  0
LINE
  8
0
 10
64.825478
 20
-75.556381
 11
62.516075
 21
-71.556381
  0
LINE
  8
0
 10
62.516048
 20
-79.556358
 11
64.825447
 21
-75.556358
  0
LINE
  8
0
 10
55.625439
 20
-75.556351
 11
57.934845
 21
-71.556351
  0
LINE
  8
0
  6
CENTER
 62
     2
 10
21.525528
 20
-80.634254
 11
21.525528
 21
-59.943260
  0
LINE
  8
0
 10
17.275505
 20
-60.856377
 11
25.775505
 21
-60.856377
  0
LINE
  8
0
 10
17.275528
 20
-72.922440
 11
17.275528
 21
-62.856354
  0
LINE
  8
0
 10
25.775528
 20
-72.922447
 11
25.775528
 21
-62.856361
  0
LINE
  8
0
 10
17.275505
 20
-61.856377
 11
25.775505
 21
-61.856377
  0
LINE
  8
0
 10
17.275505
 20
-62.856377
 11
25.775505
 21
-62.856377
  0
LINE
  8
0
 10
17.275528
 20
-61.856354
 11
17.275528
 21
-60.856354
  0
LINE
  8
0
 10
25.775528
 20
-61.856361
 11
25.775528
 21
-60.856361
  0
LINE
  8
0
 10
18.275528
 20
-62.856354
 11
18.275528
 21
-61.856354
  0
LINE
  8
0
 10
24.775528
 20
-62.856361
 11
24.775528
 21
-61.856361
  0
LINE
  8
0
 10
19.234898
 20
-71.556381
 11
23.816090
 21
-71.556381
  0
LINE
  8
0
 10
19.234896
 20
-79.556381
 11
23.816088
 21
-79.556381
  0
LINE
  8
0
 10
19.234905
 20
-79.556374
 11
16.925505
 21
-75.556374
  0
LINE
  8
0
 10
26.125519
 20
-75.556328
 11
23.816118
 21
-71.556328
  0
LINE
  8
0
 10
23.816069
 20
-79.556320
 11
26.125473
 21
-75.556320
  0
LINE
  8
0
 10
16.925430
 20
-75.556343
 11
19.234835
 21
-71.556343
  0
LINE
  8
0
  6
CENTER
 62
     2
 10
53.728626
 20
-75.556381
 11
66.765030
 21
-75.556381
  0
LINE
  8
0
  6
CENTER
 62
     2
 10
1.324772
 20
-84.556381
 11
79.153610
 21
-84.556381
  0
LINE
  8
0
  6
CENTER
 62
     2
 10
3.358874
 20
-42.056381
 11
17.025541
 21
-42.056381
  0
LINE
  8
0
  6
CENTER
 62
     2
 10
3.358848
 20
-127.056381
 11
17.025515
 21
-127.056381
  0
LINE
  8
0
  6
CENTER
 62
     2
 10
79.692192
 20
-117.056381
 11
66.025520
 21
-117.056381
  0
LINE
  8
0
  6
CENTER
 62
     2
 10
79.692207
 20
-52.056381
 11
66.025536
 21
-52.056381
  0
LINE
  8
0
  6
CENTER
 62
     2
 10
79.692184
 20
-127.056381
 11
66.025513
 21
-127.056381
  0
LINE
  8
0
  6
CENTER
 62
     2
 10
79.692215
 20
-42.056381
 11
66.025543
 21
-42.056381
  0
LINE
  8
0
 10
-35.523460
 20
49.443588
 11
-35.523460
 21
56.443588
  0
LINE
  8
0
 10
-135.523453
 20
49.443604
 11
-135.523453
 21
56.443604
  0
LINE
  8
0
  6
CENTER
 62
     2
 10
-85.523453
 20
45.910923
 11
-85.523453
 21
121.309929
  0
LINE
  8
0
 10
-35.523460
 20
49.443611
 11
-135.523468
 21
49.443611
  0
LINE
  8
0
 10
-62.523453
 20
110.443611
 11
-108.523453
 21
110.443611
  0
LINE
  8
0
  6
PHANTOM
 62
     2
 10
-35.523460
 20
152.443604
 11
-135.523437
 21
152.443604
  0
LINE
  8
0
  6
PHANTOM
 62
     2
 10
-35.523460
 20
159.443604
 11
-135.523437
 21
159.443604
  0
LINE
  8
0
  6
PHANTOM
 62
     2
 10
-35.523460
 20
152.443588
 11
-35.523460
 21
159.443588
  0
LINE
  8
0
  6
PHANTOM
 62
     2
 10
-135.523453
 20
152.443604
 11
-135.523453
 21
159.443604
  0
LINE
  8
0
 10
-62.523453
 20
56.443592
 11
-62.523453
 21
110.443596
  0
LINE
  8
0
 10
-108.523453
 20
56.443600
 11
-108.523453
 21
110.443604
  0
LINE
  8
0
 10
-35.523460
 20
56.443611
 11
-67.523460
 21
56.443611
  0
LINE
  8
0
 10
-108.523460
 20
56.443611
 11
-135.523453
 21
56.443611
  0
LINE
  8
0
 10
-93.023453
 20
57.443600
 11
-93.023453
 21
110.443596
  0
LINE
  8
0
 10
-93.023453
 20
103.443611
 11
-108.523453
 21
103.443611
  0
LINE
  8
0
 10
-93.023460
 20
57.443611
 11
-108.523460
 21
57.443611
  0
LINE
  8
0
  6
CENTER
 62
     2
 10
-100.523453
 20
54.631008
 11
-100.523453
 21
154.355804
  0
LINE
  8
0
 10
-67.523453
 20
56.443596
 11
-67.523453
 21
110.443596
  0
LINE
  8
0
  6
CENTER
 62
     2
 10
-76.023453
 20
106.675858
 11
-76.023453
 21
162.246735
  0
LINE
  8
0
  6
PHANTOM
 62
     2
 10
-65.023453
 20
149.943604
 11
-65.023453
 21
152.443604
  0
LINE
  8
0
  6
PHANTOM
 62
     2
 10
-87.023453
 20
149.943604
 11
-87.023453
 21
152.443604
  0
LINE
  8
0
  6
CENTER
 62
     2
 10
-31.038429
 20
103.143616
 11
-64.586502
 21
103.143616
  0
LINE
  8
0
 10
-95.023460
 20
61.443611
 11
-106.023460
 21
61.443611
  0
LINE
  8
0
 10
-106.023453
 20
61.443600
 11
-106.023453
 21
63.443600
  0
LINE
  8
0
 10
-95.023460
 20
63.443611
 11
-106.023460
 21
63.443611
  0
LINE
  8
0
 10
-95.023453
 20
61.443596
 11
-95.023453
 21
63.443596
  0
LINE
  8
0
  6
PHANTOM
 62
     2
 10
-96.523445
 20
151.443604
 11
-104.523445
 21
151.443604
  0
LINE
  8
0
  6
PHANTOM
 62
     2
 10
-104.523453
 20
151.443604
 11
-104.523453
 21
152.443604
  0
LINE
  8
0
  6
PHANTOM
 62
     2
 10
-96.523453
 20
151.443604
 11
-96.523453
 21
152.443604
  0
LINE
  8
0
 10
-98.023453
 20
91.443611
 11
-103.023453
 21
91.443611
  0
LINE
  8
0
 10
-97.523453
 20
91.943611
 11
-103.523453
 21
91.943611
  0
LINE
  8
0
 62
     2
 10
-103.023453
 20
63.443600
 11
-103.023453
 21
99.843597
  0
LINE
  8
0
 10
-103.023422
 20
91.443634
 11
-103.523422
 21
91.943634
  0
LINE
  8
0
 10
-103.523453
 20
63.443600
 11
-103.523453
 21
99.843597
  0
LINE
  8
0
 10
-97.523453
 20
63.443600
 11
-97.523453
 21
99.843597
  0
LINE
  8
0
 62
     2
 10
-98.023453
 20
63.443600
 11
-98.023453
 21
99.843597
  0
LINE
  8
0
 10
-97.523430
 20
91.943581
 11
-98.023430
 21
91.443581
  0
LINE
  8
0
 10
-105.523453
 20
100.443604
 11
-105.523453
 21
102.843597
  0
LINE
  8
0
 10
-95.523453
 20
100.443604
 11
-95.523453
 21
102.843597
  0
LINE
  8
0
 10
-100.523453
 20
100.443604
 11
-100.523453
 21
102.843597
  0
LINE
  8
0
 10
-104.484215
 20
103.443611
 11
-105.523445
 21
102.843613
  0
LINE
  8
0
 10
-95.523468
 20
102.843590
 11
-96.562683
 21
103.443581
  0
LINE
  8
0
 10
-95.523453
 20
100.443596
 11
-96.562675
 21
99.843597
  0
LINE
  8
0
 10
-96.562683
 20
99.843613
 11
-104.484222
 21
99.843613
  0
LINE
  8
0
 10
-104.484238
 20
99.843590
 11
-105.523468
 21
100.443588
  0
LINE
  8
0
 10
-105.523453
 20
57.443600
 11
-105.523453
 21
61.443600
  0
LINE
  8
0
 10
-95.523453
 20
57.443600
 11
-95.523453
 21
61.443596
  0
LINE
  8
0
  6
CENTER
 10
-100.523453
 20
57.443600
 11
-100.523453
 21
61.443600
  0
LINE
  8
0
 10
-35.023460
 20
100.643593
 11
-35.023460
 21
105.643593
  0
LINE
  8
0
 10
-39.023460
 20
100.643593
 11
-39.023460
 21
105.643593
  0
LINE
  8
0
 10
-35.023430
 20
105.643616
 11
-39.023430
 21
105.643616
  0
LINE
  8
0
 10
-35.023430
 20
100.643616
 11
-39.023430
 21
100.643616
  0
LINE
  8
0
 10
-39.023430
 20
101.643616
 11
-42.023430
 21
101.643616
  0
LINE
  8
0
 10
-39.023430
 20
104.643616
 11
-42.023430
 21
104.643616
  0
LINE
  8
0
 10
-42.023430
 20
99.143616
 11
-44.523430
 21
99.143616
  0
LINE
  8
0
 10
-42.023430
 20
107.143616
 11
-44.523430
 21
107.143616
  0
LINE
  8
0
 10
-42.023460
 20
99.143593
 11
-42.023460
 21
107.143593
  0
LINE
  8
0
 10
-44.523460
 20
99.143600
 11
-44.523460
 21
107.143593
  0
LINE
  8
0
 10
-44.523430
 20
101.643616
 11
-47.223457
 21
101.643616
  0
LINE
  8
0
 10
-44.523430
 20
104.643616
 11
-47.223457
 21
104.643616
  0
LINE
  8
0
 10
-51.723457
 20
98.543594
 11
-51.723457
 21
107.743591
  0
LINE
  8
0
 10
-47.223457
 20
98.543594
 11
-47.223457
 21
107.743591
  0
LINE
  8
0
 10
-47.223457
 20
98.543617
 11
-51.723457
 21
98.543617
  0
LINE
  8
0
 10
-47.223457
 20
107.743614
 11
-51.723457
 21
107.743614
  0
LINE
  8
0
  6
CENTER
 62
     2
 10
-56.723457
 20
97.644394
 11
-56.723457
 21
108.917480
  0
LINE
  8
0
 10
-51.723392
 20
98.543579
 11
-52.123402
 21
98.143570
  0
LINE
  8
0
 10
-61.323406
 20
108.143539
 11
-61.723404
 21
107.743546
  0
LINE
  8
0
 10
-51.723419
 20
107.743652
 11
-52.123409
 21
108.143639
  0
LINE
  8
0
 10
-61.323387
 20
98.143661
 11
-61.723400
 21
98.543671
  0
LINE
  8
0
 10
-52.123466
 20
98.143616
 11
-61.323448
 21
98.143616
  0
LINE
  8
0
 10
-52.123451
 20
108.143616
 11
-61.323463
 21
108.143616
  0
LINE
  8
0
 10
-52.123451
 20
98.143600
 11
-52.123451
 21
101.184021
  0
LINE
  8
0
 10
-61.323463
 20
98.143600
 11
-61.323463
 21
101.184021
  0
LINE
  8
0
 10
-52.123451
 20
105.103180
 11
-52.123451
 21
108.143600
  0
LINE
  8
0
 10
-61.323463
 20
105.103180
 11
-61.323463
 21
108.143600
  0
LINE
  8
0
 10
-61.723457
 20
98.543617
 11
-61.723457
 21
107.743561
  0
LINE
  8
0
 10
-61.723457
 20
99.143616
 11
-62.523460
 21
99.143616
  0
LINE
  8
0
 10
-61.723457
 20
107.143616
 11
-62.523460
 21
107.143616
  0
LINE
  8
0
 10
-52.723457
 20
102.143600
 11
-52.723457
 21
104.143600
  0
LINE
  8
0
 10
-60.723457
 20
102.143600
 11
-60.723457
 21
104.143600
  0
LINE
  8
0
  6
CENTER
 62
     2
 10
-31.686516
 20
64.443611
 11
-64.586510
 21
64.443611
  0
LINE
  8
0
 10
-35.023460
 20
61.943588
 11
-35.023460
 21
66.943588
  0
LINE
  8
0
 10
-39.023460
 20
61.943588
 11
-39.023460
 21
66.943588
  0
LINE
  8
0
 10
-35.023430
 20
66.943611
 11
-39.023430
 21
66.943611
  0
LINE
  8
0
 10
-35.023430
 20
61.943611
 11
-39.023430
 21
61.943611
  0
LINE
  8
0
 10
-39.023430
 20
62.943611
 11
-42.023430
 21
62.943611
  0
LINE
  8
0
 10
-39.023430
 20
65.943611
 11
-42.023430
 21
65.943611
  0
LINE
  8
0
 10
-42.023430
 20
60.443611
 11
-44.523430
 21
60.443611
  0
LINE
  8
0
 10
-42.023430
 20
68.443611
 11
-44.523430
 21
68.443611
  0
LINE
  8
0
 10
-42.023460
 20
60.443588
 11
-42.023460
 21
68.443588
  0
LINE
  8
0
 10
-44.523460
 20
60.443588
 11
-44.523460
 21
68.443588
  0
LINE
  8
0
 10
-44.523430
 20
62.943611
 11
-47.223457
 21
62.943611
  0
LINE
  8
0
 10
-44.523430
 20
65.943611
 11
-47.223457
 21
65.943611
  0
LINE
  8
0
 10
-51.723457
 20
59.843594
 11
-51.723457
 21
69.043594
  0
LINE
  8
0
 10
-47.223457
 20
59.843594
 11
-47.223457
 21
69.043594
  0
LINE
  8
0
 10
-47.223457
 20
59.843613
 11
-51.723465
 21
59.843613
  0
LINE
  8
0
 10
-47.223457
 20
69.043610
 11
-51.723457
 21
69.043610
  0
LINE
  8
0
  6
CENTER
 62
     2
 10
-56.723457
 20
58.944393
 11
-56.723457
 21
70.217468
  0
LINE
  8
0
 10
-51.723408
 20
59.843536
 11
-52.123413
 21
59.443527
  0
LINE
  8
0
 10
-61.323406
 20
69.443550
 11
-61.723396
 21
69.043564
  0
LINE
  8
0
 10
-51.723454
 20
69.043640
 11
-52.123447
 21
69.443634
  0
LINE
  8
0
 10
-61.323429
 20
59.443619
 11
-61.723442
 21
59.843632
  0
LINE
  8
0
 10
-52.123474
 20
59.443611
 11
-61.323456
 21
59.443611
  0
LINE
  8
0
 10
-52.123451
 20
69.443611
 11
-61.323463
 21
69.443611
  0
LINE
  8
0
 10
-52.123451
 20
59.443592
 11
-52.123451
 21
62.484013
  0
LINE
  8
0
 10
-61.323463
 20
59.443596
 11
-61.323463
 21
62.484016
  0
LINE
  8
0
 10
-52.123451
 20
66.403168
 11
-52.123451
 21
69.443588
  0
LINE
  8
0
 10
-61.323463
 20
66.403175
 11
-61.323463
 21
69.443596
  0
LINE
  8
0
 10
-61.723457
 20
59.843613
 11
-61.723457
 21
69.043556
  0
LINE
  8
0
 10
-61.723465
 20
60.443611
 11
-62.523468
 21
60.443611
  0
LINE
  8
0
 10
-61.723457
 20
68.443611
 11
-62.523460
 21
68.443611
  0
LINE
  8
0
 10
-52.723457
 20
63.443592
 11
-52.723457
 21
65.443588
  0
LINE
  8
0
 10
-60.723457
 20
63.443596
 11
-60.723457
 21
65.443596
  0
LINE
  8
0
 10
-57.523453
 20
58.443592
 11
-57.523453
 21
59.443592
  0
LINE
  8
0
 10
-57.523453
 20
108.143600
 11
-57.523453
 21
109.443588
  0
LINE
  8
0
 10
-57.523460
 20
58.443611
 11
-62.523460
 21
58.443611
  0
LINE
  8
0
 10
-57.523453
 20
109.443611
 11
-62.523453
 21
109.443611
  0
LINE
  8
0
 10
-51.523453
 20
69.043594
 11
-51.523453
 21
98.543594
  0
LINE
  8
0
 10
-108.523460
 20
58.443611
 11
-113.523460
 21
58.443611
  0
LINE
  8
0
 10
-108.523453
 20
89.443611
 11
-113.523453
 21
89.443611
  0
LINE
  8
0
 10
-113.523453
 20
81.443611
 11
-119.523453
 21
81.443611
  0
LINE
  8
0
 10
-113.523460
 20
59.443611
 11
-119.523453
 21
59.443611
  0
LINE
  8
0
 10
-119.523453
 20
59.443604
 11
-119.523453
 21
67.693604
  0
LINE
  8
0
 10
-113.523453
 20
58.443604
 11
-113.523453
 21
89.443604
  0
LINE
  8
0
 10
-113.523453
 20
65.943611
 11
-118.523453
 21
65.943611
  0
LINE
  8
0
 10
-113.523453
 20
74.943611
 11
-118.523453
 21
74.943611
  0
LINE
  8
0
 10
-118.523453
 20
65.943604
 11
-118.523453
 21
74.943604
  0
LINE
  8
0
  6
CENTER
 62
     2
 10
-118.167404
 20
76.443611
 11
-135.148697
 21
76.443611
  0
LINE
  8
0
  6
CENTER
 62
     2
 10
-118.277679
 20
63.943611
 11
-121.144646
 21
63.943611
  0
LINE
  8
0
  6
CENTER
 62
     2
 10
-111.122879
 20
70.443611
 11
-122.913406
 21
70.443611
  0
LINE
  8
0
 10
-122.323456
 20
67.693604
 11
-122.323456
 21
73.193604
  0
LINE
  8
0
 10
-119.323456
 20
73.193611
 11
-122.323456
 21
73.193611
  0
LINE
  8
0
 10
-119.323456
 20
67.693611
 11
-122.323456
 21
67.693611
  0
LINE
  8
0
 10
-119.523453
 20
73.193604
 11
-119.523453
 21
81.443604
  0
LINE
  8
0
 10
-119.323456
 20
67.443604
 11
-119.323456
 21
73.443604
  0
LINE
  8
0
 10
-118.523453
 20
67.443611
 11
-119.323456
 21
67.443611
  0
LINE
  8
0
 10
-118.523453
 20
73.443611
 11
-119.323456
 21
73.443611
  0
LINE
  8
0
 10
-119.523453
 20
73.943611
 11
-121.523453
 21
73.943611
  0
LINE
  8
0
 10
-119.523453
 20
78.943611
 11
-121.523453
 21
78.943611
  0
LINE
  8
0
 10
-121.523453
 20
73.943604
 11
-121.523453
 21
78.943604
  0
LINE
  8
0
 10
-121.523453
 20
74.443611
 11
-133.604950
 21
74.443611
  0
LINE
  8
0
 10
-121.523453
 20
78.443611
 11
-133.604950
 21
78.443611
  0
LINE
  8
0
 10
-104.523453
 20
111.443604
 11
-104.523453
 21
112.443604
  0
LINE
  8
0
 10
-35.523460
 20
112.443611
 11
-135.523453
 21
112.443611
  0
LINE
  8
0
 10
-35.523460
 20
119.443611
 11
-135.523453
 21
119.443611
  0
LINE
  8
0
 10
-35.523460
 20
112.443588
 11
-35.523460
 21
119.443588
  0
LINE
  8
0
 10
-135.523453
 20
112.443604
 11
-135.523453
 21
119.443604
  0
LINE
  8
0
 10
-96.523453
 20
111.443611
 11
-104.523453
 21
111.443611
  0
LINE
  8
0
 10
-96.523453
 20
111.443604
 11
-96.523453
 21
112.443604
  0
LINE
  8
0
 10
-65.023453
 20
110.443596
 11
-65.023453
 21
112.443596
  0
LINE
  8
0
 10
-87.023453
 20
110.443596
 11
-87.023453
 21
112.443596
  0
LINE
  8
0
 10
-90.523453
 20
110.443596
 11
-90.523453
 21
112.443596
  0
LINE
  8
0
  6
PHANTOM
 62
     2
 10
-103.523453
 20
119.443596
 11
-103.523453
 21
151.443604
  0
LINE
  8
0
  6
PHANTOM
 62
     2
 10
-103.023453
 20
119.443596
 11
-103.023453
 21
151.443604
  0
LINE
  8
0
  6
PHANTOM
 62
     2
 10
-98.023453
 20
119.443596
 11
-98.023453
 21
151.443604
  0
LINE
  8
0
  6
PHANTOM
 62
     2
 10
-97.523453
 20
119.443596
 11
-97.523453
 21
151.443604
  0
LINE
  8
0
  6
PHANTOM
 62
     2
 10
-65.023445
 20
149.943604
 11
-87.023445
 21
149.943604
  0
LINE
  8
0
  6
PHANTOM
 62
     2
 10
-81.523453
 20
119.443596
 11
-81.523453
 21
149.943604
  0
LINE
  8
0
  6
PHANTOM
 62
     2
 10
-89.523453
 20
119.443596
 11
-89.523453
 21
152.443604
  0
LINE
  8
0
  6
PHANTOM
 62
     2
 10
-81.023453
 20
119.443596
 11
-81.023453
 21
149.943604
  0
LINE
  8
0
  6
PHANTOM
 62
     2
 10
-71.023453
 20
119.443596
 11
-71.023453
 21
149.943604
  0
LINE
  8
0
 10
-97.523453
 20
110.443604
 11
-97.523453
 21
111.443604
  0
LINE
  8
0
 62
     2
 10
-98.023453
 20
110.443604
 11
-98.023453
 21
111.443604
  0
LINE
  8
0
 62
     2
 10
-103.023453
 20
110.443604
 11
-103.023453
 21
111.443604
  0
LINE
  8
0
 10
-103.523453
 20
110.443604
 11
-103.523453
 21
111.443604
  0
LINE
  8
0
  6
CENTER
 62
     2
 10
-128.023453
 20
110.085060
 11
-128.023453
 21
122.251976
  0
LINE
  8
0
  6
CENTER
 62
     2
 10
-110.523453
 20
109.891937
 11
-110.523453
 21
122.251976
  0
LINE
  8
0
  6
CENTER
 62
     2
 10
-128.023453
 20
47.512360
 11
-128.023453
 21
58.906773
  0
LINE
  8
0
  6
CENTER
 62
     2
 10
-60.523453
 20
109.891937
 11
-60.523453
 21
122.251976
  0
LINE
  8
0
  6
CENTER
 62
     2
 10
-43.023453
 20
110.085060
 11
-43.023453
 21
122.251976
  0
LINE
  8
0
  6
CENTER
 62
     2
 10
-43.023453
 20
47.512360
 11
-43.023453
 21
58.906773
  0
LINE
  8
0
 10
-82.523453
 20
49.443611
 11
-82.523453
 21
53.443611
  0
LINE
  8
0
 10
-88.523453
 20
49.443611
 11
-88.523453
 21
53.443611
  0
LINE
  8
0
 10
-82.523453
 20
53.443611
 11
-88.523453
 21
53.443611
  0
LINE
  8
0
 10
217.476471
 20
-134.556458
 11
217.476471
 21
-34.556442
  0
LINE
  8
0
 10
117.476471
 20
-134.556427
 11
117.476471
 21
-34.556427
  0
LINE
  8
0
 10
217.476471
 20
-134.556427
 11
117.476471
 21
-134.556427
  0
LINE
  8
0
  6
CENTER
 62
     2
 10
226.306244
 20
-84.556427
 11
113.448700
 21
-84.556427
  0
LINE
  8
0
 10
217.476501
 20
-34.556427
 11
117.476501
 21
-34.556427
  0
LINE
  8
0
  6
CENTER
 62
     2
 10
167.476471
 20
-138.617874
 11
167.476471
 21
-26.776566
  0
LINE
  8
0
  6
CENTER
 62
     2
 10
209.976471
 20
-133.489838
 11
209.976471
 21
-121.310028
  0
LINE
  8
0
  6
CENTER
 62
     2
 10
124.976471
 20
-132.982330
 11
124.976471
 21
-121.310013
  0
LINE
  8
0
  6
CENTER
 62
     2
 10
216.687378
 20
-42.056427
 11
204.000061
 21
-42.056427
  0
LINE
  8
0
  6
CENTER
 62
     2
 10
216.010712
 20
-127.056427
 11
204.338379
 21
-127.056427
  0
LINE
  8
0
  6
CENTER
 62
     2
 10
131.090363
 20
-42.056427
 11
118.572205
 21
-42.056427
  0
LINE
  8
0
  6
CENTER
 62
     2
 10
124.976471
 20
-49.246124
 11
124.976471
 21
-35.543823
  0
LINE
  8
0
  6
CENTER
 62
     2
 10
209.976471
 20
-48.569473
 11
209.976471
 21
-35.543839
  0
LINE
  8
0
  6
CENTER
 62
     2
 10
131.428680
 20
-127.056427
 11
118.572205
 21
-127.056427
  0
LINE
  8
0
  6
CENTER
 62
     2
 10
205.522522
 20
-52.056427
 11
195.034363
 21
-52.056427
  0
LINE
  8
0
  6
CENTER
 62
     2
 10
204.845856
 20
-117.056427
 11
194.696014
 21
-117.056427
  0
LINE
  8
0
  6
CENTER
 62
     2
 10
199.976471
 20
-122.155838
 11
199.976471
 21
-112.175171
  0
LINE
  8
0
  6
CENTER
 62
     2
 10
134.976471
 20
-122.494156
 11
134.976471
 21
-112.005981
  0
LINE
  8
0
  6
CENTER
 62
     2
 10
140.056061
 20
-52.056427
 11
129.229553
 21
-52.056427
  0
LINE
  8
0
  6
CENTER
 62
     2
 10
139.886871
 20
-117.056427
 11
129.737030
 21
-117.056427
  0
LINE
  8
0
  6
CENTER
 62
     2
 10
134.976471
 20
-57.196838
 11
134.976471
 21
-46.370346
  0
LINE
  8
0
  6
CENTER
 62
     2
 10
199.976471
 20
-56.351028
 11
199.976471
 21
-47.046997
  0
CIRCLE
  8
0
 10
-43.023476
 20
-127.056404
 40
2.000000
  0
CIRCLE
  8
0
 10
-128.023468
 20
-127.056389
 40
2.000000
  0
CIRCLE
  8
0
 10
-128.023468
 20
-42.056396
 40
2.000000
  0
CIRCLE
  8
0
 10
-43.023476
 20
-42.056408
 40
2.000000
  0
CIRCLE
  8
0
 62
     2
 10
-43.023476
 20
-127.056404
 40
2.500000
  0
CIRCLE
  8
0
 62
     2
 10
-128.023468
 20
-127.056389
 40
2.500000
  0
CIRCLE
  8
0
 62
     2
 10
-43.023476
 20
-42.056408
 40
2.500000
  0
CIRCLE
  8
0
 62
     2
 10
-128.023468
 20
-42.056396
 40
2.500000
  0
CIRCLE
  8
0
 10
-85.523476
 20
-127.056404
 40
3.000000
  0
ARC
  8
0
 10
-85.523460
 20
-43.056404
 40
3.000000
 50
180.000000
 51
0.000000
  0
ARC
  8
0
 10
-206.523468
 20
-64.556389
 40
8.000000
 50
270.000000
 51
0.000000
  0
ARC
  8
0
 10
-236.523468
 20
-64.556389
 40
8.000000
 50
180.000061
 51
270.000000
  0
CIRCLE
  8
0
 10
-202.323456
 20
-77.056389
 40
2.800000
  0
CIRCLE
  8
0
 10
-227.723450
 20
-77.056389
 40
2.800000
  0
CIRCLE
  8
0
 10
-211.523468
 20
-77.056389
 40
2.750000
  0
CIRCLE
  8
0
 10
-217.523468
 20
-84.556389
 40
2.500000
  0
CIRCLE
  8
0
 10
-205.023468
 20
-84.056389
 40
1.000000
  0
CIRCLE
  8
0
 10
-217.523468
 20
-84.556389
 40
2.000000
  0
ARC
  8
0
 10
-246.431793
 20
-40.056385
 40
5.508326
 50
333.008484
 51
26.991575
  0
ARC
  8
0
 10
-246.431793
 20
-45.056389
 40
5.508326
 50
333.008484
 51
26.991575
  0
ARC
  8
0
 10
-239.015137
 20
-40.056385
 40
5.508329
 50
153.008423
 51
206.991470
  0
ARC
  8
0
 10
-239.015137
 20
-45.056389
 40
5.508329
 50
153.008423
 51
206.991470
  0
ARC
  8
0
 10
-248.015137
 20
-60.056389
 40
5.508329
 50
153.008423
 51
206.991470
  0
ARC
  8
0
 10
-248.015137
 20
-55.056389
 40
5.508329
 50
153.008423
 51
206.991470
  0
ARC
  8
0
 10
22.525461
 20
-104.556358
 40
8.000000
 50
90.000031
 51
180.000000
  0
ARC
  8
0
 10
52.525459
 20
-104.556374
 40
8.000000
 50
0.000055
 51
90.000031
  0
CIRCLE
  8
0
 10
18.325468
 20
-92.056358
 40
2.800000
  0
CIRCLE
  8
0
 10
63.725475
 20
-92.056381
 40
2.800000
  0
CIRCLE
  8
0
 10
53.525478
 20
-92.056381
 40
2.750000
  0
CIRCLE
  8
0
 10
59.525482
 20
-84.556381
 40
2.500000
  0
CIRCLE
  8
0
 10
47.025482
 20
-85.056381
 40
1.000000
  0
CIRCLE
  8
0
 10
59.525482
 20
-84.556381
 40
2.000000
  0
ARC
  8
0
 10
62.433777
 20
-129.056381
 40
5.508329
 50
153.008514
 51
206.991501
  0
ARC
  8
0
 10
62.433781
 20
-124.056381
 40
5.508329
 50
153.008514
 51
206.991577
  0
ARC
  8
0
 10
55.017120
 20
-129.056366
 40
5.508326
 50
333.008484
 51
26.991488
  0
ARC
  8
0
 10
55.017124
 20
-124.056366
 40
5.508329
 50
333.008423
 51
26.991488
  0
ARC
  8
0
 10
64.017128
 20
-109.056381
 40
5.508329
 50
333.008423
 51
26.991468
  0
ARC
  8
0
 10
64.017128
 20
-114.056381
 40
5.508329
 50
333.008423
 51
26.991468
  0
CIRCLE
  8
0
 10
60.225483
 20
-75.556381
 40
5.000000
  0
CIRCLE
  8
0
 10
60.225483
 20
-75.556381
 40
2.500000
  0
CIRCLE
  8
0
 10
60.225483
 20
-75.556381
 40
3.500000
  0
CIRCLE
  8
0
 10
21.525501
 20
-75.556358
 40
3.500000
  0
CIRCLE
  8
0
 10
21.525501
 20
-75.556358
 40
5.000000
  0
CIRCLE
  8
0
 10
21.525501
 20
-75.556358
 40
2.500000
  0
ARC
  8
0
 10
-103.023453
 20
97.935272
 40
5.508329
 50
63.008423
 51
116.991470
  0
ARC
  8
0
 10
-98.023453
 20
97.935272
 40
5.508329
 50
63.008423
 51
116.991470
  0
ARC
  8
0
 10
-103.023453
 20
105.351929
 40
5.508333
 50
243.008530
 51
296.991577
  0
ARC
  8
0
 10
-98.023453
 20
105.351929
 40
5.508333
 50
243.008530
 51
296.991577
  0
CIRCLE
  8
0
 10
-56.723457
 20
103.143600
 40
5.000000
  0
CIRCLE
  8
0
 10
-56.723457
 20
103.143600
 40
2.000000
  0
ARC
  8
0
 10
-56.723457
 20
102.143600
 40
4.000000
 50
180.000000
 51
0.000000
  0
ARC
  8
0
 10
-56.723457
 20
104.143600
 40
4.000000
 50
0.000000
 51
180.000000
  0
CIRCLE
  8
0
 10
-56.723465
 20
64.443588
 40
5.000000
  0
CIRCLE
  8
0
 10
-56.723465
 20
64.443588
 40
2.000000
  0
ARC
  8
0
 10
-56.723465
 20
63.443592
 40
4.000000
 50
180.000000
 51
0.000000
  0
ARC
  8
0
 10
-56.723457
 20
65.443588
 40
4.000000
 50
0.000000
 51
180.000000
  0
CIRCLE
  8
0
 10
209.976471
 20
-127.056458
 40
2.750000
  0
CIRCLE
  8
0
 10
124.976471
 20
-127.056427
 40
2.750000
  0
CIRCLE
  8
0
 10
124.976501
 20
-42.056427
 40
2.750000
  0
CIRCLE
  8
0
 10
209.976501
 20
-42.056442
 40
2.750000
  0
CIRCLE
  8
0
  6
DASHED
 62
     2
 10
209.976471
 20
-127.056458
 40
4.750000
  0
CIRCLE
  8
0
  6
DASHED
 62
     2
 10
124.976471
 20
-127.056427
 40
4.750000
  0
CIRCLE
  8
0
  6
DASHED
 62
     2
 10
124.976501
 20
-42.056427
 40
4.750000
  0
CIRCLE
  8
0
  6
DASHED
 62
     2
 10
209.976501
 20
-42.056442
 40
4.750000
  0
CIRCLE
  8
0
 10
199.976471
 20
-117.056442
 40
2.250000
  0
CIRCLE
  8
0
 10
134.976471
 20
-117.056427
 40
2.250000
  0
CIRCLE
  8
0
 10
134.976501
 20
-52.056442
 40
2.250000
  0
CIRCLE
  8
0
 10
199.976471
 20
-52.056442
 40
2.250000
  0
CIRCLE
  8
0
  6
DASHED
 62
     2
 10
199.976471
 20
-117.056442
 40
4.000000
  0
CIRCLE
  8
0
  6
DASHED
 62
     2
 10
134.976471
 20
-117.056427
 40
4.000000
  0
CIRCLE
  8
0
  6
DASHED
 62
     2
 10
134.976501
 20
-52.056442
 40
4.000000
  0
CIRCLE
  8
0
  6
DASHED
 62
     2
 10
199.976471
 20
-52.056442
 40
4.000000
  0
CIRCLE
  8
0
 10
167.476471
 20
-127.056442
 40
2.000000
  0
CIRCLE
  8
0
 10
167.476501
 20
-42.056442
 40
2.000000
  0
CIRCLE
  8
0
 10
209.976471
 20
-84.556450
 40
2.000000
  0
CIRCLE
  8
0
 10
134.976471
 20
-84.556404
 40
2.000000
  0
CIRCLE
  8
0
 10
199.976471
 20
-84.556427
 40
2.000000
  0
CIRCLE
  8
0
 10
124.976471
 20
-84.556435
 40
2.000000
  0
CIRCLE
  8
0
 10
167.476471
 20
-117.056427
 40
2.000000
  0
CIRCLE
  8
0
 10
167.476486
 20
-52.056427
 40
2.000000
  0
POLYLINE
  8
0
 62
     2
 66
     1
  0
VERTEX
  8
0
 10
-133.604950
 20
74.443604
  0
VERTEX
  8
0
 10
-133.384415
 20
75.249367
  0
VERTEX
  8
0
 10
-133.053604
 20
76.021240
  0
VERTEX
  8
0
 10
-132.943329
 20
76.462318
  0
VERTEX
  8
0
 10
-133.384415
 20
76.903389
  0
VERTEX
  8
0
 10
-133.163864
 20
77.565002
  0
VERTEX
  8
0
 10
-133.274139
 20
78.336876
  0
VERTEX
  8
0
 10
-133.715210
 20
78.447144
  0
SEQEND
  0
TEXT
  8
0
 10
174.200241
 20
180.830002
 40
6.300000
  1
DATE: Apr ,1994
 50
0.000000
 41
1.052632
 51
0.000000
  7
STANDARD
  0
TEXT
  8
0
 10
167.564667
 20
-192.100006
 40
9.000000
  1
KOGANEI CORP.
 50
0.000000
 41
1.052632
 51
0.000000
  7
STANDARD
  0
TEXT
  8
0
 10
-269.149719
 20
180.830002
 40
6.300000
  1
HANDLING MODULE
 50
0.000000
 41
1.052632
 51
0.000000
  7
STANDARD
  0
TEXT
  8
0
 10
-270.049713
 20
155.830002
 40
6.300000
  1
MODEL:SHM41L-LS
 50
0.000000
 41
1.052632
 51
0.000000
  7
STANDARD
  0
ENDSEC
  0
EOF
