  0
SECTION
  2
HEADER
  0
ENDSEC
  0
SECTION
  2
TABLES
  0
TABLE
  2
LTYPE
 70
     4
  0
LTYPE
  2
CONTINUOUS
 70
    64
  3
Solid line
 72
    65
 73
     0
 40
0.000000
  0
LTYPE
  2
DASHED
 70
    64
  3
__ __ __ __ __ __ __ __ __ __ __ __ __ __ __
 72
    65
 73
     2
 40
3.500000
 49
2.000000
 49
-1.500000
  0
LTYPE
  2
CENTER
 70
    64
  3
____ _ ____ _ ____ _ ____ _ ____ _ ____ _ ____
 72
    65
 73
     4
 40
17.500000
 49
13.000000
 49
-1.500000
 49
1.500000
 49
-1.500000
  0
LTYPE
  2
PHANTOM
 70
    64
  3
_____ _ _ _____ _ _ _____ _ _ _____ _ _ ____  
 72
    65
 73
     6
 40
15.500000
 49
8.000000
 49
-1.500000
 49
1.500000
 49
-1.500000
 49
1.500000
 49
-1.500000
  0
LTYPE
  2
DASHED1
 70
    64
  3
__ __ __ __ __ __ __ __ __ __ __ __ __ __ __
 72
    65
 73
     2
 40
1.500000
 49
1.000000
 49
-0.500000
  0
LTYPE
  2
DASHED2
 70
    64
  3
__ __ __ __ __ __ __ __ __ __ __ __ __ __ __
 72
    65
 73
     2
 40
3.500000
 49
2.500000
 49
-1.000000
  0
LTYPE
  2
DASHED3
 70
    64
  3
__ __ __ __ __ __ __ __ __ __ __ __ __ __ __
 72
    65
 73
     2
 40
6.000000
 49
4.000000
 49
-2.000000
  0
LTYPE
  2
DASHED4
 70
    64
  3
__ __ __ __ __ __ __ __ __ __ __ __ __ __ __
 72
    65
 73
     2
 40
12.000000
 49
10.000000
 49
-2.000000
  0
LTYPE
  2
DASHED5
 70
    64
  3
__ __ __ __ __ __ __ __ __ __ __ __ __ __ __
 72
    65
 73
     2
 40
17.000000
 49
15.000000
 49
-2.000000
  0
LTYPE
  2
DASHED6
 70
    64
  3
__ __ __ __ __ __ __ __ __ __ __ __ __ __ __
 72
    65
 73
     2
 40
29.000000
 49
27.000000
 49
-2.000000
  0
LTYPE
  2
PHANTOM1
 70
    64
  3
_____ _ _ _____ _ _ _____ _ _ _____ _ _ ____  
 72
    65
 73
     6
 40
31.000000
 49
25.000000
 49
-1.500000
 49
1.000000
 49
-1.000000
 49
1.000000
 49
-1.500000
  0
LTYPE
  2
PHANTOM2
 70
    64
  3
_____ _ _ _____ _ _ _____ _ _ _____ _ _ ____  
 72
    65
 73
     6
 40
36.000000
 49
27.000000
 49
-1.500000
 49
2.500000
 49
-1.000000
 49
2.500000
 49
-1.500000
  0
LTYPE
  2
PHANTOM3
 70
    64
  3
_____ _ _ _____ _ _ _____ _ _ _____ _ _ ____  
 72
    65
 73
     6
 40
78.000000
 49
64.000000
 49
-2.000000
 49
4.000000
 49
-2.000000
 49
4.000000
 49
-2.000000
  0
LTYPE
  2
CENTER1
 70
    64
  3
____ _ ____ _ ____ _ ____ _ ____ _ ____ _ ____
 72
    65
 73
     4
 40
19.000000
 49
14.000000
 49
-1.000000
 49
3.000000
 49
-1.000000
  0
LTYPE
  2
CENTER2
 70
    64
  3
____ _ ____ _ ____ _ ____ _ ____ _ ____ _ ____
 72
    65
 73
     4
 40
28.500000
 49
25.000000
 49
-1.000000
 49
1.500000
 49
-1.000000
  0
LTYPE
  2
CENTER3
 70
    64
  3
____ _ ____ _ ____ _ ____ _ ____ _ ____ _ ____
 72
    65
 73
     4
 40
31.500000
 49
27.000000
 49
-1.000000
 49
2.500000
 49
-1.000000
  0
LTYPE
  2
CENTER4
 70
    64
  3
____ _ ____ _ ____ _ ____ _ ____ _ ____ _ ____
 72
    65
 73
     4
 40
50.000000
 49
45.000000
 49
-1.000000
 49
3.000000
 49
-1.000000
  0
LTYPE
  2
CENTER5
 70
    64
  3
____ _ ____ _ ____ _ ____ _ ____ _ ____ _ ____
 72
    65
 73
     4
 40
100.000000
 49
92.000000
 49
-2.000000
 49
4.000000
 49
-2.000000
  0
LTYPE
  2
SBK1
 70
    64
  3
______ _ _ _ ______ _ _ _ ______ _ _ _ _____  
 72
    65
 73
     8
 40
60.500000
 49
45.000000
 49
-2.000000
 49
2.500000
 49
-2.000000
 49
2.500000
 49
-2.000000
 49
2.500000
 49
-2.000000
  0
LTYPE
  2
SBK2
 70
    64
  3
______ _ _ _ ______ _ _ _ ______ _ _ _ _____  
 72
    65
 73
     8
 40
84.000000
 49
64.000000
 49
-2.000000
 49
4.000000
 49
-2.000000
 49
4.000000
 49
-2.000000
 49
4.000000
 49
-2.000000
  0
LTYPE
  2
STCH
 70
    64
  3
__ __ __ __ __ __ __ __ __ __ __ __ __ __ __
 72
    65
 73
     2
 40
3.000000
 49
1.000000
 49
-2.000000
  0
LTYPE
  2
MTCH
 70
    64
  3
_____ _ _ _____ _ _ _____ _ _ _____ _ _ ____  
 72
    65
 73
     6
 40
80.000000
 49
66.000000
 49
-2.000000
 49
4.000000
 49
-2.000000
 49
4.000000
 49
-2.000000
  0
ENDTAB
  0
TABLE
  2
LAYER
 70
     1
  0
LAYER
  2
0
 70
     0
 62
     7
  6
CONTINUOUS
  0
ENDTAB
  0
TABLE
  2
STYLE
 70
     1
  0
STYLE
  2
STANDARD
 70
     0
 40
0.000000
 41
1.000000
 50
0.000000
 71
     0
 42
0.200000
  3
txt
  4
BIGFONT
  0
ENDTAB
  0
TABLE
  2
VIEW
 70
     0
  0
ENDTAB
  0
ENDSEC
  0
SECTION
  2
BLOCKS
  0
ENDSEC
  0
SECTION
  2
ENTITIES
  0
LINE
  8
0
 10
-281.250000
 20
195.500000
 11
282.099976
 21
195.500000
  0
LINE
  8
0
 10
-281.250000
 20
195.500000
 11
-281.250000
 21
-195.000000
  0
LINE
  8
0
 10
282.099976
 20
195.500000
 11
282.099976
 21
-195.000000
  0
LINE
  8
0
 10
-281.250000
 20
-195.000000
 11
282.099976
 21
-195.000000
  0
LINE
  8
0
 10
162.099976
 20
-175.000000
 11
162.099976
 21
-195.000000
  0
LINE
  8
0
 10
162.099976
 20
-175.000000
 11
282.099976
 21
-175.000000
  0
LINE
  8
0
 10
162.099976
 20
175.500000
 11
282.099976
 21
175.500000
  0
LINE
  8
0
 10
-281.250000
 20
175.500000
 11
-161.250000
 21
175.500000
  0
LINE
  8
0
 10
162.099976
 20
195.500000
 11
162.099976
 21
175.500000
  0
LINE
  8
0
 10
-161.250000
 20
195.500000
 11
-161.250000
 21
175.500000
  0
LINE
  8
0
  6
CENTER
 62
     2
 10
-92.208344
 20
-117.158218
 11
-92.208344
 21
-11.271545
  0
LINE
  8
0
  6
CENTER
 62
     2
 10
-145.805542
 20
-64.016663
 11
-38.005527
 21
-64.016663
  0
LINE
  8
0
 10
-142.208344
 20
-114.016663
 11
-42.208344
 21
-114.016663
  0
LINE
  8
0
 10
-142.208344
 20
-14.016663
 11
-42.208344
 21
-14.016663
  0
LINE
  8
0
 10
-142.208344
 20
-114.016663
 11
-142.208344
 21
-14.016663
  0
LINE
  8
0
 10
-42.208344
 20
-114.016663
 11
-42.208344
 21
-14.016663
  0
LINE
  8
0
 10
-89.208344
 20
-22.516663
 11
-89.208344
 21
-14.016663
  0
LINE
  8
0
 10
-95.208344
 20
-22.516663
 11
-95.208344
 21
-14.016663
  0
LINE
  8
0
  6
CENTER
 62
     2
 10
-52.867950
 20
-106.516663
 11
-46.192703
 21
-106.516663
  0
LINE
  8
0
 62
     2
 10
-138.354156
 20
-106.516663
 11
-131.248260
 21
-106.516663
  0
LINE
  8
0
  6
CENTER
 62
     2
 10
-137.923492
 20
-21.516663
 11
-131.248260
 21
-21.516663
  0
LINE
  8
0
  6
CENTER
 62
     2
 10
-134.708344
 20
-24.818726
 11
-134.708344
 21
-18.358810
  0
LINE
  8
0
  6
CENTER
 62
     2
 10
-52.867950
 20
-21.516663
 11
-45.546715
 21
-21.516663
  0
LINE
  8
0
  6
CENTER
 62
     2
 10
-49.708344
 20
-25.034058
 11
-49.708344
 21
-18.574142
  0
LINE
  8
0
  6
CENTER
 62
     2
 10
-97.586678
 20
-106.516663
 11
-87.175529
 21
-106.516663
  0
LINE
  8
0
  6
CENTER
 62
     2
 10
-97.586678
 20
-22.516663
 11
-86.901558
 21
-22.516663
  0
LINE
  8
0
  6
CENTER
 62
     2
 10
-134.708344
 20
-103.214600
 11
-134.708344
 21
-109.674515
  0
LINE
  8
0
  6
CENTER
 62
     2
 10
-49.708344
 20
-102.999268
 11
-49.708344
 21
-109.459183
  0
LINE
  8
0
 10
-212.208344
 20
-14.016644
 11
-253.208344
 21
-14.016644
  0
LINE
  8
0
 10
-212.208359
 20
-114.016647
 11
-253.208359
 21
-114.016647
  0
LINE
  8
0
  6
CENTER
 62
     2
 10
-207.761169
 20
-64.016647
 11
-267.108337
 21
-64.016647
  0
LINE
  8
0
 10
-212.208344
 20
-14.016647
 11
-212.208344
 21
-114.016647
  0
LINE
  8
0
 10
-262.208344
 20
-14.016640
 11
-262.208344
 21
-114.016640
  0
LINE
  8
0
 10
-255.208344
 20
-14.016644
 11
-262.208344
 21
-14.016644
  0
LINE
  8
0
 10
-255.208359
 20
-114.016647
 11
-262.208374
 21
-114.016647
  0
LINE
  8
0
 10
-242.608337
 20
-18.055874
 11
-242.608337
 21
-25.977413
  0
LINE
  8
0
 10
-226.208344
 20
-40.016647
 11
-246.208344
 21
-40.016647
  0
LINE
  8
0
 10
-226.208344
 20
-34.016647
 11
-246.208344
 21
-34.016647
  0
LINE
  8
0
 62
     2
 10
-226.208344
 20
-34.516647
 11
-246.208344
 21
-34.516647
  0
LINE
  8
0
 62
     2
 10
-226.208344
 20
-39.516647
 11
-246.208344
 21
-39.516647
  0
LINE
  8
0
 10
-254.208344
 20
-18.016640
 11
-254.208344
 21
-26.016640
  0
LINE
  8
0
 10
-254.208344
 20
-26.016647
 11
-255.208344
 21
-26.016647
  0
LINE
  8
0
 10
-254.208344
 20
-18.016644
 11
-255.208344
 21
-18.016644
  0
LINE
  8
0
 10
-253.208344
 20
-19.016644
 11
-253.708344
 21
-19.016644
  0
LINE
  8
0
 62
     2
 10
-253.208344
 20
-19.516644
 11
-254.208344
 21
-19.516644
  0
LINE
  8
0
 62
     2
 10
-253.208344
 20
-24.516647
 11
-254.208344
 21
-24.516647
  0
LINE
  8
0
 10
-253.208344
 20
-25.016647
 11
-253.708344
 21
-25.016647
  0
LINE
  8
0
 10
-234.208344
 20
-19.516644
 11
-234.208344
 21
-24.516644
  0
LINE
  8
0
 10
-226.208344
 20
-31.516644
 11
-226.208344
 21
-42.516647
  0
LINE
  8
0
 10
-224.208344
 20
-31.516647
 11
-224.208344
 21
-42.516647
  0
LINE
  8
0
 10
-219.208344
 20
-33.055878
 11
-219.208344
 21
-40.977417
  0
LINE
  8
0
 10
-224.208344
 20
-31.516647
 11
-226.208344
 21
-31.516647
  0
LINE
  8
0
 10
-224.208344
 20
-42.516647
 11
-226.208344
 21
-42.516647
  0
LINE
  8
0
 10
-243.208344
 20
-17.016644
 11
-245.608337
 21
-17.016644
  0
LINE
  8
0
 10
-243.208344
 20
-27.016647
 11
-245.608353
 21
-27.016647
  0
LINE
  8
0
 10
-234.708344
 20
-19.016644
 11
-234.708344
 21
-25.016644
  0
LINE
  8
0
 10
-234.708328
 20
-19.016642
 11
-234.208328
 21
-19.516642
  0
LINE
  8
0
 10
-234.208328
 20
-24.516659
 11
-234.708328
 21
-25.016659
  0
LINE
  8
0
 10
-227.208344
 20
-52.016647
 11
-238.208344
 21
-52.016647
  0
LINE
  8
0
 10
-246.208344
 20
-14.016644
 11
-246.208344
 21
-44.016640
  0
LINE
  8
0
  6
CENTER
 62
     2
 10
-212.726562
 20
-37.016647
 11
-257.107788
 21
-37.016647
  0
LINE
  8
0
  6
CENTER
 62
     2
 10
-232.667725
 20
-22.016644
 11
-256.753662
 21
-22.016644
  0
LINE
  8
0
 10
-220.208344
 20
-42.016647
 11
-224.208344
 21
-42.016647
  0
LINE
  8
0
 10
-220.208344
 20
-32.016647
 11
-224.208344
 21
-32.016647
  0
LINE
  8
0
 10
-234.708344
 20
-19.016644
 11
-242.608337
 21
-19.016644
  0
LINE
  8
0
 62
     2
 10
-234.208344
 20
-19.516644
 11
-242.608337
 21
-19.516644
  0
LINE
  8
0
 10
-234.708344
 20
-25.016647
 11
-242.608353
 21
-25.016647
  0
LINE
  8
0
 62
     2
 10
-234.208344
 20
-24.516647
 11
-242.608353
 21
-24.516647
  0
LINE
  8
0
 10
-220.208344
 20
-14.016647
 11
-220.208344
 21
-30.452843
  0
LINE
  8
0
 10
-253.208344
 20
-14.016640
 11
-253.208344
 21
-114.016640
  0
LINE
  8
0
 10
-243.208344
 20
-22.016644
 11
-245.608337
 21
-22.016644
  0
LINE
  8
0
 10
-221.208344
 20
-60.516647
 11
-252.208344
 21
-60.516647
  0
LINE
  8
0
 10
-221.208344
 20
-52.516647
 11
-228.708344
 21
-52.516647
  0
LINE
  8
0
 10
-221.208344
 20
-52.516647
 11
-221.208344
 21
-60.516647
  0
LINE
  8
0
 10
-252.208344
 20
-52.516640
 11
-252.208344
 21
-60.516640
  0
LINE
  8
0
  6
CENTER
 62
     2
 10
-219.714111
 20
-56.516647
 11
-252.875000
 21
-56.516647
  0
LINE
  8
0
 10
-221.208344
 20
-57.766647
 11
-221.502869
 21
-57.766647
  0
LINE
  8
0
 10
-221.208344
 20
-55.266647
 11
-221.502869
 21
-55.266647
  0
LINE
  8
0
 10
-222.208344
 20
-67.516647
 11
-244.208344
 21
-67.516647
  0
LINE
  8
0
 10
-222.208344
 20
-60.516647
 11
-222.208344
 21
-67.516647
  0
LINE
  8
0
 10
-244.208344
 20
-60.516644
 11
-244.208344
 21
-67.516640
  0
LINE
  8
0
  6
CENTER
 62
     2
 10
-233.208344
 20
-52.516644
 11
-233.208344
 21
-59.620251
  0
LINE
  8
0
 10
-219.208359
 20
-109.016647
 11
-253.208359
 21
-109.016647
  0
LINE
  8
0
  6
CENTER
 62
     2
 10
-224.008347
 20
-52.516647
 11
-224.008347
 21
-60.516647
  0
LINE
  8
0
  6
CENTER
 62
     2
 10
-249.408356
 20
-52.516640
 11
-249.408356
 21
-60.516640
  0
LINE
  8
0
 10
-226.513855
 20
-55.266647
 11
-228.708344
 21
-55.266647
  0
LINE
  8
0
 10
-226.513855
 20
-57.766647
 11
-228.708344
 21
-57.766647
  0
LINE
  8
0
 10
-251.913849
 20
-55.266647
 11
-252.208344
 21
-55.266647
  0
LINE
  8
0
 10
-251.913849
 20
-57.766647
 11
-252.208344
 21
-57.766647
  0
LINE
  8
0
 10
-237.708344
 20
-52.016644
 11
-237.708344
 21
-60.516644
  0
LINE
  8
0
 10
-237.708344
 20
-57.766647
 11
-246.902863
 21
-57.766647
  0
LINE
  8
0
 10
-237.708344
 20
-55.266647
 11
-246.902863
 21
-55.266647
  0
LINE
  8
0
 10
-232.480042
 20
-57.766647
 11
-233.936676
 21
-57.766647
  0
LINE
  8
0
 10
-232.480042
 20
-55.266647
 11
-233.936661
 21
-55.266647
  0
LINE
  8
0
 10
-232.480011
 20
-55.266590
 11
-231.758316
 21
-56.516590
  0
LINE
  8
0
 10
-234.658295
 20
-56.516548
 11
-233.936600
 21
-57.766548
  0
LINE
  8
0
 10
-233.936676
 20
-55.266617
 11
-234.658356
 21
-56.516621
  0
LINE
  8
0
 10
-231.758331
 20
-56.516605
 11
-232.480011
 21
-57.766586
  0
LINE
  8
0
 10
-249.008362
 20
-54.716644
 11
-249.808350
 21
-54.716644
  0
LINE
  8
0
 10
-249.008362
 20
-58.316635
 11
-249.808350
 21
-58.316635
  0
LINE
  8
0
 10
-247.608337
 20
-56.116634
 11
-247.608337
 21
-56.916637
  0
LINE
  8
0
 10
-251.208344
 20
-56.116631
 11
-251.208344
 21
-56.916634
  0
LINE
  8
0
 10
-247.608337
 20
-56.916641
 11
-249.008362
 21
-56.916641
  0
LINE
  8
0
 10
-247.608337
 20
-56.116638
 11
-249.008362
 21
-56.116638
  0
LINE
  8
0
 10
-249.008331
 20
-54.716637
 11
-249.008331
 21
-56.116631
  0
LINE
  8
0
 10
-249.808350
 20
-54.716637
 11
-249.808350
 21
-56.116631
  0
LINE
  8
0
 10
-249.008331
 20
-56.916634
 11
-249.008331
 21
-58.316628
  0
LINE
  8
0
 10
-249.808350
 20
-56.916641
 11
-251.208344
 21
-56.916641
  0
LINE
  8
0
 10
-249.808350
 20
-56.916634
 11
-249.808350
 21
-58.316628
  0
LINE
  8
0
 10
-249.808350
 20
-56.116638
 11
-251.208344
 21
-56.116638
  0
LINE
  8
0
 10
-222.208344
 20
-56.116638
 11
-222.208344
 21
-56.916641
  0
LINE
  8
0
 10
-222.208344
 20
-56.916641
 11
-223.608353
 21
-56.916641
  0
LINE
  8
0
 10
-222.208344
 20
-56.116638
 11
-223.608353
 21
-56.116638
  0
LINE
  8
0
 10
-223.608337
 20
-54.716644
 11
-223.608337
 21
-56.116638
  0
LINE
  8
0
 10
-223.608353
 20
-54.716644
 11
-224.408356
 21
-54.716644
  0
LINE
  8
0
 10
-224.408356
 20
-54.716644
 11
-224.408356
 21
-56.116638
  0
LINE
  8
0
 10
-224.408356
 20
-56.116638
 11
-225.808350
 21
-56.116638
  0
LINE
  8
0
 10
-224.408356
 20
-56.916641
 11
-225.808350
 21
-56.916641
  0
LINE
  8
0
 10
-223.608337
 20
-56.916641
 11
-223.608337
 21
-58.316635
  0
LINE
  8
0
 10
-224.408356
 20
-56.916641
 11
-224.408356
 21
-58.316635
  0
LINE
  8
0
 10
-223.608353
 20
-58.316635
 11
-224.408356
 21
-58.316635
  0
LINE
  8
0
 10
-225.808350
 20
-56.116638
 11
-225.808350
 21
-56.916641
  0
LINE
  8
0
 10
-228.708344
 20
-52.016644
 11
-228.708344
 21
-60.516644
  0
LINE
  8
0
 10
-237.708344
 20
-52.516647
 11
-252.208344
 21
-52.516647
  0
LINE
  8
0
  6
CENTER
 62
     2
 10
-239.208344
 20
-60.516644
 11
-239.208344
 21
-67.516640
  0
LINE
  8
0
  6
CENTER
 62
     2
 10
-226.708344
 20
-60.516644
 11
-226.708344
 21
-66.551559
  0
LINE
  8
0
  6
CENTER
 62
     2
 10
-223.195099
 20
-63.516647
 11
-230.475708
 21
-63.516647
  0
LINE
  8
0
 10
-243.208374
 20
-17.016605
 11
-242.608368
 21
-18.055849
  0
LINE
  8
0
 10
-242.608353
 20
-25.977415
 11
-243.208344
 21
-27.016644
  0
LINE
  8
0
 10
-245.608292
 20
-17.016674
 11
-246.208298
 21
-18.055901
  0
LINE
  8
0
 10
-246.208405
 20
-25.977425
 11
-245.608414
 21
-27.016653
  0
LINE
  8
0
 10
-255.208450
 20
-40.977455
 11
-254.608444
 21
-42.016682
  0
LINE
  8
0
 10
-253.208344
 20
-42.016647
 11
-254.608337
 21
-42.016647
  0
LINE
  8
0
 10
-253.208344
 20
-37.016647
 11
-254.608337
 21
-37.016647
  0
LINE
  8
0
 10
-254.608429
 20
-32.016644
 11
-255.208420
 21
-33.055859
  0
LINE
  8
0
 10
-253.208344
 20
-32.016647
 11
-254.608337
 21
-32.016647
  0
LINE
  8
0
 10
-220.208344
 20
-37.016647
 11
-224.208344
 21
-37.016647
  0
LINE
  8
0
 10
-253.208359
 20
-106.016647
 11
-255.208359
 21
-106.016647
  0
LINE
  8
0
 10
-253.208359
 20
-84.016647
 11
-255.208359
 21
-84.016647
  0
LINE
  8
0
 10
-219.208344
 20
-14.016647
 11
-219.208344
 21
-114.016647
  0
LINE
  8
0
 10
-220.208344
 20
-14.016647
 11
-220.208344
 21
-44.016647
  0
LINE
  8
0
 10
-253.708344
 20
-19.016640
 11
-253.708344
 21
-25.016640
  0
LINE
  8
0
 10
-253.708313
 20
-19.016647
 11
-254.208313
 21
-19.516647
  0
LINE
  8
0
 10
-254.208328
 20
-24.516617
 11
-253.708328
 21
-25.016617
  0
LINE
  8
0
 10
-255.208344
 20
-14.016640
 11
-255.208344
 21
-114.016640
  0
LINE
  8
0
 10
-253.208344
 20
-68.016647
 11
-255.208344
 21
-68.016647
  0
LINE
  8
0
 10
-253.208344
 20
-60.016647
 11
-255.208344
 21
-60.016647
  0
LINE
  8
0
 10
-243.208344
 20
-22.016644
 11
-245.608337
 21
-22.016644
  0
LINE
  8
0
  6
CENTER
 62
     2
 10
-254.167786
 20
-21.516644
 11
-264.117157
 21
-21.516644
  0
LINE
  8
0
  6
CENTER
 62
     2
 10
-253.661880
 20
-31.516644
 11
-264.117157
 21
-31.516644
  0
LINE
  8
0
  6
CENTER
 62
     2
 10
-253.661880
 20
-96.516647
 11
-264.117157
 21
-96.516647
  0
LINE
  8
0
  6
CENTER
 62
     2
 10
-253.830521
 20
-106.516647
 11
-263.948517
 21
-106.516647
  0
LINE
  8
0
  6
CENTER
 62
     2
 10
-220.586182
 20
-106.516647
 11
-210.468185
 21
-106.516647
  0
LINE
  8
0
  6
CENTER
 62
     2
 10
-220.248901
 20
-21.516644
 11
-210.299545
 21
-21.516644
  0
LINE
  8
0
 10
7.791634
 20
-114.016663
 11
48.791634
 21
-114.016663
  0
LINE
  8
0
 10
7.791649
 20
-14.016663
 11
48.791649
 21
-14.016663
  0
LINE
  8
0
  6
CENTER
 62
     2
 10
4.679016
 20
-64.016663
 11
60.410751
 21
-64.016663
  0
LINE
  8
0
 10
7.791656
 20
-114.016632
 11
7.791656
 21
-14.016632
  0
LINE
  8
0
 10
57.791656
 20
-114.016640
 11
57.791656
 21
-14.016647
  0
LINE
  8
0
 10
50.791634
 20
-114.016663
 11
57.791634
 21
-114.016663
  0
LINE
  8
0
 10
50.791649
 20
-14.016663
 11
57.791649
 21
-14.016663
  0
LINE
  8
0
 10
38.191650
 20
-109.977386
 11
38.191650
 21
-102.055878
  0
LINE
  8
0
 10
21.791637
 20
-88.016663
 11
41.791637
 21
-88.016663
  0
LINE
  8
0
 10
21.791637
 20
-94.016663
 11
41.791637
 21
-94.016663
  0
LINE
  8
0
 62
     2
 10
21.791637
 20
-93.516663
 11
41.791637
 21
-93.516663
  0
LINE
  8
0
 62
     2
 10
21.791637
 20
-88.516663
 11
41.791637
 21
-88.516663
  0
LINE
  8
0
 10
49.791656
 20
-110.016640
 11
49.791656
 21
-102.016640
  0
LINE
  8
0
 10
49.791634
 20
-102.016663
 11
50.791634
 21
-102.016663
  0
LINE
  8
0
 10
49.791634
 20
-110.016663
 11
50.791634
 21
-110.016663
  0
LINE
  8
0
 10
48.791634
 20
-109.016663
 11
49.291634
 21
-109.016663
  0
LINE
  8
0
 62
     2
 10
48.791634
 20
-108.516663
 11
49.791634
 21
-108.516663
  0
LINE
  8
0
 62
     2
 10
48.791634
 20
-103.516663
 11
49.791634
 21
-103.516663
  0
LINE
  8
0
 10
48.791634
 20
-103.016663
 11
49.291634
 21
-103.016663
  0
LINE
  8
0
 10
29.791656
 20
-108.516632
 11
29.791656
 21
-103.516632
  0
LINE
  8
0
 10
21.791656
 20
-96.516632
 11
21.791656
 21
-85.516632
  0
LINE
  8
0
 10
19.791656
 20
-96.516632
 11
19.791656
 21
-85.516632
  0
LINE
  8
0
 10
19.791637
 20
-96.516663
 11
21.791637
 21
-96.516663
  0
LINE
  8
0
 10
19.791637
 20
-85.516655
 11
21.791637
 21
-85.516655
  0
LINE
  8
0
 10
38.791634
 20
-111.016663
 11
41.191628
 21
-111.016663
  0
LINE
  8
0
 10
38.791634
 20
-101.016663
 11
41.191631
 21
-101.016663
  0
LINE
  8
0
 10
30.291656
 20
-109.016632
 11
30.291656
 21
-103.016632
  0
LINE
  8
0
 10
30.291603
 20
-109.016731
 11
29.791590
 21
-108.516724
  0
LINE
  8
0
 10
29.791693
 20
-103.516785
 11
30.291697
 21
-103.016785
  0
LINE
  8
0
 10
22.791639
 20
-76.016663
 11
39.291641
 21
-76.016663
  0
LINE
  8
0
  6
CENTER
 62
     2
 10
13.847851
 20
-91.016663
 11
53.647228
 21
-91.016663
  0
LINE
  8
0
  6
CENTER
 62
     2
 10
28.251017
 20
-106.016663
 11
53.308983
 21
-106.016663
  0
LINE
  8
0
 10
15.791637
 20
-86.016655
 11
19.791637
 21
-86.016655
  0
LINE
  8
0
 10
15.791636
 20
-96.016663
 11
19.791637
 21
-96.016663
  0
LINE
  8
0
 10
30.291634
 20
-109.016663
 11
38.191628
 21
-109.016663
  0
LINE
  8
0
 62
     2
 10
29.791634
 20
-108.516663
 11
38.191628
 21
-108.516663
  0
LINE
  8
0
 10
30.291636
 20
-103.016663
 11
38.191628
 21
-103.016663
  0
LINE
  8
0
 62
     2
 10
29.791636
 20
-103.516663
 11
38.191628
 21
-103.516663
  0
LINE
  8
0
 10
15.791656
 20
-114.016632
 11
15.791656
 21
-84.016632
  0
LINE
  8
0
 10
48.791656
 20
-114.016640
 11
48.791656
 21
-14.016647
  0
LINE
  8
0
 10
41.791656
 20
-114.016632
 11
41.791656
 21
-84.016640
  0
LINE
  8
0
 10
38.791634
 20
-106.016663
 11
41.191628
 21
-106.016663
  0
LINE
  8
0
 10
16.791641
 20
-67.516663
 11
47.791641
 21
-67.516663
  0
LINE
  8
0
 10
16.791639
 20
-75.516663
 11
30.291639
 21
-75.516663
  0
LINE
  8
0
 10
16.791656
 20
-75.516632
 11
16.791656
 21
-67.516632
  0
LINE
  8
0
 10
47.791656
 20
-75.516647
 11
47.791656
 21
-67.516647
  0
LINE
  8
0
  6
CENTER
 62
     2
 10
15.297393
 20
-71.516663
 11
48.458298
 21
-71.516663
  0
LINE
  8
0
 10
16.791641
 20
-70.266663
 11
17.086151
 21
-70.266663
  0
LINE
  8
0
 10
16.791641
 20
-72.766663
 11
17.086151
 21
-72.766663
  0
LINE
  8
0
 10
23.791641
 20
-60.516663
 11
45.791641
 21
-60.516663
  0
LINE
  8
0
 10
23.791656
 20
-67.516632
 11
23.791656
 21
-60.516636
  0
LINE
  8
0
 10
45.791656
 20
-67.516647
 11
45.791656
 21
-60.516647
  0
LINE
  8
0
  6
CENTER
 62
     2
 10
34.791656
 20
-75.129501
 11
34.791656
 21
-67.984566
  0
LINE
  8
0
 10
14.791648
 20
-19.016663
 11
48.791649
 21
-19.016663
  0
LINE
  8
0
  6
CENTER
 62
     2
 10
19.591660
 20
-75.516632
 11
19.591660
 21
-67.516632
  0
LINE
  8
0
  6
CENTER
 62
     2
 10
44.991653
 20
-75.516640
 11
44.991653
 21
-67.516640
  0
LINE
  8
0
 10
22.097137
 20
-72.766663
 11
30.291639
 21
-72.766663
  0
LINE
  8
0
 10
22.097137
 20
-70.266663
 11
30.291641
 21
-70.266663
  0
LINE
  8
0
 10
47.497131
 20
-72.766663
 11
47.791641
 21
-72.766663
  0
LINE
  8
0
 10
47.497131
 20
-70.266663
 11
47.791641
 21
-70.266663
  0
LINE
  8
0
 10
39.291656
 20
-76.016640
 11
39.291656
 21
-67.516640
  0
LINE
  8
0
 10
39.291641
 20
-70.266663
 11
42.486145
 21
-70.266663
  0
LINE
  8
0
 10
39.291641
 20
-72.766663
 11
42.486145
 21
-72.766663
  0
LINE
  8
0
 10
34.063339
 20
-70.266663
 11
35.519958
 21
-70.266663
  0
LINE
  8
0
 10
34.063339
 20
-72.766663
 11
35.519958
 21
-72.766663
  0
LINE
  8
0
 10
34.063286
 20
-72.766632
 11
33.341599
 21
-71.516632
  0
LINE
  8
0
 10
36.241665
 20
-71.516594
 11
35.519981
 21
-70.266609
  0
LINE
  8
0
 10
35.519836
 20
-72.766533
 11
36.241524
 21
-71.516556
  0
LINE
  8
0
 10
33.341476
 20
-71.516525
 11
34.063164
 21
-70.266525
  0
LINE
  8
0
 10
44.591644
 20
-73.316666
 11
45.391647
 21
-73.316666
  0
LINE
  8
0
 10
44.591644
 20
-69.716675
 11
45.391647
 21
-69.716675
  0
LINE
  8
0
 10
43.191650
 20
-71.916649
 11
43.191650
 21
-71.116646
  0
LINE
  8
0
 10
46.791656
 20
-71.916656
 11
46.791656
 21
-71.116653
  0
LINE
  8
0
 10
43.191635
 20
-71.116669
 11
44.591644
 21
-71.116669
  0
LINE
  8
0
 10
43.191635
 20
-71.916672
 11
44.591644
 21
-71.916672
  0
LINE
  8
0
 10
44.591660
 20
-73.316643
 11
44.591660
 21
-71.916649
  0
LINE
  8
0
 10
45.391647
 20
-73.316643
 11
45.391647
 21
-71.916649
  0
LINE
  8
0
 10
44.591660
 20
-71.116646
 11
44.591660
 21
-69.716652
  0
LINE
  8
0
 10
45.391647
 20
-71.116669
 11
46.791641
 21
-71.116669
  0
LINE
  8
0
 10
45.391647
 20
-71.116646
 11
45.391647
 21
-69.716652
  0
LINE
  8
0
 10
45.391647
 20
-71.916672
 11
46.791641
 21
-71.916672
  0
LINE
  8
0
 10
17.791656
 20
-71.916641
 11
17.791656
 21
-71.116638
  0
LINE
  8
0
 10
17.791641
 20
-71.116669
 11
19.191635
 21
-71.116669
  0
LINE
  8
0
 10
17.791641
 20
-71.916672
 11
19.191635
 21
-71.916672
  0
LINE
  8
0
 10
19.191650
 20
-73.316635
 11
19.191650
 21
-71.916641
  0
LINE
  8
0
 10
19.191635
 20
-73.316666
 11
19.991638
 21
-73.316666
  0
LINE
  8
0
 10
19.991653
 20
-73.316635
 11
19.991653
 21
-71.916641
  0
LINE
  8
0
 10
19.991638
 20
-71.916672
 11
21.391647
 21
-71.916672
  0
LINE
  8
0
 10
19.991638
 20
-71.116669
 11
21.391647
 21
-71.116669
  0
LINE
  8
0
 10
19.191650
 20
-71.116638
 11
19.191650
 21
-69.716644
  0
LINE
  8
0
 10
19.991653
 20
-71.116638
 11
19.991653
 21
-69.716644
  0
LINE
  8
0
 10
19.191635
 20
-69.716675
 11
19.991638
 21
-69.716675
  0
LINE
  8
0
 10
21.391647
 20
-71.916641
 11
21.391647
 21
-71.116638
  0
LINE
  8
0
 10
30.291656
 20
-76.016632
 11
30.291656
 21
-67.516632
  0
LINE
  8
0
 10
39.291641
 20
-75.516663
 11
47.791641
 21
-75.516663
  0
LINE
  8
0
  6
CENTER
 62
     2
 10
40.791656
 20
-67.516640
 11
40.791656
 21
-60.516636
  0
LINE
  8
0
  6
CENTER
 62
     2
 10
28.291656
 20
-67.516632
 11
28.291656
 21
-61.481724
  0
LINE
  8
0
  6
CENTER
 62
     2
 10
24.778381
 20
-64.516663
 11
32.058990
 21
-64.516663
  0
LINE
  8
0
 10
38.791634
 20
-111.016632
 11
38.191624
 21
-109.977409
  0
LINE
  8
0
 10
38.191639
 20
-102.055901
 11
38.791634
 21
-101.016685
  0
LINE
  8
0
 10
41.191593
 20
-111.016617
 11
41.791595
 21
-109.977379
  0
LINE
  8
0
 10
41.791653
 20
-102.055855
 11
41.191658
 21
-101.016640
  0
LINE
  8
0
 10
50.791683
 20
-87.055840
 11
50.191681
 21
-86.016617
  0
LINE
  8
0
 10
48.791637
 20
-86.016655
 11
50.191631
 21
-86.016655
  0
LINE
  8
0
 10
48.791637
 20
-91.016663
 11
50.191631
 21
-91.016663
  0
LINE
  8
0
 10
50.191769
 20
-96.016716
 11
50.791763
 21
-94.977524
  0
LINE
  8
0
 10
48.791637
 20
-96.016663
 11
50.191631
 21
-96.016663
  0
LINE
  8
0
 10
15.791637
 20
-91.016663
 11
19.791637
 21
-91.016663
  0
LINE
  8
0
 10
48.791649
 20
-22.016663
 11
50.791649
 21
-22.016663
  0
LINE
  8
0
 10
48.791645
 20
-44.016663
 11
50.791645
 21
-44.016663
  0
LINE
  8
0
 10
14.791656
 20
-114.016632
 11
14.791656
 21
-14.016632
  0
LINE
  8
0
 10
49.291656
 20
-109.016640
 11
49.291656
 21
-103.016640
  0
LINE
  8
0
 10
49.291580
 20
-109.016647
 11
49.791580
 21
-108.516655
  0
LINE
  8
0
 10
49.791584
 20
-103.516571
 11
49.291584
 21
-103.016594
  0
LINE
  8
0
 10
50.791656
 20
-114.016640
 11
50.791656
 21
-14.016647
  0
LINE
  8
0
 10
48.791641
 20
-60.016663
 11
50.791641
 21
-60.016663
  0
LINE
  8
0
 10
48.791641
 20
-68.016663
 11
50.791641
 21
-68.016663
  0
LINE
  8
0
  6
CENTER
 62
     2
 10
16.442978
 20
-55.016663
 11
28.852617
 21
-55.016663
  0
LINE
  8
0
  6
CENTER
 62
     2
 10
41.491653
 20
-60.094532
 11
41.491653
 21
-39.403542
  0
LINE
  8
0
 10
37.241642
 20
-40.316666
 11
45.741642
 21
-40.316666
  0
LINE
  8
0
 10
37.241653
 20
-52.382725
 11
37.241653
 21
-42.316639
  0
LINE
  8
0
 10
45.741653
 20
-52.382736
 11
45.741653
 21
-42.316650
  0
LINE
  8
0
 10
37.241642
 20
-41.316666
 11
45.741642
 21
-41.316666
  0
LINE
  8
0
 10
37.241642
 20
-42.316666
 11
45.741642
 21
-42.316666
  0
LINE
  8
0
 10
37.241653
 20
-41.316639
 11
37.241653
 21
-40.316639
  0
LINE
  8
0
 10
45.741653
 20
-41.316650
 11
45.741653
 21
-40.316650
  0
LINE
  8
0
 10
38.241653
 20
-42.316639
 11
38.241653
 21
-41.316639
  0
LINE
  8
0
 10
44.741653
 20
-42.316643
 11
44.741653
 21
-41.316643
  0
LINE
  8
0
 10
39.201035
 20
-51.016663
 11
43.782246
 21
-51.016663
  0
LINE
  8
0
 10
39.201035
 20
-59.016663
 11
43.782242
 21
-59.016663
  0
LINE
  8
0
 10
39.201080
 20
-59.016602
 11
36.891678
 21
-55.016602
  0
LINE
  8
0
 10
46.091648
 20
-55.016628
 11
43.782246
 21
-51.016624
  0
LINE
  8
0
 10
43.782192
 20
-59.016586
 11
46.091599
 21
-55.016586
  0
LINE
  8
0
 10
36.891563
 20
-55.016575
 11
39.200966
 21
-51.016571
  0
LINE
  8
0
  6
CENTER
 62
     2
 10
22.791656
 20
-60.094532
 11
22.791656
 21
-39.403534
  0
LINE
  8
0
 10
18.541645
 20
-40.316666
 11
27.041645
 21
-40.316666
  0
LINE
  8
0
 10
18.541656
 20
-52.382721
 11
18.541656
 21
-42.316635
  0
LINE
  8
0
 10
27.041656
 20
-52.382725
 11
27.041656
 21
-42.316639
  0
LINE
  8
0
 10
18.541645
 20
-41.316666
 11
27.041645
 21
-41.316666
  0
LINE
  8
0
 10
18.541645
 20
-42.316666
 11
27.041645
 21
-42.316666
  0
LINE
  8
0
 10
18.541656
 20
-41.316635
 11
18.541656
 21
-40.316635
  0
LINE
  8
0
 10
27.041656
 20
-41.316639
 11
27.041656
 21
-40.316639
  0
LINE
  8
0
 10
19.541656
 20
-42.316635
 11
19.541656
 21
-41.316635
  0
LINE
  8
0
 10
26.041656
 20
-42.316635
 11
26.041656
 21
-41.316635
  0
LINE
  8
0
 10
20.501040
 20
-51.016663
 11
25.082247
 21
-51.016663
  0
LINE
  8
0
 10
20.501038
 20
-59.016663
 11
25.082245
 21
-59.016663
  0
LINE
  8
0
 10
20.501066
 20
-59.016621
 11
18.191662
 21
-55.016621
  0
LINE
  8
0
 10
27.391653
 20
-55.016586
 11
25.082262
 21
-51.016613
  0
LINE
  8
0
 10
25.082201
 20
-59.016636
 11
27.391600
 21
-55.016632
  0
LINE
  8
0
 10
18.191572
 20
-55.016594
 11
20.500977
 21
-51.016590
  0
LINE
  8
0
  6
CENTER
 62
     2
 10
34.994766
 20
-55.016663
 11
48.031158
 21
-55.016663
  0
LINE
  8
0
  6
CENTER
 62
     2
 10
47.314865
 20
-21.516663
 11
60.449966
 21
-21.516663
  0
LINE
  8
0
  6
CENTER
 62
     2
 10
47.314865
 20
-31.516663
 11
60.640335
 21
-31.516663
  0
LINE
  8
0
  6
CENTER
 62
     2
 10
47.314865
 20
-96.516663
 11
60.640335
 21
-96.516663
  0
LINE
  8
0
  6
CENTER
 62
     2
 10
47.314865
 20
-106.516663
 11
60.449966
 21
-106.516663
  0
LINE
  8
0
 10
32.791656
 20
-114.016632
 11
32.791656
 21
-14.016632
  0
LINE
  8
0
  6
CENTER
 62
     2
 10
18.268448
 20
-21.516663
 11
5.133347
 21
-21.516663
  0
LINE
  8
0
  6
CENTER
 62
     2
 10
18.268448
 20
-106.516663
 11
5.133347
 21
-106.516663
  0
LINE
  8
0
 10
-42.208351
 20
85.983330
 11
-42.208351
 21
92.983330
  0
LINE
  8
0
 10
-142.208344
 20
85.983345
 11
-142.208344
 21
92.983345
  0
LINE
  8
0
  6
CENTER
 62
     2
 10
-92.208344
 20
81.536148
 11
-92.208344
 21
157.187805
  0
LINE
  8
0
 10
-42.208351
 20
85.983337
 11
-142.208344
 21
85.983337
  0
LINE
  8
0
 10
-69.208336
 20
126.983337
 11
-115.208336
 21
126.983337
  0
LINE
  8
0
  6
CENTER
 62
     2
 10
-42.208344
 20
148.983337
 11
-142.208344
 21
148.983337
  0
LINE
  8
0
  6
CENTER
 62
     2
 10
-42.208340
 20
155.983337
 11
-142.208328
 21
155.983337
  0
LINE
  8
0
  6
CENTER
 62
     2
 10
-42.208351
 20
148.983337
 11
-42.208351
 21
155.983337
  0
LINE
  8
0
  6
CENTER
 62
     2
 10
-142.208344
 20
148.983337
 11
-142.208344
 21
155.983337
  0
LINE
  8
0
 10
-69.208344
 20
92.983337
 11
-69.208344
 21
126.983337
  0
LINE
  8
0
 10
-115.208344
 20
92.983337
 11
-115.208344
 21
126.983337
  0
LINE
  8
0
 10
-42.208351
 20
92.983337
 11
-74.208344
 21
92.983337
  0
LINE
  8
0
 10
-115.208344
 20
92.983337
 11
-142.208344
 21
92.983337
  0
LINE
  8
0
 10
-99.708344
 20
93.983337
 11
-99.708344
 21
119.983337
  0
LINE
  8
0
 10
-99.708336
 20
119.983337
 11
-115.208336
 21
119.983337
  0
LINE
  8
0
 10
-99.708344
 20
93.983337
 11
-115.208344
 21
93.983337
  0
LINE
  8
0
  6
CENTER
 62
     2
 10
-107.208344
 20
83.983932
 11
-107.208344
 21
150.064880
  0
LINE
  8
0
 10
-74.208344
 20
92.983337
 11
-74.208344
 21
126.983337
  0
LINE
  8
0
  6
CENTER
 62
     2
 10
-82.708344
 20
123.215591
 11
-82.708344
 21
155.983337
  0
LINE
  8
0
  6
CENTER
 62
     2
 10
-71.708344
 20
146.483337
 11
-71.708344
 21
148.983337
  0
LINE
  8
0
  6
CENTER
 62
     2
 10
-93.708344
 20
146.483337
 11
-93.708344
 21
148.983337
  0
LINE
  8
0
  6
CENTER
 62
     2
 10
-41.233341
 20
119.683342
 11
-71.271385
 21
119.683342
  0
LINE
  8
0
 10
-101.708344
 20
97.983337
 11
-112.708344
 21
97.983337
  0
LINE
  8
0
 10
-112.708344
 20
97.983337
 11
-112.708344
 21
99.983337
  0
LINE
  8
0
 10
-101.708344
 20
99.983337
 11
-112.708344
 21
99.983337
  0
LINE
  8
0
 10
-101.708344
 20
97.983337
 11
-101.708344
 21
99.983337
  0
LINE
  8
0
  6
CENTER
 62
     2
 10
-103.208336
 20
147.983337
 11
-111.208336
 21
147.983337
  0
LINE
  8
0
  6
CENTER
 62
     2
 10
-111.208344
 20
147.983337
 11
-111.208344
 21
148.983337
  0
LINE
  8
0
  6
CENTER
 62
     2
 10
-103.208344
 20
147.983337
 11
-103.208344
 21
148.983337
  0
LINE
  8
0
 10
-104.708344
 20
107.983337
 11
-109.708344
 21
107.983337
  0
LINE
  8
0
 10
-104.208344
 20
108.483337
 11
-110.208344
 21
108.483337
  0
LINE
  8
0
 62
     2
 10
-109.708344
 20
99.983337
 11
-109.708344
 21
116.383339
  0
LINE
  8
0
 10
-109.708313
 20
107.983330
 11
-110.208328
 21
108.483345
  0
LINE
  8
0
 10
-110.208344
 20
99.983337
 11
-110.208344
 21
116.383339
  0
LINE
  8
0
 10
-104.208344
 20
99.983337
 11
-104.208344
 21
116.383339
  0
LINE
  8
0
 62
     2
 10
-104.708344
 20
99.983337
 11
-104.708344
 21
116.383339
  0
LINE
  8
0
 10
-104.208328
 20
108.483322
 11
-104.708336
 21
107.983322
  0
LINE
  8
0
 10
-112.208344
 20
116.983337
 11
-112.208344
 21
119.383347
  0
LINE
  8
0
 10
-102.208344
 20
116.983337
 11
-102.208344
 21
119.383339
  0
LINE
  8
0
 10
-107.208344
 20
116.983337
 11
-107.208344
 21
119.383347
  0
LINE
  8
0
 10
-111.169106
 20
119.983353
 11
-112.208328
 21
119.383362
  0
LINE
  8
0
 10
-102.208351
 20
119.383354
 11
-103.247581
 21
119.983353
  0
LINE
  8
0
 10
-102.208336
 20
116.983353
 11
-103.247566
 21
116.383354
  0
LINE
  8
0
 10
-103.247566
 20
116.383339
 11
-111.169113
 21
116.383339
  0
LINE
  8
0
 10
-111.169121
 20
116.383377
 11
-112.208328
 21
116.983368
  0
LINE
  8
0
 10
-112.208344
 20
93.983337
 11
-112.208344
 21
97.983337
  0
LINE
  8
0
 10
-102.208344
 20
93.983337
 11
-102.208344
 21
97.983337
  0
LINE
  8
0
 10
-41.708351
 20
117.183334
 11
-41.708351
 21
122.183334
  0
LINE
  8
0
 10
-45.708351
 20
117.183334
 11
-45.708351
 21
122.183334
  0
LINE
  8
0
 10
-41.708317
 20
122.183342
 11
-45.708317
 21
122.183342
  0
LINE
  8
0
 10
-41.708317
 20
117.183342
 11
-45.708317
 21
117.183342
  0
LINE
  8
0
 10
-45.708317
 20
118.183342
 11
-48.708317
 21
118.183342
  0
LINE
  8
0
 10
-45.708317
 20
121.183342
 11
-48.708317
 21
121.183342
  0
LINE
  8
0
 10
-48.708317
 20
115.683342
 11
-51.208317
 21
115.683342
  0
LINE
  8
0
 10
-48.708317
 20
123.683342
 11
-51.208317
 21
123.683342
  0
LINE
  8
0
 10
-48.708351
 20
115.683334
 11
-48.708351
 21
123.683334
  0
LINE
  8
0
 10
-51.208351
 20
115.683334
 11
-51.208351
 21
123.683334
  0
LINE
  8
0
 10
-51.208317
 20
118.183342
 11
-53.908344
 21
118.183342
  0
LINE
  8
0
 10
-51.208317
 20
121.183342
 11
-53.908344
 21
121.183342
  0
LINE
  8
0
 10
-58.408348
 20
115.083336
 11
-58.408348
 21
124.283340
  0
LINE
  8
0
 10
-53.908348
 20
115.083336
 11
-53.908348
 21
124.283333
  0
LINE
  8
0
 10
-53.908344
 20
115.083344
 11
-58.408344
 21
115.083344
  0
LINE
  8
0
 10
-53.908340
 20
124.283340
 11
-58.408340
 21
124.283340
  0
LINE
  8
0
  6
CENTER
 62
     2
 10
-63.408348
 20
114.184143
 11
-63.408348
 21
125.457214
  0
LINE
  8
0
 10
-58.408310
 20
115.083313
 11
-58.808319
 21
114.683304
  0
LINE
  8
0
 10
-68.008293
 20
124.683281
 11
-68.408295
 21
124.283279
  0
LINE
  8
0
 10
-58.408295
 20
124.283432
 11
-58.808289
 21
124.683426
  0
LINE
  8
0
 10
-68.008316
 20
114.683372
 11
-68.408318
 21
115.083374
  0
LINE
  8
0
 10
-58.808353
 20
114.683342
 11
-68.008331
 21
114.683342
  0
LINE
  8
0
 10
-58.808334
 20
124.683342
 11
-68.008347
 21
124.683342
  0
LINE
  8
0
 10
-58.808342
 20
114.683334
 11
-58.808342
 21
117.723755
  0
LINE
  8
0
 10
-68.008354
 20
114.683334
 11
-68.008354
 21
117.723755
  0
LINE
  8
0
 10
-58.808342
 20
121.642914
 11
-58.808342
 21
124.683334
  0
LINE
  8
0
 10
-68.008354
 20
121.642914
 11
-68.008354
 21
124.683334
  0
LINE
  8
0
 10
-68.408348
 20
115.083359
 11
-68.408348
 21
124.283295
  0
LINE
  8
0
 10
-68.408340
 20
115.683342
 11
-69.208344
 21
115.683342
  0
LINE
  8
0
 10
-68.408340
 20
123.683342
 11
-69.208344
 21
123.683342
  0
LINE
  8
0
 10
-59.408348
 20
118.683334
 11
-59.408348
 21
120.683334
  0
LINE
  8
0
 10
-67.408348
 20
118.683334
 11
-67.408348
 21
120.683334
  0
LINE
  8
0
  6
CENTER
 62
     2
 10
-41.002964
 20
100.983337
 11
-71.271393
 21
100.983337
  0
LINE
  8
0
 10
-41.708351
 20
98.483330
 11
-41.708351
 21
103.483330
  0
LINE
  8
0
 10
-45.708351
 20
98.483330
 11
-45.708351
 21
103.483330
  0
LINE
  8
0
 10
-41.708317
 20
103.483337
 11
-45.708317
 21
103.483337
  0
LINE
  8
0
 10
-41.708321
 20
98.483337
 11
-45.708321
 21
98.483337
  0
LINE
  8
0
 10
-45.708317
 20
99.483337
 11
-48.708317
 21
99.483337
  0
LINE
  8
0
 10
-45.708317
 20
102.483337
 11
-48.708317
 21
102.483337
  0
LINE
  8
0
 10
-48.708321
 20
96.983337
 11
-51.208321
 21
96.983337
  0
LINE
  8
0
 10
-48.708317
 20
104.983337
 11
-51.208317
 21
104.983337
  0
LINE
  8
0
 10
-48.708351
 20
96.983330
 11
-48.708351
 21
104.983330
  0
LINE
  8
0
 10
-51.208351
 20
96.983330
 11
-51.208351
 21
104.983330
  0
LINE
  8
0
 10
-51.208317
 20
99.483337
 11
-53.908344
 21
99.483337
  0
LINE
  8
0
 10
-51.208317
 20
102.483337
 11
-53.908344
 21
102.483337
  0
LINE
  8
0
 10
-58.408348
 20
96.383331
 11
-58.408348
 21
105.583328
  0
LINE
  8
0
 10
-53.908348
 20
96.383331
 11
-53.908348
 21
105.583328
  0
LINE
  8
0
 10
-53.908348
 20
96.383339
 11
-58.408348
 21
96.383339
  0
LINE
  8
0
 10
-53.908344
 20
105.583336
 11
-58.408344
 21
105.583336
  0
LINE
  8
0
  6
CENTER
 62
     2
 10
-63.408348
 20
95.484131
 11
-63.408348
 21
106.757217
  0
LINE
  8
0
 10
-58.408314
 20
96.383308
 11
-58.808331
 21
95.983299
  0
LINE
  8
0
 10
-68.008286
 20
105.983299
 11
-68.408287
 21
105.583290
  0
LINE
  8
0
 10
-58.408306
 20
105.583397
 11
-58.808300
 21
105.983383
  0
LINE
  8
0
 10
-68.008293
 20
95.983360
 11
-68.408310
 21
96.383377
  0
LINE
  8
0
 10
-58.808357
 20
95.983337
 11
-68.008339
 21
95.983337
  0
LINE
  8
0
 10
-58.808338
 20
105.983337
 11
-68.008347
 21
105.983337
  0
LINE
  8
0
 10
-58.808342
 20
95.983330
 11
-58.808342
 21
99.023750
  0
LINE
  8
0
 10
-68.008354
 20
95.983337
 11
-68.008354
 21
99.023758
  0
LINE
  8
0
 10
-58.808342
 20
102.942909
 11
-58.808342
 21
105.983330
  0
LINE
  8
0
 10
-68.008354
 20
102.942917
 11
-68.008354
 21
105.983337
  0
LINE
  8
0
 10
-68.408348
 20
96.383347
 11
-68.408348
 21
105.583298
  0
LINE
  8
0
 10
-68.408348
 20
96.983337
 11
-69.208351
 21
96.983337
  0
LINE
  8
0
 10
-68.408340
 20
104.983337
 11
-69.208344
 21
104.983337
  0
LINE
  8
0
 10
-59.408348
 20
99.983330
 11
-59.408348
 21
101.983330
  0
LINE
  8
0
 10
-67.408348
 20
99.983337
 11
-67.408348
 21
101.983337
  0
LINE
  8
0
 10
-64.208344
 20
94.983337
 11
-64.208344
 21
95.983337
  0
LINE
  8
0
 10
-64.208344
 20
124.683334
 11
-64.208344
 21
125.983337
  0
LINE
  8
0
 10
-64.208344
 20
94.983337
 11
-69.208344
 21
94.983337
  0
LINE
  8
0
 10
-64.208336
 20
125.983337
 11
-69.208336
 21
125.983337
  0
LINE
  8
0
 10
-58.208344
 20
105.583328
 11
-58.208344
 21
115.083336
  0
LINE
  8
0
 10
-115.208344
 20
94.983337
 11
-120.208344
 21
94.983337
  0
LINE
  8
0
 10
-115.208336
 20
125.983337
 11
-120.208336
 21
125.983337
  0
LINE
  8
0
 10
-120.208336
 20
117.983337
 11
-126.208344
 21
117.983337
  0
LINE
  8
0
 10
-120.208344
 20
95.983337
 11
-126.208344
 21
95.983337
  0
LINE
  8
0
 10
-126.208344
 20
95.983345
 11
-126.208344
 21
104.233345
  0
LINE
  8
0
 10
-120.208344
 20
94.983337
 11
-120.208344
 21
125.983337
  0
LINE
  8
0
 10
-120.208344
 20
102.483337
 11
-125.208344
 21
102.483337
  0
LINE
  8
0
 10
-120.208344
 20
111.483337
 11
-125.208344
 21
111.483337
  0
LINE
  8
0
 10
-125.208344
 20
102.483345
 11
-125.208344
 21
111.483345
  0
LINE
  8
0
  6
CENTER
 62
     2
 10
-124.852295
 20
112.983337
 11
-141.833588
 21
112.983337
  0
LINE
  8
0
  6
CENTER
 62
     2
 10
-124.962555
 20
100.483337
 11
-127.829529
 21
100.483337
  0
LINE
  8
0
  6
CENTER
 62
     2
 10
-117.807770
 20
106.983337
 11
-129.598297
 21
106.983337
  0
LINE
  8
0
 10
-129.008347
 20
104.233345
 11
-129.008347
 21
109.733345
  0
LINE
  8
0
 10
-126.008339
 20
109.733337
 11
-129.008331
 21
109.733337
  0
LINE
  8
0
 10
-126.008339
 20
104.233337
 11
-129.008331
 21
104.233337
  0
LINE
  8
0
 10
-126.208344
 20
109.733345
 11
-126.208344
 21
117.983337
  0
LINE
  8
0
 10
-126.008347
 20
103.983345
 11
-126.008347
 21
109.983345
  0
LINE
  8
0
 10
-125.208344
 20
103.983337
 11
-126.008339
 21
103.983337
  0
LINE
  8
0
 10
-125.208344
 20
109.983337
 11
-126.008339
 21
109.983337
  0
LINE
  8
0
 10
-126.208344
 20
110.483337
 11
-128.208344
 21
110.483337
  0
LINE
  8
0
 10
-126.208344
 20
115.483337
 11
-128.208344
 21
115.483337
  0
LINE
  8
0
 10
-128.208344
 20
110.483345
 11
-128.208344
 21
115.483345
  0
LINE
  8
0
 10
-128.208344
 20
110.983337
 11
-140.289825
 21
110.983337
  0
LINE
  8
0
 10
-128.208344
 20
114.983337
 11
-140.289825
 21
114.983337
  0
LINE
  8
0
 10
-111.208344
 20
127.983337
 11
-111.208344
 21
128.983337
  0
LINE
  8
0
 10
-42.208344
 20
128.983337
 11
-142.208344
 21
128.983337
  0
LINE
  8
0
 10
-42.208344
 20
135.983337
 11
-142.208344
 21
135.983337
  0
LINE
  8
0
 10
-42.208351
 20
128.983337
 11
-42.208351
 21
135.983337
  0
LINE
  8
0
 10
-142.208344
 20
128.983337
 11
-142.208344
 21
135.983337
  0
LINE
  8
0
 10
-103.208336
 20
127.983337
 11
-111.208336
 21
127.983337
  0
LINE
  8
0
 10
-103.208344
 20
127.983337
 11
-103.208344
 21
128.983337
  0
LINE
  8
0
 10
-71.708344
 20
126.983337
 11
-71.708344
 21
128.983337
  0
LINE
  8
0
 10
-93.708344
 20
126.983337
 11
-93.708344
 21
128.983337
  0
LINE
  8
0
 10
-97.208344
 20
126.983337
 11
-97.208344
 21
128.983337
  0
LINE
  8
0
  6
CENTER
 62
     2
 10
-110.208344
 20
135.983337
 11
-110.208344
 21
147.983337
  0
LINE
  8
0
  6
CENTER
 62
     2
 10
-109.708344
 20
135.983337
 11
-109.708344
 21
147.983337
  0
LINE
  8
0
  6
CENTER
 62
     2
 10
-104.708344
 20
135.983337
 11
-104.708344
 21
147.983337
  0
LINE
  8
0
  6
CENTER
 62
     2
 10
-104.208344
 20
135.983337
 11
-104.208344
 21
147.983337
  0
LINE
  8
0
  6
CENTER
 62
     2
 10
-71.708336
 20
146.483337
 11
-93.708336
 21
146.483337
  0
LINE
  8
0
  6
CENTER
 62
     2
 10
-88.208344
 20
135.983337
 11
-88.208344
 21
146.483337
  0
LINE
  8
0
  6
CENTER
 62
     2
 10
-96.208344
 20
135.983337
 11
-96.208344
 21
148.983337
  0
LINE
  8
0
  6
CENTER
 62
     2
 10
-87.708344
 20
135.983337
 11
-87.708344
 21
146.483337
  0
LINE
  8
0
  6
CENTER
 62
     2
 10
-77.708344
 20
135.983337
 11
-77.708344
 21
146.483337
  0
LINE
  8
0
 10
-104.208344
 20
126.983337
 11
-104.208344
 21
127.983337
  0
LINE
  8
0
 62
     2
 10
-104.708344
 20
126.983337
 11
-104.708344
 21
127.983337
  0
LINE
  8
0
 62
     2
 10
-109.708344
 20
126.983337
 11
-109.708344
 21
127.983337
  0
LINE
  8
0
 10
-110.208344
 20
126.983337
 11
-110.208344
 21
127.983337
  0
LINE
  8
0
 10
-107.208344
 20
97.983337
 11
-107.208344
 21
93.983337
  0
LINE
  8
0
 10
-89.208344
 20
89.983337
 11
-95.208344
 21
89.983337
  0
LINE
  8
0
 10
-89.208344
 20
85.983337
 11
-89.208344
 21
89.983337
  0
LINE
  8
0
 10
-95.208344
 20
85.983337
 11
-95.208344
 21
89.983337
  0
LINE
  8
0
  6
CENTER
 62
     2
 10
-49.708351
 20
83.627586
 11
-49.708351
 21
95.309006
  0
LINE
  8
0
  6
CENTER
 62
     2
 10
-134.708344
 20
83.465347
 11
-134.708344
 21
95.309006
  0
LINE
  8
0
  6
CENTER
 62
     2
 10
-124.708344
 20
138.465347
 11
-124.708344
 21
126.783928
  0
LINE
  8
0
  6
CENTER
 62
     2
 10
-59.708351
 20
138.465347
 11
-59.708351
 21
126.946167
  0
LINE
  8
0
  6
CENTER
 62
     2
 10
-134.708344
 20
138.465347
 11
-134.708344
 21
126.783928
  0
LINE
  8
0
  6
CENTER
 62
     2
 10
-49.708351
 20
138.465347
 11
-49.708351
 21
126.946167
  0
LINE
  8
0
 10
117.791656
 20
-14.016663
 11
117.791656
 21
-114.016663
  0
LINE
  8
0
 10
217.791656
 20
-14.016663
 11
217.791656
 21
-114.016663
  0
LINE
  8
0
 10
117.791656
 20
-14.016663
 11
217.791656
 21
-14.016663
  0
LINE
  8
0
  6
CENTER
 62
     2
 10
113.856064
 20
-64.016663
 11
221.819458
 21
-64.016663
  0
LINE
  8
0
 10
117.791656
 20
-114.016663
 11
217.791656
 21
-114.016663
  0
LINE
  8
0
  6
CENTER
 62
     2
 10
167.791656
 20
-9.599548
 11
167.791656
 21
-117.433571
  0
LINE
  8
0
  6
CENTER
 62
     2
 10
125.291656
 20
-15.083282
 11
125.291656
 21
-27.263092
  0
LINE
  8
0
  6
CENTER
 62
     2
 10
210.291656
 20
-15.590775
 11
210.291656
 21
-27.263092
  0
LINE
  8
0
  6
CENTER
 62
     2
 10
118.580780
 20
-106.516663
 11
131.268097
 21
-106.516663
  0
LINE
  8
0
  6
CENTER
 62
     2
 10
119.257446
 20
-21.516663
 11
130.929764
 21
-21.516663
  0
LINE
  8
0
  6
CENTER
 62
     2
 10
204.177795
 20
-106.516663
 11
216.695938
 21
-106.516663
  0
LINE
  8
0
  6
CENTER
 62
     2
 10
210.291656
 20
-99.868179
 11
210.291656
 21
-113.029266
  0
LINE
  8
0
  6
CENTER
 62
     2
 10
125.291656
 20
-100.003632
 11
125.291656
 21
-113.029266
  0
LINE
  8
0
  6
CENTER
 62
     2
 10
203.839478
 20
-21.516663
 11
216.695938
 21
-21.516663
  0
LINE
  8
0
  6
CENTER
 62
     2
 10
129.745621
 20
-96.516663
 11
140.233795
 21
-96.516663
  0
LINE
  8
0
  6
CENTER
 62
     2
 10
130.422272
 20
-31.516663
 11
140.572113
 21
-31.516663
  0
LINE
  8
0
  6
CENTER
 62
     2
 10
135.291656
 20
-26.417267
 11
135.291656
 21
-36.397949
  0
LINE
  8
0
  6
CENTER
 62
     2
 10
200.291656
 20
-26.078949
 11
200.291656
 21
-36.567108
  0
LINE
  8
0
  6
CENTER
 62
     2
 10
195.212097
 20
-96.516663
 11
206.038605
 21
-96.516663
  0
LINE
  8
0
  6
CENTER
 62
     2
 10
195.381271
 20
-31.516663
 11
205.531113
 21
-31.516663
  0
LINE
  8
0
  6
CENTER
 62
     2
 10
200.291656
 20
-91.376266
 11
200.291656
 21
-102.202759
  0
LINE
  8
0
  6
CENTER
 62
     2
 10
135.291656
 20
-92.222076
 11
135.291656
 21
-101.526108
  0
CIRCLE
  8
0
 10
-134.708344
 20
-106.516663
 40
2.000000
  0
CIRCLE
  8
0
 10
-49.708344
 20
-106.516663
 40
2.000000
  0
CIRCLE
  8
0
 10
-49.708344
 20
-21.516663
 40
2.000000
  0
CIRCLE
  8
0
 10
-134.708344
 20
-21.516663
 40
2.000000
  0
CIRCLE
  8
0
 62
     2
 10
-134.708344
 20
-106.516663
 40
2.500000
  0
CIRCLE
  8
0
 62
     2
 10
-49.708344
 20
-106.516663
 40
2.500000
  0
CIRCLE
  8
0
 62
     2
 10
-134.708344
 20
-21.516663
 40
2.500000
  0
CIRCLE
  8
0
 62
     2
 10
-49.708344
 20
-21.516663
 40
2.500000
  0
CIRCLE
  8
0
 10
-92.208344
 20
-106.516663
 40
3.000000
  0
ARC
  8
0
 10
-92.208344
 20
-22.516663
 40
3.000000
 50
179.999969
 51
359.999939
  0
ARC
  8
0
 10
-249.700012
 20
-34.516640
 40
5.508329
 50
153.008423
 51
206.991470
  0
ARC
  8
0
 10
-228.208344
 20
-44.016647
 40
8.000000
 50
270.000000
 51
0.000000
  0
ARC
  8
0
 10
-238.208344
 20
-44.016644
 40
8.000000
 50
180.000031
 51
270.000000
  0
CIRCLE
  8
0
 10
-224.008362
 20
-56.516647
 40
2.800000
  0
CIRCLE
  8
0
 10
-249.408356
 20
-56.516640
 40
2.800000
  0
CIRCLE
  8
0
 10
-233.208344
 20
-56.516644
 40
2.750000
  0
CIRCLE
  8
0
 10
-239.208344
 20
-64.016640
 40
2.500000
  0
CIRCLE
  8
0
 10
-226.708344
 20
-63.516644
 40
1.000000
  0
CIRCLE
  8
0
 10
-239.208344
 20
-64.016640
 40
2.000000
  0
ARC
  8
0
 10
-248.116669
 20
-19.516640
 40
5.508325
 50
333.008514
 51
26.991558
  0
ARC
  8
0
 10
-248.116669
 20
-24.516644
 40
5.508325
 50
333.008514
 51
26.991558
  0
ARC
  8
0
 10
-240.700012
 20
-19.516640
 40
5.508329
 50
153.008423
 51
206.991455
  0
ARC
  8
0
 10
-240.700012
 20
-24.516644
 40
5.508329
 50
153.008423
 51
206.991455
  0
ARC
  8
0
 10
-249.700012
 20
-39.516640
 40
5.508329
 50
153.008423
 51
206.991470
  0
CIRCLE
  8
0
 10
22.791641
 20
-55.016632
 40
2.500000
  0
ARC
  8
0
 10
23.791622
 20
-84.016632
 40
8.000000
 50
90.000031
 51
180.000000
  0
ARC
  8
0
 10
33.791622
 20
-84.016647
 40
8.000000
 50
0.000055
 51
90.000031
  0
CIRCLE
  8
0
 10
19.591614
 20
-71.516632
 40
2.800000
  0
CIRCLE
  8
0
 10
44.991623
 20
-71.516647
 40
2.800000
  0
CIRCLE
  8
0
 10
34.791626
 20
-71.516647
 40
2.750000
  0
CIRCLE
  8
0
 10
40.791641
 20
-64.016647
 40
2.500000
  0
CIRCLE
  8
0
 10
28.291641
 20
-64.516632
 40
1.000000
  0
CIRCLE
  8
0
 10
40.791641
 20
-64.016647
 40
2.000000
  0
ARC
  8
0
 10
43.699944
 20
-108.516632
 40
5.508329
 50
153.008514
 51
206.991577
  0
ARC
  8
0
 10
43.699944
 20
-103.516632
 40
5.508329
 50
153.008514
 51
206.991577
  0
ARC
  8
0
 10
36.283287
 20
-108.516632
 40
5.508329
 50
333.008423
 51
26.991398
  0
ARC
  8
0
 10
36.283287
 20
-103.516632
 40
5.508329
 50
333.008423
 51
26.991398
  0
ARC
  8
0
 10
45.283291
 20
-88.516640
 40
5.508329
 50
333.008423
 51
26.991398
  0
ARC
  8
0
 10
45.283291
 20
-93.516640
 40
5.508329
 50
333.008423
 51
26.991398
  0
CIRCLE
  8
0
 10
41.491623
 20
-55.016644
 40
5.000000
  0
CIRCLE
  8
0
 10
41.491623
 20
-55.016644
 40
2.500000
  0
CIRCLE
  8
0
 10
41.491623
 20
-55.016644
 40
3.500000
  0
CIRCLE
  8
0
 10
22.791641
 20
-55.016632
 40
3.500000
  0
CIRCLE
  8
0
 10
22.791641
 20
-55.016632
 40
5.000000
  0
ARC
  8
0
 10
-109.708344
 20
114.475006
 40
5.508329
 50
63.008423
 51
116.991402
  0
ARC
  8
0
 10
-104.708336
 20
114.475006
 40
5.508329
 50
63.008423
 51
116.991402
  0
ARC
  8
0
 10
-109.708336
 20
121.891678
 40
5.508333
 50
243.008530
 51
296.991577
  0
ARC
  8
0
 10
-104.708336
 20
121.891670
 40
5.508333
 50
243.008530
 51
296.991577
  0
CIRCLE
  8
0
 10
-63.408340
 20
119.683334
 40
5.000000
  0
CIRCLE
  8
0
 10
-63.408340
 20
119.683334
 40
2.000000
  0
ARC
  8
0
 10
-63.408340
 20
118.683334
 40
4.000000
 50
180.000000
 51
0.000000
  0
ARC
  8
0
 10
-63.408340
 20
120.683334
 40
4.000000
 50
0.000000
 51
180.000000
  0
CIRCLE
  8
0
 10
-63.408348
 20
100.983330
 40
5.000000
  0
CIRCLE
  8
0
 10
-63.408348
 20
100.983330
 40
2.000000
  0
ARC
  8
0
 10
-63.408348
 20
99.983330
 40
4.000000
 50
180.000000
 51
0.000000
  0
ARC
  8
0
 10
-63.408348
 20
101.983330
 40
4.000000
 50
0.000000
 51
180.000000
  0
CIRCLE
  8
0
 10
125.291656
 20
-21.516663
 40
2.750000
  0
CIRCLE
  8
0
 10
210.291656
 20
-21.516663
 40
2.750000
  0
CIRCLE
  8
0
 10
210.291656
 20
-106.516663
 40
2.750000
  0
CIRCLE
  8
0
 10
125.291656
 20
-106.516663
 40
2.750000
  0
CIRCLE
  8
0
  6
DASHED
 62
     2
 10
125.291656
 20
-21.516663
 40
4.750000
  0
CIRCLE
  8
0
  6
DASHED
 62
     2
 10
210.291656
 20
-21.516663
 40
4.750000
  0
CIRCLE
  8
0
  6
DASHED
 62
     2
 10
210.291656
 20
-106.516663
 40
4.750000
  0
CIRCLE
  8
0
  6
DASHED
 62
     2
 10
125.291656
 20
-106.516663
 40
4.750000
  0
CIRCLE
  8
0
 10
135.291656
 20
-31.516663
 40
2.250000
  0
CIRCLE
  8
0
 10
200.291656
 20
-31.516663
 40
2.250000
  0
CIRCLE
  8
0
 10
200.291656
 20
-96.516663
 40
2.250000
  0
CIRCLE
  8
0
 10
135.291656
 20
-96.516663
 40
2.250000
  0
CIRCLE
  8
0
  6
DASHED
 62
     2
 10
135.291656
 20
-31.516663
 40
4.000000
  0
CIRCLE
  8
0
  6
DASHED
 62
     2
 10
200.291656
 20
-31.516663
 40
4.000000
  0
CIRCLE
  8
0
  6
DASHED
 62
     2
 10
200.291656
 20
-96.516663
 40
4.000000
  0
CIRCLE
  8
0
  6
DASHED
 62
     2
 10
135.291656
 20
-96.516663
 40
4.000000
  0
CIRCLE
  8
0
 10
167.791656
 20
-21.516663
 40
2.000000
  0
CIRCLE
  8
0
 10
167.791656
 20
-106.516663
 40
2.000000
  0
CIRCLE
  8
0
 10
125.291656
 20
-64.016663
 40
2.000000
  0
CIRCLE
  8
0
 10
167.791656
 20
-96.516663
 40
2.000000
  0
CIRCLE
  8
0
 10
167.791656
 20
-31.516663
 40
2.000000
  0
CIRCLE
  8
0
 10
210.291656
 20
-64.016663
 40
2.000000
  0
CIRCLE
  8
0
 10
135.291656
 20
-64.016663
 40
2.000000
  0
CIRCLE
  8
0
 10
200.291656
 20
-64.016663
 40
2.000000
  0
POLYLINE
  8
0
 62
     2
 66
     1
  0
VERTEX
  8
0
 10
-140.289825
 20
110.983345
  0
VERTEX
  8
0
 10
-140.069290
 20
111.789108
  0
VERTEX
  8
0
 10
-139.738495
 20
112.560989
  0
VERTEX
  8
0
 10
-139.628220
 20
113.002060
  0
VERTEX
  8
0
 10
-140.069290
 20
113.443130
  0
VERTEX
  8
0
 10
-139.848755
 20
114.104736
  0
VERTEX
  8
0
 10
-139.959030
 20
114.876617
  0
VERTEX
  8
0
 10
-140.400101
 20
114.986885
  0
SEQEND
  0
TEXT
  8
0
 10
174.200241
 20
180.830002
 40
6.300000
  1
DATE: Apr ,1994
 50
0.000000
 41
1.052632
 51
0.000000
  7
STANDARD
  0
TEXT
  8
0
 10
167.564667
 20
-192.100006
 40
9.000000
  1
KOGANEI CORP.
 50
0.000000
 41
1.052632
 51
0.000000
  7
STANDARD
  0
TEXT
  8
0
 10
-269.149719
 20
180.830002
 40
6.300000
  1
HANDLING MODULE
 50
0.000000
 41
1.052632
 51
0.000000
  7
STANDARD
  0
TEXT
  8
0
 10
-270.049713
 20
155.830002
 40
6.300000
  1
MODEL:SHM41L-MS
 50
0.000000
 41
1.052632
 51
0.000000
  7
STANDARD
  0
ENDSEC
  0
EOF
