  0
SECTION
  2
HEADER
  0
ENDSEC
  0
SECTION
  2
TABLES
  0
TABLE
  2
LTYPE
 70
     4
  0
LTYPE
  2
CONTINUOUS
 70
    64
  3
Solid line
 72
    65
 73
     0
 40
0.000000
  0
LTYPE
  2
DASHED
 70
    64
  3
__ __ __ __ __ __ __ __ __ __ __ __ __ __ __
 72
    65
 73
     2
 40
3.500000
 49
2.000000
 49
-1.500000
  0
LTYPE
  2
CENTER
 70
    64
  3
____ _ ____ _ ____ _ ____ _ ____ _ ____ _ ____
 72
    65
 73
     4
 40
17.500000
 49
13.000000
 49
-1.500000
 49
1.500000
 49
-1.500000
  0
LTYPE
  2
PHANTOM
 70
    64
  3
_____ _ _ _____ _ _ _____ _ _ _____ _ _ ____  
 72
    65
 73
     6
 40
15.500000
 49
8.000000
 49
-1.500000
 49
1.500000
 49
-1.500000
 49
1.500000
 49
-1.500000
  0
LTYPE
  2
DASHED1
 70
    64
  3
__ __ __ __ __ __ __ __ __ __ __ __ __ __ __
 72
    65
 73
     2
 40
1.500000
 49
1.000000
 49
-0.500000
  0
LTYPE
  2
DASHED2
 70
    64
  3
__ __ __ __ __ __ __ __ __ __ __ __ __ __ __
 72
    65
 73
     2
 40
3.500000
 49
2.500000
 49
-1.000000
  0
LTYPE
  2
DASHED3
 70
    64
  3
__ __ __ __ __ __ __ __ __ __ __ __ __ __ __
 72
    65
 73
     2
 40
6.000000
 49
4.000000
 49
-2.000000
  0
LTYPE
  2
DASHED4
 70
    64
  3
__ __ __ __ __ __ __ __ __ __ __ __ __ __ __
 72
    65
 73
     2
 40
12.000000
 49
10.000000
 49
-2.000000
  0
LTYPE
  2
DASHED5
 70
    64
  3
__ __ __ __ __ __ __ __ __ __ __ __ __ __ __
 72
    65
 73
     2
 40
17.000000
 49
15.000000
 49
-2.000000
  0
LTYPE
  2
DASHED6
 70
    64
  3
__ __ __ __ __ __ __ __ __ __ __ __ __ __ __
 72
    65
 73
     2
 40
29.000000
 49
27.000000
 49
-2.000000
  0
LTYPE
  2
PHANTOM1
 70
    64
  3
_____ _ _ _____ _ _ _____ _ _ _____ _ _ ____  
 72
    65
 73
     6
 40
31.000000
 49
25.000000
 49
-1.500000
 49
1.000000
 49
-1.000000
 49
1.000000
 49
-1.500000
  0
LTYPE
  2
PHANTOM2
 70
    64
  3
_____ _ _ _____ _ _ _____ _ _ _____ _ _ ____  
 72
    65
 73
     6
 40
36.000000
 49
27.000000
 49
-1.500000
 49
2.500000
 49
-1.000000
 49
2.500000
 49
-1.500000
  0
LTYPE
  2
PHANTOM3
 70
    64
  3
_____ _ _ _____ _ _ _____ _ _ _____ _ _ ____  
 72
    65
 73
     6
 40
78.000000
 49
64.000000
 49
-2.000000
 49
4.000000
 49
-2.000000
 49
4.000000
 49
-2.000000
  0
LTYPE
  2
CENTER1
 70
    64
  3
____ _ ____ _ ____ _ ____ _ ____ _ ____ _ ____
 72
    65
 73
     4
 40
19.000000
 49
14.000000
 49
-1.000000
 49
3.000000
 49
-1.000000
  0
LTYPE
  2
CENTER2
 70
    64
  3
____ _ ____ _ ____ _ ____ _ ____ _ ____ _ ____
 72
    65
 73
     4
 40
28.500000
 49
25.000000
 49
-1.000000
 49
1.500000
 49
-1.000000
  0
LTYPE
  2
CENTER3
 70
    64
  3
____ _ ____ _ ____ _ ____ _ ____ _ ____ _ ____
 72
    65
 73
     4
 40
31.500000
 49
27.000000
 49
-1.000000
 49
2.500000
 49
-1.000000
  0
LTYPE
  2
CENTER4
 70
    64
  3
____ _ ____ _ ____ _ ____ _ ____ _ ____ _ ____
 72
    65
 73
     4
 40
50.000000
 49
45.000000
 49
-1.000000
 49
3.000000
 49
-1.000000
  0
LTYPE
  2
CENTER5
 70
    64
  3
____ _ ____ _ ____ _ ____ _ ____ _ ____ _ ____
 72
    65
 73
     4
 40
100.000000
 49
92.000000
 49
-2.000000
 49
4.000000
 49
-2.000000
  0
LTYPE
  2
SBK1
 70
    64
  3
______ _ _ _ ______ _ _ _ ______ _ _ _ _____  
 72
    65
 73
     8
 40
60.500000
 49
45.000000
 49
-2.000000
 49
2.500000
 49
-2.000000
 49
2.500000
 49
-2.000000
 49
2.500000
 49
-2.000000
  0
LTYPE
  2
SBK2
 70
    64
  3
______ _ _ _ ______ _ _ _ ______ _ _ _ _____  
 72
    65
 73
     8
 40
84.000000
 49
64.000000
 49
-2.000000
 49
4.000000
 49
-2.000000
 49
4.000000
 49
-2.000000
 49
4.000000
 49
-2.000000
  0
LTYPE
  2
STCH
 70
    64
  3
__ __ __ __ __ __ __ __ __ __ __ __ __ __ __
 72
    65
 73
     2
 40
3.000000
 49
1.000000
 49
-2.000000
  0
LTYPE
  2
MTCH
 70
    64
  3
_____ _ _ _____ _ _ _____ _ _ _____ _ _ ____  
 72
    65
 73
     6
 40
80.000000
 49
66.000000
 49
-2.000000
 49
4.000000
 49
-2.000000
 49
4.000000
 49
-2.000000
  0
ENDTAB
  0
TABLE
  2
LAYER
 70
     1
  0
LAYER
  2
0
 70
     0
 62
     7
  6
CONTINUOUS
  0
ENDTAB
  0
TABLE
  2
STYLE
 70
     1
  0
STYLE
  2
STANDARD
 70
     0
 40
0.000000
 41
1.000000
 50
0.000000
 71
     0
 42
0.200000
  3
txt
  4
BIGFONT
  0
ENDTAB
  0
TABLE
  2
VIEW
 70
     0
  0
ENDTAB
  0
ENDSEC
  0
SECTION
  2
BLOCKS
  0
ENDSEC
  0
SECTION
  2
ENTITIES
  0
LINE
  8
0
 10
-281.250000
 20
195.500000
 11
282.099976
 21
195.500000
  0
LINE
  8
0
 10
-281.250000
 20
195.500000
 11
-281.250000
 21
-195.000000
  0
LINE
  8
0
 10
282.099976
 20
195.500000
 11
282.099976
 21
-195.000000
  0
LINE
  8
0
 10
-281.250000
 20
-195.000000
 11
282.099976
 21
-195.000000
  0
LINE
  8
0
 10
162.099976
 20
-175.000000
 11
162.099976
 21
-195.000000
  0
LINE
  8
0
 10
162.099976
 20
-175.000000
 11
282.099976
 21
-175.000000
  0
LINE
  8
0
 10
162.099976
 20
175.500000
 11
282.099976
 21
175.500000
  0
LINE
  8
0
 10
-281.250000
 20
175.500000
 11
-161.250000
 21
175.500000
  0
LINE
  8
0
 10
162.099976
 20
195.500000
 11
162.099976
 21
175.500000
  0
LINE
  8
0
 10
-161.250000
 20
195.500000
 11
-161.250000
 21
175.500000
  0
LINE
  8
0
 10
-30.000000
 20
40.000000
 11
-30.000000
 21
3.999992
  0
LINE
  8
0
 10
-110.000000
 20
40.000000
 11
-110.000000
 21
11.999992
  0
LINE
  8
0
 10
-109.999969
 20
39.999985
 11
-29.999969
 21
39.999985
  0
LINE
  8
0
 10
-50.000000
 20
3.999992
 11
-50.000000
 21
-12.000008
  0
LINE
  8
0
 10
-90.000000
 20
11.999992
 11
-90.000000
 21
-4.000008
  0
LINE
  8
0
  6
DASHED
 10
-96.499969
 20
-4.000000
 11
-89.999969
 21
-4.000000
  0
LINE
  8
0
  6
DASHED
 10
-49.999969
 20
4.000000
 11
-43.499969
 21
4.000000
  0
LINE
  8
0
 62
     4
 10
-100.999969
 20
-3.000000
 11
-89.999969
 21
-3.000000
  0
LINE
  8
0
 62
     4
 10
-100.999969
 20
4.000000
 11
-94.999985
 21
4.000000
  0
LINE
  8
0
 10
-96.499969
 20
12.000000
 11
-89.999969
 21
12.000000
  0
LINE
  8
0
 10
-95.000000
 20
11.999992
 11
-95.000000
 21
9.499992
  0
LINE
  8
0
 62
     4
 10
-101.000000
 20
3.999992
 11
-101.000000
 21
-3.000008
  0
LINE
  8
0
 10
-49.999969
 20
-12.000000
 11
-43.499969
 21
-12.000000
  0
LINE
  8
0
 10
-49.999969
 20
4.000000
 11
-29.999969
 21
4.000000
  0
LINE
  8
0
 10
-49.999969
 20
-12.000000
 11
-44.999985
 21
-12.000000
  0
LINE
  8
0
 10
-109.999969
 20
12.000000
 11
-89.999969
 21
12.000000
  0
LINE
  8
0
 10
-109.999969
 20
-4.000000
 11
-89.999969
 21
-4.000000
  0
LINE
  8
0
 62
     4
 10
-103.000000
 20
2.999992
 11
-103.000000
 21
-2.000008
  0
LINE
  8
0
 62
     4
 10
-102.999969
 20
-2.000000
 11
-100.999969
 21
-2.000000
  0
LINE
  8
0
 62
     4
 10
-102.999969
 20
3.000000
 11
-100.999969
 21
3.000000
  0
LINE
  8
0
 62
     4
 10
-116.831772
 20
2.199982
 11
-102.999969
 21
2.199982
  0
LINE
  8
0
 62
     4
 10
-118.800186
 20
-1.200012
 11
-102.999985
 21
-1.200012
  0
LINE
  8
0
 62
     4
 10
-100.000000
 20
11.999992
 11
-100.000000
 21
3.999992
  0
LINE
  8
0
 62
     4
 10
-93.000000
 20
9.499992
 11
-93.000000
 21
6.499992
  0
LINE
  8
0
 10
-94.999969
 20
9.500000
 11
-93.899994
 21
9.500000
  0
LINE
  8
0
 10
-94.999969
 20
6.500000
 11
-93.899994
 21
6.500000
  0
LINE
  8
0
 10
-93.900009
 20
10.899986
 11
-93.900009
 21
9.499992
  0
LINE
  8
0
 10
-91.100006
 20
10.899986
 11
-91.100006
 21
5.099998
  0
LINE
  8
0
 10
-93.899963
 20
10.899994
 11
-91.099960
 21
10.899994
  0
LINE
  8
0
 10
-93.899963
 20
5.099991
 11
-91.099960
 21
5.099991
  0
LINE
  8
0
 62
     4
 10
-49.999969
 20
3.000000
 11
-38.999969
 21
3.000000
  0
LINE
  8
0
 10
-49.999969
 20
-4.000000
 11
-44.999985
 21
-4.000000
  0
LINE
  8
0
 10
-45.000000
 20
-4.000008
 11
-45.000000
 21
-6.500008
  0
LINE
  8
0
 62
     4
 10
-40.000000
 20
-4.000008
 11
-40.000000
 21
-12.000008
  0
LINE
  8
0
 62
     4
 10
-39.000000
 20
2.999992
 11
-39.000000
 21
-4.000008
  0
LINE
  8
0
 10
-93.900009
 20
6.499992
 11
-93.900009
 21
5.099998
  0
LINE
  8
0
 10
-48.899994
 20
-5.100014
 11
-48.899994
 21
-10.900002
  0
LINE
  8
0
 10
-46.100006
 20
-5.100014
 11
-46.100006
 21
-6.500008
  0
LINE
  8
0
 10
-48.899963
 20
-5.100006
 11
-46.099960
 21
-5.100006
  0
LINE
  8
0
 10
-48.899963
 20
-10.900009
 11
-46.099960
 21
-10.900009
  0
LINE
  8
0
 10
-46.100006
 20
-9.500008
 11
-46.100006
 21
-10.900002
  0
LINE
  8
0
 62
     4
 10
-46.999969
 20
-6.500000
 11
-46.099991
 21
-6.500000
  0
LINE
  8
0
 62
     4
 10
-46.999969
 20
-9.500000
 11
-46.099991
 21
-9.500000
  0
LINE
  8
0
 62
     4
 10
-47.000000
 20
-6.500008
 11
-47.000000
 21
-9.500008
  0
LINE
  8
0
 62
     4
 10
-103.799988
 20
5.199982
 11
-99.999969
 21
5.199982
  0
LINE
  8
0
 62
     4
 10
-103.799988
 20
10.799988
 11
-99.999969
 21
10.799988
  0
LINE
  8
0
 62
     4
 10
-39.999969
 20
-5.200012
 11
-36.199982
 21
-5.200012
  0
LINE
  8
0
 62
     4
 10
-39.999969
 20
-10.800018
 11
-36.199982
 21
-10.800018
  0
LINE
  8
0
 10
-45.000000
 20
-9.500008
 11
-45.000000
 21
-12.000008
  0
LINE
  8
0
 62
     4
 10
-48.200012
 20
-5.100014
 11
-48.200012
 21
-10.900002
  0
LINE
  8
0
 62
     4
 10
-48.899963
 20
-10.800018
 11
-47.199966
 21
-10.800018
  0
LINE
  8
0
 62
     4
 10
-48.899963
 20
-5.200012
 11
-47.199966
 21
-5.200012
  0
LINE
  8
0
 62
     4
 10
-91.800003
 20
10.899986
 11
-91.800003
 21
5.099998
  0
LINE
  8
0
 62
     4
 10
-38.999969
 20
-3.000000
 11
-36.999969
 21
-3.000000
  0
LINE
  8
0
 62
     4
 10
-38.999969
 20
2.000000
 11
-36.999969
 21
2.000000
  0
LINE
  8
0
 62
     4
 10
-36.999985
 20
1.199982
 11
-21.199799
 21
1.199982
  0
LINE
  8
0
 62
     4
 10
-36.999985
 20
-2.200012
 11
-23.168228
 21
-2.200012
  0
LINE
  8
0
 62
     4
 10
-37.000000
 20
1.999992
 11
-37.000000
 21
-3.000008
  0
LINE
  8
0
  6
CENTER
 62
     2
 10
-106.108521
 20
32.499985
 11
-99.072144
 21
32.499985
  0
LINE
  8
0
  6
CENTER
 62
     2
 10
-106.108505
 20
-32.500023
 11
-99.164032
 21
-32.500023
  0
LINE
  8
0
  6
CENTER
 62
     2
 10
-37.500000
 20
35.787399
 11
-37.500000
 21
29.055771
  0
LINE
  8
0
  6
CENTER
 62
     2
 10
-102.500000
 20
36.191299
 11
-102.500000
 21
29.382843
  0
LINE
  8
0
  6
CENTER
 62
     2
 10
-41.002655
 20
32.499985
 11
-34.136383
 21
32.499985
  0
LINE
  8
0
  6
CENTER
 62
     2
 10
-40.464142
 20
-32.500023
 11
-34.540283
 21
-32.500023
  0
LINE
  8
0
  6
CENTER
 62
     2
 10
-73.853065
 20
-32.500023
 11
-66.313622
 21
-32.500023
  0
LINE
  8
0
  6
CENTER
 62
     2
 10
-70.000000
 20
42.216888
 11
-70.000000
 21
-41.541168
  0
LINE
  8
0
  6
CENTER
 62
     2
 10
-121.539322
 20
0.000000
 11
-15.436493
 21
0.000000
  0
LINE
  8
0
 10
-110.000000
 20
-4.000008
 11
-110.000000
 21
-40.000031
  0
LINE
  8
0
 10
-30.000000
 20
-12.000008
 11
-30.000000
 21
-40.000000
  0
LINE
  8
0
 10
-29.699982
 20
12.000000
 11
-29.699982
 21
4.000000
  0
LINE
  8
0
 10
-29.699966
 20
12.000000
 11
-29.999985
 21
12.000000
  0
LINE
  8
0
 10
-29.699966
 20
4.000000
 11
-29.999985
 21
4.000000
  0
LINE
  8
0
 10
-27.299973
 20
9.500000
 11
-29.699966
 21
9.500000
  0
LINE
  8
0
 10
-27.299973
 20
6.500000
 11
-29.699966
 21
6.500000
  0
LINE
  8
0
 10
-27.299988
 20
10.500000
 11
-27.299988
 21
5.500000
  0
LINE
  8
0
 10
-22.299973
 20
5.500000
 11
-27.299973
 21
5.500000
  0
LINE
  8
0
 10
-22.299973
 20
10.500000
 11
-27.299973
 21
10.500000
  0
LINE
  8
0
 10
-22.299988
 20
10.500000
 11
-22.299988
 21
5.500000
  0
LINE
  8
0
 62
     4
 10
-36.199997
 20
-5.200020
 11
-36.199997
 21
-10.800026
  0
LINE
  8
0
 62
     4
 10
-103.800003
 20
10.799980
 11
-103.800003
 21
5.199974
  0
LINE
  8
0
 62
     4
 10
-39.199997
 20
-5.200020
 11
-39.199997
 21
-10.800026
  0
LINE
  8
0
 62
     4
 10
-100.800003
 20
10.799980
 11
-100.800003
 21
5.199974
  0
LINE
  8
0
 10
-67.000000
 20
39.999985
 11
-67.000000
 21
31.500000
  0
LINE
  8
0
 10
-73.000000
 20
39.999985
 11
-73.000000
 21
31.499985
  0
LINE
  8
0
  6
CENTER
 62
     2
 10
-102.500000
 20
-36.500031
 11
-102.500000
 21
-28.500000
  0
LINE
  8
0
  6
CENTER
 62
     2
 10
-37.500000
 20
-36.500000
 11
-37.500000
 21
-28.500000
  0
LINE
  8
0
 10
-109.999985
 20
-40.000023
 11
-29.999969
 21
-40.000023
  0
LINE
  8
0
 62
     1
 10
-119.917213
 20
-3.129421
 11
-115.839851
 21
3.913300
  0
LINE
  8
0
 62
     1
 10
-20.491787
 20
2.422828
 11
-24.336231
 21
-4.217580
  0
LINE
  8
0
 10
-95.000000
 20
6.499992
 11
-95.000000
 21
3.999992
  0
LINE
  8
0
 62
     4
 10
-93.899994
 20
6.500000
 11
-92.999969
 21
6.500000
  0
LINE
  8
0
 62
     4
 10
-93.899994
 20
9.500000
 11
-92.999969
 21
9.500000
  0
LINE
  8
0
 10
-94.999985
 20
4.000000
 11
-89.999969
 21
4.000000
  0
LINE
  8
0
 10
-46.099991
 20
-6.500000
 11
-44.999969
 21
-6.500000
  0
LINE
  8
0
 10
-46.099991
 20
-9.500000
 11
-44.999969
 21
-9.500000
  0
LINE
  8
0
 10
-44.999985
 20
-12.000000
 11
-29.999969
 21
-12.000000
  0
LINE
  8
0
 62
     4
 10
-44.999985
 20
-4.000000
 11
-38.999969
 21
-4.000000
  0
LINE
  8
0
 10
-243.216766
 20
39.999969
 11
-243.216766
 21
-40.000031
  0
LINE
  8
0
 10
-183.216751
 20
-39.999992
 11
-235.416763
 21
-39.999992
  0
LINE
  8
0
  6
CENTER
 62
     2
 10
-180.244507
 20
0.000000
 11
-244.373062
 21
0.000000
  0
LINE
  8
0
 10
-183.216782
 20
40.000000
 11
-235.416779
 21
40.000000
  0
LINE
  8
0
 10
-216.816803
 20
35.500000
 11
-226.216782
 21
35.500000
  0
LINE
  8
0
 62
     2
 10
-216.316772
 20
35.000000
 11
-226.216782
 21
35.000000
  0
LINE
  8
0
 62
     2
 10
-216.316772
 20
31.000000
 11
-226.216782
 21
31.000000
  0
LINE
  8
0
 10
-216.816727
 20
30.500000
 11
-226.216782
 21
30.500000
  0
LINE
  8
0
 10
-216.316742
 20
34.999985
 11
-216.316742
 21
30.999985
  0
LINE
  8
0
 10
-236.812851
 20
26.600128
 11
-237.216995
 21
25.900129
  0
LINE
  8
0
 10
-237.216873
 20
18.099930
 11
-236.812729
 21
17.399933
  0
LINE
  8
0
 10
-235.416763
 20
17.399994
 11
-236.812622
 21
17.399994
  0
LINE
  8
0
 10
-235.416763
 20
19.700012
 11
-236.812622
 21
19.700012
  0
LINE
  8
0
 10
-235.416763
 20
24.299988
 11
-236.812622
 21
24.299988
  0
LINE
  8
0
 10
-235.416779
 20
26.599976
 11
-236.812637
 21
26.599976
  0
LINE
  8
0
 10
-237.216751
 20
-39.999992
 11
-243.216751
 21
-39.999992
  0
LINE
  8
0
 10
-237.216782
 20
40.000000
 11
-243.216782
 21
40.000000
  0
LINE
  8
0
 10
-229.416748
 20
39.999985
 11
-229.416748
 21
11.999985
  0
LINE
  8
0
 62
     4
 10
-205.216705
 20
3.999985
 11
-205.216705
 21
-3.000015
  0
LINE
  8
0
 62
     4
 10
-183.216705
 20
3.999985
 11
-183.216705
 21
-3.000015
  0
LINE
  8
0
 62
     4
 10
-188.716721
 20
12.500000
 11
-198.716721
 21
12.500000
  0
LINE
  8
0
 10
-188.478958
 20
6.350006
 11
-188.716721
 21
6.350006
  0
LINE
  8
0
 62
     4
 10
-198.716705
 20
12.499985
 11
-198.716705
 21
3.999985
  0
LINE
  8
0
 10
-199.716766
 20
19.500000
 11
-229.416763
 21
19.500000
  0
LINE
  8
0
 62
     2
 10
-199.716766
 20
20.000000
 11
-229.416763
 21
20.000000
  0
LINE
  8
0
 62
     2
 10
-199.716766
 20
24.000000
 11
-229.416763
 21
24.000000
  0
LINE
  8
0
 10
-199.716766
 20
24.500000
 11
-229.416763
 21
24.500000
  0
LINE
  8
0
 10
-237.216766
 20
39.999985
 11
-237.216766
 21
-40.000015
  0
LINE
  8
0
 10
-226.620926
 20
37.599976
 11
-229.012634
 21
37.599976
  0
LINE
  8
0
 10
-229.012878
 20
37.600044
 11
-229.417023
 21
36.900043
  0
LINE
  8
0
 10
-226.620926
 20
35.299988
 11
-229.012634
 21
35.299988
  0
LINE
  8
0
 10
-226.620926
 20
30.700012
 11
-229.012634
 21
30.700012
  0
LINE
  8
0
 10
-226.216919
 20
29.100086
 11
-226.621063
 21
28.400087
  0
LINE
  8
0
 10
-226.216766
 20
36.899979
 11
-226.216766
 21
29.099976
  0
LINE
  8
0
 10
-226.621017
 20
37.599957
 11
-226.216873
 21
36.899960
  0
LINE
  8
0
 10
-235.416748
 20
39.999985
 11
-235.416748
 21
-40.000015
  0
LINE
  8
0
 10
-183.216766
 20
9.649994
 11
-183.954575
 21
9.649994
  0
LINE
  8
0
 10
-183.216766
 20
6.350006
 11
-183.954575
 21
6.350006
  0
LINE
  8
0
 10
-183.216766
 20
-4.000000
 11
-189.216766
 21
-4.000000
  0
LINE
  8
0
 10
-235.416763
 20
-3.000000
 11
-237.216766
 21
-3.000000
  0
LINE
  8
0
 10
-235.416763
 20
3.000000
 11
-237.216766
 21
3.000000
  0
LINE
  8
0
 10
-197.716766
 20
16.500000
 11
-199.716766
 21
16.500000
  0
LINE
  8
0
 10
-197.716782
 20
27.500000
 11
-199.716782
 21
27.500000
  0
LINE
  8
0
 10
-199.716751
 20
27.499985
 11
-199.716751
 21
16.499985
  0
LINE
  8
0
 10
-216.816742
 20
35.499985
 11
-216.816742
 21
30.499985
  0
LINE
  8
0
 10
-216.816742
 20
35.499989
 11
-216.316757
 21
34.999996
  0
LINE
  8
0
 10
-216.316666
 20
30.999992
 11
-216.816666
 21
30.500004
  0
LINE
  8
0
 10
-205.216721
 20
4.000000
 11
-235.416763
 21
4.000000
  0
LINE
  8
0
 62
     4
 10
-183.216721
 20
-3.000000
 11
-205.216721
 21
-3.000000
  0
LINE
  8
0
 10
-183.216751
 20
39.999985
 11
-183.216751
 21
-40.000015
  0
LINE
  8
0
 10
-189.216751
 20
-4.000015
 11
-189.216751
 21
-40.000015
  0
LINE
  8
0
 10
-188.478958
 20
9.649994
 11
-188.716721
 21
9.649994
  0
LINE
  8
0
 10
-194.920914
 20
26.599991
 11
-197.716782
 21
26.599991
  0
LINE
  8
0
 10
-194.920868
 20
26.599970
 11
-194.516724
 21
25.899973
  0
LINE
  8
0
 10
-194.920914
 20
24.299988
 11
-197.716766
 21
24.299988
  0
LINE
  8
0
 10
-194.920914
 20
19.699997
 11
-197.716766
 21
19.699997
  0
LINE
  8
0
 10
-194.920914
 20
17.399994
 11
-197.716766
 21
17.399994
  0
LINE
  8
0
 10
-194.516922
 20
18.100025
 11
-194.921066
 21
17.400026
  0
LINE
  8
0
 10
-194.516739
 20
25.899979
 11
-194.516739
 21
18.099960
  0
LINE
  8
0
 10
-189.716766
 20
20.000000
 11
-190.716766
 21
20.000000
  0
LINE
  8
0
 10
-189.716766
 20
24.000000
 11
-190.716766
 21
24.000000
  0
LINE
  8
0
 10
-189.216751
 20
39.999985
 11
-189.216751
 21
12.499985
  0
LINE
  8
0
 62
     4
 10
-188.716705
 20
12.499985
 11
-188.716705
 21
3.999985
  0
LINE
  8
0
 10
-183.216766
 20
12.000000
 11
-188.716721
 21
12.000000
  0
LINE
  8
0
 10
-233.678955
 20
6.350006
 11
-235.416763
 21
6.350006
  0
LINE
  8
0
 10
-233.678955
 20
9.649994
 11
-235.416763
 21
9.649994
  0
LINE
  8
0
 10
-197.716751
 20
27.499985
 11
-197.716751
 21
16.499985
  0
LINE
  8
0
 10
-194.112732
 20
26.600073
 11
-194.516876
 21
25.900074
  0
LINE
  8
0
 10
-191.720917
 20
26.599991
 11
-194.112640
 21
26.599991
  0
LINE
  8
0
 10
-191.720886
 20
26.599958
 11
-191.316742
 21
25.899961
  0
LINE
  8
0
 10
-191.316742
 20
25.899979
 11
-191.316742
 21
18.099960
  0
LINE
  8
0
 10
-191.720901
 20
24.299988
 11
-194.112625
 21
24.299988
  0
LINE
  8
0
 10
-191.720901
 20
19.699997
 11
-194.112625
 21
19.699997
  0
LINE
  8
0
 10
-191.316925
 20
18.100042
 11
-191.721069
 21
17.400043
  0
LINE
  8
0
 10
-191.720901
 20
17.399994
 11
-194.112625
 21
17.399994
  0
LINE
  8
0
 10
-194.516739
 20
18.099968
 11
-194.112595
 21
17.399969
  0
LINE
  8
0
 10
-190.716751
 20
25.499985
 11
-190.716751
 21
18.499985
  0
LINE
  8
0
 10
-190.716782
 20
25.500000
 11
-191.316772
 21
25.500000
  0
LINE
  8
0
 10
-190.716766
 20
18.500000
 11
-191.316757
 21
18.500000
  0
LINE
  8
0
 10
-189.716751
 20
23.999985
 11
-189.716751
 21
19.999985
  0
LINE
  8
0
 10
-235.416763
 20
-15.000000
 11
-237.216766
 21
-15.000000
  0
LINE
  8
0
 10
-235.416763
 20
-34.999992
 11
-237.216766
 21
-34.999992
  0
LINE
  8
0
 10
-236.316772
 20
30.000000
 11
-237.216782
 21
30.000000
  0
LINE
  8
0
 10
-236.316788
 20
36.000000
 11
-237.216782
 21
36.000000
  0
LINE
  8
0
 10
-236.316742
 20
35.999985
 11
-236.316742
 21
29.999985
  0
LINE
  8
0
 10
-235.416779
 20
30.500000
 11
-236.316772
 21
30.500000
  0
LINE
  8
0
 10
-235.416779
 20
35.500000
 11
-236.316788
 21
35.500000
  0
LINE
  8
0
 62
     2
 10
-235.416779
 20
31.000000
 11
-236.316772
 21
31.000000
  0
LINE
  8
0
 62
     2
 10
-235.416779
 20
35.000000
 11
-236.316788
 21
35.000000
  0
LINE
  8
0
 62
     4
 10
-193.538406
 20
9.250000
 11
-194.995041
 21
9.250000
  0
LINE
  8
0
 62
     4
 10
-193.538422
 20
6.750000
 11
-194.995041
 21
6.750000
  0
LINE
  8
0
 62
     4
 10
-193.538467
 20
9.249958
 11
-192.816788
 21
7.999972
  0
LINE
  8
0
 62
     4
 10
-195.716751
 20
7.999977
 11
-194.995071
 21
6.749991
  0
LINE
  8
0
 62
     4
 10
-194.995209
 20
9.250056
 11
-195.716904
 21
8.000044
  0
LINE
  8
0
 62
     4
 10
-192.816864
 20
8.000039
 11
-193.538559
 21
6.750040
  0
LINE
  8
0
 10
-189.216751
 20
-34.999992
 11
-235.416763
 21
-34.999992
  0
LINE
  8
0
  6
CENTER
 62
     2
 10
-236.598022
 20
-32.499992
 11
-244.668320
 21
-32.499992
  0
LINE
  8
0
  6
CENTER
 62
     2
 10
-236.598022
 20
-24.999992
 11
-244.668320
 21
-24.999992
  0
LINE
  8
0
  6
CENTER
 62
     2
 10
-236.103928
 20
32.500000
 11
-244.338943
 21
32.500000
  0
LINE
  8
0
  6
CENTER
 62
     2
 10
-236.103912
 20
25.000000
 11
-244.338928
 21
25.000000
  0
LINE
  8
0
  6
CENTER
 62
     2
 10
-182.082306
 20
32.500000
 11
-190.152603
 21
32.500000
  0
LINE
  8
0
  6
CENTER
 62
     2
 10
-181.752884
 20
-32.499992
 11
-190.152588
 21
-32.499992
  0
LINE
  8
0
 10
-187.630997
 20
6.585771
 11
-184.802567
 21
9.414204
  0
LINE
  8
0
 10
-187.631027
 20
9.414150
 11
-184.802612
 21
6.585733
  0
LINE
  8
0
 10
-232.831070
 20
9.414159
 11
-230.002640
 21
6.585732
  0
LINE
  8
0
 10
-232.830963
 20
6.585783
 11
-230.002548
 21
9.414210
  0
LINE
  8
0
 62
     4
 10
-183.216721
 20
4.000000
 11
-205.216721
 21
4.000000
  0
LINE
  8
0
 10
-226.620926
 20
28.400009
 11
-229.012634
 21
28.400009
  0
LINE
  8
0
 10
-229.012909
 20
28.399824
 11
-229.417053
 21
29.099821
  0
LINE
  8
0
 10
-198.716721
 20
9.649994
 11
-229.154572
 21
9.649994
  0
LINE
  8
0
 10
-198.716721
 20
6.350006
 11
-229.154572
 21
6.350006
  0
LINE
  8
0
 10
-198.716721
 20
12.000000
 11
-235.416763
 21
12.000000
  0
LINE
  8
0
 10
103.972198
 20
-39.999985
 11
103.972198
 21
40.000023
  0
LINE
  8
0
 10
43.972229
 20
40.000015
 11
96.172241
 21
40.000015
  0
LINE
  8
0
  6
CENTER
 62
     2
 10
41.000000
 20
0.000015
 11
105.128571
 21
0.000015
  0
LINE
  8
0
 10
43.972260
 20
-39.999992
 11
96.172272
 21
-39.999992
  0
LINE
  8
0
 10
77.572296
 20
-35.499992
 11
86.972260
 21
-35.499992
  0
LINE
  8
0
 62
     2
 10
77.072250
 20
-34.999992
 11
86.972260
 21
-34.999992
  0
LINE
  8
0
 62
     2
 10
77.072250
 20
-30.999992
 11
86.972260
 21
-30.999992
  0
LINE
  8
0
 10
77.572205
 20
-30.499992
 11
86.972260
 21
-30.499992
  0
LINE
  8
0
 10
77.072220
 20
-34.999985
 11
77.072220
 21
-30.999985
  0
LINE
  8
0
 10
97.568573
 20
-26.600195
 11
97.972717
 21
-25.900196
  0
LINE
  8
0
 10
97.972191
 20
-18.100042
 11
97.568047
 21
-17.400047
  0
LINE
  8
0
 10
96.172272
 20
-17.399986
 11
97.568115
 21
-17.399986
  0
LINE
  8
0
 10
96.172272
 20
-19.700005
 11
97.568115
 21
-19.700005
  0
LINE
  8
0
 10
96.172272
 20
-24.299980
 11
97.568115
 21
-24.299980
  0
LINE
  8
0
 10
96.172272
 20
-26.599968
 11
97.568115
 21
-26.599968
  0
LINE
  8
0
 10
97.972229
 20
40.000015
 11
103.972229
 21
40.000015
  0
LINE
  8
0
 10
97.972260
 20
-39.999992
 11
103.972260
 21
-39.999992
  0
LINE
  8
0
 10
90.172211
 20
-39.999985
 11
90.172211
 21
-11.999992
  0
LINE
  8
0
 62
     4
 10
95.372192
 20
-3.999977
 11
95.372192
 21
3.000023
  0
LINE
  8
0
 62
     4
 10
73.372208
 20
-3.999992
 11
73.372208
 21
3.000008
  0
LINE
  8
0
 62
     4
 10
78.872253
 20
-12.499985
 11
88.872253
 21
-12.499985
  0
LINE
  8
0
 10
88.872253
 20
-9.649979
 11
89.910065
 21
-9.649979
  0
LINE
  8
0
 10
88.872253
 20
-6.349991
 11
89.910065
 21
-6.349991
  0
LINE
  8
0
 62
     4
 10
88.872192
 20
-12.499992
 11
88.872192
 21
-3.999992
  0
LINE
  8
0
 10
60.472260
 20
-19.499992
 11
90.172256
 21
-19.499992
  0
LINE
  8
0
 62
     2
 10
60.472260
 20
-19.999992
 11
90.172256
 21
-19.999992
  0
LINE
  8
0
 62
     2
 10
60.472260
 20
-23.999992
 11
90.172256
 21
-23.999992
  0
LINE
  8
0
 10
60.472260
 20
-24.499992
 11
90.172256
 21
-24.499992
  0
LINE
  8
0
 10
97.972198
 20
-39.999985
 11
97.972198
 21
40.000023
  0
LINE
  8
0
 10
87.376404
 20
-37.599968
 11
89.768112
 21
-37.599968
  0
LINE
  8
0
 10
89.768570
 20
-37.600201
 11
90.172714
 21
-36.900200
  0
LINE
  8
0
 10
87.376404
 20
-35.299980
 11
89.768112
 21
-35.299980
  0
LINE
  8
0
 10
87.376404
 20
-30.700005
 11
89.768112
 21
-30.700005
  0
LINE
  8
0
 10
86.972649
 20
-29.100212
 11
87.376793
 21
-28.400213
  0
LINE
  8
0
 10
86.972198
 20
-36.899979
 11
86.972198
 21
-29.099991
  0
LINE
  8
0
 10
87.376343
 20
-37.600025
 11
86.972198
 21
-36.900028
  0
LINE
  8
0
 10
96.172211
 20
-39.999985
 11
96.172211
 21
40.000023
  0
LINE
  8
0
 10
43.972260
 20
-9.649979
 11
44.710068
 21
-9.649979
  0
LINE
  8
0
 10
43.972260
 20
-6.349991
 11
44.710068
 21
-6.349991
  0
LINE
  8
0
 10
43.972260
 20
4.000015
 11
49.972260
 21
4.000015
  0
LINE
  8
0
 10
96.172272
 20
3.000015
 11
97.972260
 21
3.000015
  0
LINE
  8
0
 10
96.172272
 20
-2.999985
 11
97.972260
 21
-2.999985
  0
LINE
  8
0
 10
58.472260
 20
-16.499992
 11
60.472260
 21
-16.499992
  0
LINE
  8
0
 10
58.472260
 20
-27.499992
 11
60.472260
 21
-27.499992
  0
LINE
  8
0
 10
60.472214
 20
-27.499985
 11
60.472214
 21
-16.499985
  0
LINE
  8
0
 10
77.572220
 20
-35.499985
 11
77.572220
 21
-30.499985
  0
LINE
  8
0
 10
77.572258
 20
-35.499928
 11
77.072266
 21
-34.999939
  0
LINE
  8
0
 10
77.072144
 20
-30.999960
 11
77.572128
 21
-30.499969
  0
LINE
  8
0
 10
43.972260
 20
-3.999985
 11
73.372238
 21
-3.999985
  0
LINE
  8
0
 62
     4
 10
73.372253
 20
3.000015
 11
95.372253
 21
3.000015
  0
LINE
  8
0
 10
43.972260
 20
-11.999985
 11
78.872253
 21
-11.999985
  0
LINE
  8
0
 10
43.972214
 20
-39.999985
 11
43.972214
 21
40.000008
  0
LINE
  8
0
 10
49.972214
 20
4.000008
 11
49.972214
 21
40.000008
  0
LINE
  8
0
 10
49.234451
 20
-9.649979
 11
78.872253
 21
-9.649979
  0
LINE
  8
0
 10
49.234451
 20
-6.349991
 11
78.872253
 21
-6.349991
  0
LINE
  8
0
 10
55.676392
 20
-26.599998
 11
58.472260
 21
-26.599998
  0
LINE
  8
0
 10
55.676281
 20
-26.600048
 11
55.272137
 21
-25.900049
  0
LINE
  8
0
 10
55.676392
 20
-24.299980
 11
58.472260
 21
-24.299980
  0
LINE
  8
0
 10
55.676392
 20
-19.700005
 11
58.472260
 21
-19.700005
  0
LINE
  8
0
 10
55.676392
 20
-17.399986
 11
58.472260
 21
-17.399986
  0
LINE
  8
0
 10
55.272572
 20
-18.100115
 11
55.676716
 21
-17.400116
  0
LINE
  8
0
 10
55.272217
 20
-25.899979
 11
55.272217
 21
-18.099960
  0
LINE
  8
0
 10
50.472260
 20
-19.999992
 11
51.472260
 21
-19.999992
  0
LINE
  8
0
 10
50.472260
 20
-23.999992
 11
51.472260
 21
-23.999992
  0
LINE
  8
0
 10
49.972214
 20
-39.999985
 11
49.972214
 21
-11.999992
  0
LINE
  8
0
 10
51.072250
 20
22.699997
 11
60.872253
 21
22.699997
  0
LINE
  8
0
 10
51.722214
 20
10.438759
 11
51.722214
 21
20.200005
  0
LINE
  8
0
 10
60.222214
 20
10.438759
 11
60.222214
 21
20.200005
  0
LINE
  8
0
 10
51.072250
 20
21.199997
 11
60.872253
 21
21.199997
  0
LINE
  8
0
 10
51.722260
 20
20.199997
 11
60.222260
 21
20.199997
  0
LINE
  8
0
 10
51.072220
 20
21.200005
 11
51.072220
 21
22.700005
  0
LINE
  8
0
 10
51.722260
 20
19.199997
 11
60.222260
 21
19.199997
  0
LINE
  8
0
 10
52.722214
 20
20.200005
 11
52.722214
 21
21.200005
  0
LINE
  8
0
 10
59.222214
 20
20.200005
 11
59.222214
 21
21.200005
  0
LINE
  8
0
 10
84.772247
 20
22.699997
 11
94.572235
 21
22.699997
  0
LINE
  8
0
 10
85.422211
 20
10.438759
 11
85.422211
 21
20.200005
  0
LINE
  8
0
 10
93.922211
 20
10.438774
 11
93.922211
 21
20.200005
  0
LINE
  8
0
 10
84.772247
 20
21.199997
 11
94.572235
 21
21.199997
  0
LINE
  8
0
 10
85.422256
 20
20.199997
 11
93.922272
 21
20.199997
  0
LINE
  8
0
 10
84.772217
 20
21.200005
 11
84.772217
 21
22.700005
  0
LINE
  8
0
 10
94.572205
 20
21.200005
 11
94.572205
 21
22.700005
  0
LINE
  8
0
 10
85.422256
 20
19.199997
 11
93.922272
 21
19.199997
  0
LINE
  8
0
 10
86.422211
 20
20.200005
 11
86.422211
 21
21.200005
  0
LINE
  8
0
 10
92.922211
 20
20.200005
 11
92.922211
 21
21.200005
  0
LINE
  8
0
 62
     4
 10
78.872192
 20
-12.499992
 11
78.872192
 21
-3.999992
  0
LINE
  8
0
 10
88.872253
 20
-11.999985
 11
96.172272
 21
-11.999985
  0
LINE
  8
0
 10
94.434448
 20
-6.349991
 11
96.172272
 21
-6.349991
  0
LINE
  8
0
 10
94.434448
 20
-9.649979
 11
96.172272
 21
-9.649979
  0
LINE
  8
0
 10
58.472214
 20
-27.499985
 11
58.472214
 21
-16.499985
  0
LINE
  8
0
 10
54.868431
 20
-26.600176
 11
55.272575
 21
-25.900177
  0
LINE
  8
0
 10
52.476395
 20
-26.599998
 11
54.868103
 21
-26.599998
  0
LINE
  8
0
 10
52.476223
 20
-26.600058
 11
52.072079
 21
-25.900059
  0
LINE
  8
0
 10
52.072220
 20
-25.899979
 11
52.072220
 21
-18.099960
  0
LINE
  8
0
 10
52.476395
 20
-24.299980
 11
54.868103
 21
-24.299980
  0
LINE
  8
0
 10
52.476395
 20
-19.700005
 11
54.868118
 21
-19.700005
  0
LINE
  8
0
 10
52.072563
 20
-18.100130
 11
52.476707
 21
-17.400131
  0
LINE
  8
0
 10
52.476395
 20
-17.399986
 11
54.868103
 21
-17.399986
  0
LINE
  8
0
 10
55.272137
 20
-18.100039
 11
54.867992
 21
-17.400042
  0
LINE
  8
0
 10
51.472214
 20
-25.499985
 11
51.472214
 21
-18.499985
  0
LINE
  8
0
 10
51.472260
 20
-25.499992
 11
52.072250
 21
-25.499992
  0
LINE
  8
0
 10
51.472260
 20
-18.499992
 11
52.072250
 21
-18.499992
  0
LINE
  8
0
 10
50.472214
 20
-23.999985
 11
50.472214
 21
-19.999985
  0
LINE
  8
0
 10
96.172272
 20
15.000015
 11
97.972260
 21
15.000015
  0
LINE
  8
0
 10
96.172241
 20
35.000015
 11
97.972260
 21
35.000015
  0
LINE
  8
0
 10
97.072266
 20
-29.999992
 11
97.972260
 21
-29.999992
  0
LINE
  8
0
 10
97.072266
 20
-35.999992
 11
97.972260
 21
-35.999992
  0
LINE
  8
0
 10
97.072205
 20
-35.999985
 11
97.072205
 21
-29.999985
  0
LINE
  8
0
 10
96.172272
 20
-30.499992
 11
97.072266
 21
-30.499992
  0
LINE
  8
0
 10
96.172272
 20
-35.499992
 11
97.072266
 21
-35.499992
  0
LINE
  8
0
 62
     2
 10
96.172272
 20
-30.999992
 11
97.072266
 21
-30.999992
  0
LINE
  8
0
 62
     2
 10
96.172272
 20
-34.999992
 11
97.072266
 21
-34.999992
  0
LINE
  8
0
 62
     4
 10
83.693939
 20
-9.249985
 11
85.150574
 21
-9.249985
  0
LINE
  8
0
 62
     4
 10
83.693939
 20
-6.749985
 11
85.150558
 21
-6.749985
  0
LINE
  8
0
 62
     4
 10
83.693871
 20
-9.250049
 11
82.972183
 21
-8.000050
  0
LINE
  8
0
 62
     4
 10
85.872162
 20
-8.000068
 11
85.150467
 21
-6.750056
  0
LINE
  8
0
 62
     4
 10
85.150902
 20
-9.250166
 11
85.872589
 21
-8.000167
  0
LINE
  8
0
 62
     4
 10
82.972588
 20
-8.000164
 11
83.694275
 21
-6.750165
  0
LINE
  8
0
 10
60.872223
 20
21.200005
 11
60.872223
 21
22.700005
  0
LINE
  8
0
 10
49.972229
 20
35.000015
 11
96.172241
 21
35.000015
  0
LINE
  8
0
  6
CENTER
 62
     2
 10
97.353485
 20
32.500015
 11
105.423798
 21
32.500015
  0
LINE
  8
0
  6
CENTER
 62
     2
 10
97.353516
 20
25.000015
 11
105.423798
 21
25.000015
  0
LINE
  8
0
  6
CENTER
 62
     2
 10
96.859406
 20
-32.499992
 11
105.094421
 21
-32.499992
  0
LINE
  8
0
  6
CENTER
 62
     2
 10
96.859406
 20
-24.999992
 11
105.094421
 21
-24.999992
  0
LINE
  8
0
  6
CENTER
 62
     2
 10
42.837769
 20
-32.499992
 11
50.908081
 21
-32.499992
  0
LINE
  8
0
  6
CENTER
 62
     2
 10
42.508362
 20
32.500015
 11
50.908066
 21
32.500015
  0
LINE
  8
0
 10
48.386505
 20
-6.585831
 11
45.558079
 21
-9.414258
  0
LINE
  8
0
 10
48.386467
 20
-9.414228
 11
45.558041
 21
-6.585802
  0
LINE
  8
0
 10
93.586494
 20
-9.414208
 11
90.758064
 21
-6.585782
  0
LINE
  8
0
 10
93.586510
 20
-6.585810
 11
90.758087
 21
-9.414238
  0
LINE
  8
0
 62
     4
 10
73.372238
 20
-3.999985
 11
95.372223
 21
-3.999985
  0
LINE
  8
0
 10
95.372223
 20
-3.999985
 11
96.172272
 21
-3.999985
  0
LINE
  8
0
 10
87.376404
 20
-28.400017
 11
89.768112
 21
-28.400017
  0
LINE
  8
0
 10
89.768234
 20
-28.399931
 11
90.172379
 21
-29.099930
  0
LINE
  8
0
 10
-30.000000
 20
99.959969
 11
-30.000000
 21
105.959969
  0
LINE
  8
0
 10
-110.000015
 20
99.959900
 11
-110.000015
 21
105.959900
  0
LINE
  8
0
 10
-30.000015
 20
99.959930
 11
-110.000015
 21
99.959930
  0
LINE
  8
0
 10
-30.000015
 20
105.959930
 11
-55.000015
 21
105.959930
  0
LINE
  8
0
 10
-95.000015
 20
105.959915
 11
-95.000015
 21
152.159912
  0
LINE
  8
0
 10
-74.500046
 20
146.159943
 11
-90.000015
 21
146.159943
  0
LINE
  8
0
 10
-74.500008
 20
105.959930
 11
-74.500008
 21
146.159927
  0
LINE
  8
0
 62
     4
 10
-101.000015
 20
105.959915
 11
-101.000015
 21
108.159912
  0
LINE
  8
0
  6
CENTER
 62
     2
 10
-70.000008
 20
97.110825
 11
-70.000008
 21
165.855301
  0
LINE
  8
0
 10
-45.000000
 20
105.959961
 11
-45.000000
 21
108.059967
  0
LINE
  8
0
 10
-79.500038
 20
133.059937
 11
-83.500038
 21
133.059937
  0
LINE
  8
0
 10
-79.000008
 20
116.459930
 11
-79.000008
 21
131.059937
  0
LINE
  8
0
 10
-84.000008
 20
116.459923
 11
-84.000008
 21
131.059937
  0
LINE
  8
0
 10
-76.900009
 20
152.159927
 11
-76.900009
 21
153.555786
  0
LINE
  8
0
 10
-76.900002
 20
153.555923
 11
-77.599998
 21
153.960068
  0
LINE
  8
0
 10
-85.400040
 20
153.959930
 11
-86.100037
 21
153.555786
  0
LINE
  8
0
 10
-86.100006
 20
152.159927
 11
-86.100006
 21
153.555786
  0
LINE
  8
0
 62
     4
 10
-101.000031
 20
121.959930
 11
-95.000031
 21
121.959930
  0
LINE
  8
0
 62
     4
 10
-103.000031
 20
119.459930
 11
-101.000031
 21
119.459930
  0
LINE
  8
0
 62
     4
 10
-103.000031
 20
114.459930
 11
-101.000031
 21
114.459930
  0
LINE
  8
0
 62
     4
 10
-113.362015
 20
115.259933
 11
-103.000031
 21
115.259933
  0
LINE
  8
0
 62
     4
 10
-115.912018
 20
118.659943
 11
-103.000031
 21
118.659943
  0
LINE
  8
0
 62
     4
 10
-103.000015
 20
114.459908
 11
-103.000015
 21
119.459908
  0
LINE
  8
0
 10
-50.000000
 20
105.959953
 11
-50.000000
 21
152.159958
  0
LINE
  8
0
 10
-45.000046
 20
152.159943
 11
-95.000053
 21
152.159943
  0
LINE
  8
0
 10
-79.000038
 20
133.559937
 11
-84.000038
 21
133.559937
  0
LINE
  8
0
 10
-79.500008
 20
133.059906
 11
-79.000008
 21
133.559906
  0
LINE
  8
0
 10
-83.500023
 20
133.059937
 11
-84.000023
 21
133.559937
  0
LINE
  8
0
 62
     2
 10
-79.500008
 20
116.459930
 11
-79.500008
 21
131.059937
  0
LINE
  8
0
 62
     2
 10
-83.500008
 20
116.459923
 11
-83.500008
 21
131.059937
  0
LINE
  8
0
 10
-74.500015
 20
105.959930
 11
-110.000015
 21
105.959930
  0
LINE
  8
0
 10
-36.700027
 20
117.859955
 11
-48.200043
 21
117.859955
  0
LINE
  8
0
 10
-36.700012
 20
149.359970
 11
-36.700012
 21
139.559967
  0
LINE
  8
0
 10
-32.700012
 20
148.459961
 11
-32.700012
 21
140.459976
  0
LINE
  8
0
 10
-32.700058
 20
148.459946
 11
-36.700058
 21
148.459946
  0
LINE
  8
0
 10
-32.700043
 20
140.459946
 11
-36.700043
 21
140.459946
  0
LINE
  8
0
 10
-36.700043
 20
139.559952
 11
-48.200058
 21
139.559952
  0
LINE
  8
0
 10
-90.000015
 20
105.959915
 11
-90.000015
 21
152.159927
  0
LINE
  8
0
 62
     4
 10
-100.000031
 20
115.959930
 11
-95.000031
 21
115.959930
  0
LINE
  8
0
 62
     4
 10
-100.000015
 20
105.959915
 11
-100.000015
 21
115.959908
  0
LINE
  8
0
 62
     4
 10
-103.800018
 20
113.759933
 11
-100.115234
 21
113.759933
  0
LINE
  8
0
 62
     4
 10
-103.800011
 20
108.159943
 11
-100.115227
 21
108.159943
  0
LINE
  8
0
 62
     4
 10
-101.000015
 20
113.759903
 11
-101.000015
 21
121.959908
  0
LINE
  8
0
 62
     4
 10
-100.800018
 20
108.159912
 11
-100.800018
 21
113.759903
  0
LINE
  8
0
 62
     4
 10
-103.800018
 20
108.159912
 11
-103.800018
 21
113.759903
  0
LINE
  8
0
 10
-48.200012
 20
149.359955
 11
-48.200012
 21
139.559952
  0
LINE
  8
0
 10
-48.200058
 20
148.459946
 11
-50.000046
 21
148.459946
  0
LINE
  8
0
 10
-48.200058
 20
140.459946
 11
-50.000046
 21
140.459946
  0
LINE
  8
0
 10
-48.200027
 20
108.959946
 11
-50.000015
 21
108.959946
  0
LINE
  8
0
 10
-48.200012
 20
117.859962
 11
-48.200012
 21
108.059959
  0
LINE
  8
0
 10
-48.200043
 20
116.959946
 11
-50.000031
 21
116.959946
  0
LINE
  8
0
 10
-36.700012
 20
117.859970
 11
-36.700012
 21
108.059967
  0
LINE
  8
0
 10
-36.700027
 20
108.059952
 11
-48.200027
 21
108.059952
  0
LINE
  8
0
 10
-36.700058
 20
149.359940
 11
-48.200058
 21
149.359940
  0
LINE
  8
0
 10
-39.000000
 20
129.359955
 11
-39.000000
 21
139.559967
  0
LINE
  8
0
 10
-39.000000
 20
149.359970
 11
-39.000000
 21
151.359955
  0
LINE
  8
0
 10
-87.000008
 20
114.459923
 11
-87.000008
 21
116.459923
  0
LINE
  8
0
 10
-76.000008
 20
114.459930
 11
-76.000008
 21
116.459930
  0
LINE
  8
0
 10
-76.000023
 20
116.459930
 11
-87.000023
 21
116.459930
  0
LINE
  8
0
 10
-76.900017
 20
111.664070
 11
-76.900017
 21
114.459930
  0
LINE
  8
0
 10
-76.899994
 20
111.664032
 11
-77.599991
 21
111.259888
  0
LINE
  8
0
 10
-79.200020
 20
111.664070
 11
-79.200020
 21
114.459930
  0
LINE
  8
0
 10
-83.800011
 20
111.664062
 11
-83.800011
 21
114.459923
  0
LINE
  8
0
 10
-86.100014
 20
111.664062
 11
-86.100014
 21
114.459923
  0
LINE
  8
0
 10
-85.400024
 20
111.260017
 11
-86.100021
 21
111.664162
  0
LINE
  8
0
 10
-77.600021
 20
111.259933
 11
-85.400024
 21
111.259933
  0
LINE
  8
0
 10
-83.500008
 20
106.459923
 11
-83.500008
 21
107.459923
  0
LINE
  8
0
 10
-79.500008
 20
106.459930
 11
-79.500008
 21
107.459930
  0
LINE
  8
0
 10
-76.000023
 20
114.459930
 11
-87.000023
 21
114.459930
  0
LINE
  8
0
 10
-76.900009
 20
110.855858
 11
-77.599991
 21
111.259995
  0
LINE
  8
0
 10
-76.900017
 20
108.464066
 11
-76.900017
 21
110.855789
  0
LINE
  8
0
 10
-76.899963
 20
108.464020
 11
-77.599960
 21
108.059875
  0
LINE
  8
0
 10
-77.600021
 20
108.059937
 11
-85.400024
 21
108.059937
  0
LINE
  8
0
 10
-79.200020
 20
108.464066
 11
-79.200020
 21
110.855782
  0
LINE
  8
0
 10
-83.800011
 20
108.464066
 11
-83.800011
 21
110.855782
  0
LINE
  8
0
 10
-85.400024
 20
108.059990
 11
-86.100014
 21
108.464127
  0
LINE
  8
0
 10
-86.100014
 20
108.464066
 11
-86.100014
 21
110.855774
  0
LINE
  8
0
 10
-85.400017
 20
111.259880
 11
-86.100029
 21
110.855728
  0
LINE
  8
0
 10
-78.000015
 20
107.459930
 11
-85.000015
 21
107.459930
  0
LINE
  8
0
 10
-78.000008
 20
107.459930
 11
-78.000008
 21
108.059921
  0
LINE
  8
0
 10
-85.000008
 20
107.459923
 11
-85.000008
 21
108.059921
  0
LINE
  8
0
 10
-79.500015
 20
106.459930
 11
-83.500015
 21
106.459930
  0
LINE
  8
0
 10
-32.700012
 20
116.959976
 11
-32.700012
 21
108.959976
  0
LINE
  8
0
 10
-32.700027
 20
116.959946
 11
-36.700027
 21
116.959946
  0
LINE
  8
0
 10
-32.700027
 20
108.959946
 11
-36.700027
 21
108.959946
  0
LINE
  8
0
 10
-31.700012
 20
116.959976
 11
-31.700012
 21
108.959976
  0
LINE
  8
0
 10
-29.700012
 20
116.959976
 11
-29.700012
 21
108.959976
  0
LINE
  8
0
 10
-29.700027
 20
116.959946
 11
-31.700027
 21
116.959946
  0
LINE
  8
0
 10
-29.700027
 20
108.959946
 11
-31.700027
 21
108.959946
  0
LINE
  8
0
 10
-31.700027
 20
110.459946
 11
-32.700027
 21
110.459946
  0
LINE
  8
0
 10
-31.700027
 20
115.459946
 11
-32.700027
 21
115.459946
  0
LINE
  8
0
 10
-27.300018
 20
114.459946
 11
-29.700027
 21
114.459946
  0
LINE
  8
0
 10
-27.300018
 20
111.459946
 11
-29.700027
 21
111.459946
  0
LINE
  8
0
 10
-27.300018
 20
115.459976
 11
-27.300018
 21
110.459976
  0
LINE
  8
0
 10
-22.300034
 20
110.459946
 11
-27.300018
 21
110.459946
  0
LINE
  8
0
 10
-22.300034
 20
115.459946
 11
-27.300018
 21
115.459946
  0
LINE
  8
0
 10
-22.300018
 20
115.459984
 11
-22.300018
 21
110.459984
  0
LINE
  8
0
 10
-31.700012
 20
148.459976
 11
-31.700012
 21
140.459976
  0
LINE
  8
0
 10
-29.700012
 20
148.459976
 11
-29.700012
 21
140.459976
  0
LINE
  8
0
 10
-29.700058
 20
148.459946
 11
-31.700058
 21
148.459946
  0
LINE
  8
0
 10
-29.700043
 20
140.459946
 11
-31.700043
 21
140.459946
  0
LINE
  8
0
 10
-31.700043
 20
141.959946
 11
-32.700043
 21
141.959946
  0
LINE
  8
0
 10
-31.700043
 20
146.959946
 11
-32.700043
 21
146.959946
  0
LINE
  8
0
 10
-27.300049
 20
145.959946
 11
-29.700043
 21
145.959946
  0
LINE
  8
0
 10
-27.300049
 20
142.959946
 11
-29.700043
 21
142.959946
  0
LINE
  8
0
 10
-27.300018
 20
146.959976
 11
-27.300018
 21
141.959976
  0
LINE
  8
0
 10
-22.300049
 20
141.959946
 11
-27.300049
 21
141.959946
  0
LINE
  8
0
 10
-22.300049
 20
146.959946
 11
-27.300049
 21
146.959946
  0
LINE
  8
0
 10
-22.300018
 20
146.959976
 11
-22.300018
 21
141.959991
  0
LINE
  8
0
 10
-30.000061
 20
153.959930
 11
-50.500061
 21
153.959930
  0
LINE
  8
0
 10
-73.000008
 20
152.159927
 11
-73.000008
 21
153.959930
  0
LINE
  8
0
 10
-30.000000
 20
153.959961
 11
-30.000000
 21
159.959961
  0
LINE
  8
0
 10
-30.000061
 20
159.959930
 11
-110.000061
 21
159.959930
  0
LINE
  8
0
 10
-110.000015
 20
153.959900
 11
-110.000015
 21
159.959900
  0
LINE
  8
0
 10
-50.500000
 20
152.159958
 11
-50.500000
 21
154.459961
  0
LINE
  8
0
 10
-70.500008
 20
152.159943
 11
-70.500008
 21
154.459930
  0
LINE
  8
0
 10
-76.899986
 20
145.755905
 11
-77.599983
 21
146.160049
  0
LINE
  8
0
 10
-85.400032
 20
146.159912
 11
-86.100029
 21
145.755768
  0
LINE
  8
0
 10
-86.100006
 20
143.364075
 11
-86.100006
 21
145.755783
  0
LINE
  8
0
 10
-83.800011
 20
143.364075
 11
-83.800011
 21
145.755783
  0
LINE
  8
0
 10
-79.200012
 20
143.364075
 11
-79.200012
 21
145.755783
  0
LINE
  8
0
 10
-76.900009
 20
143.364075
 11
-76.900009
 21
145.755783
  0
LINE
  8
0
 10
-76.900017
 20
143.364075
 11
-77.600014
 21
142.959930
  0
LINE
  8
0
 10
-77.600044
 20
142.959930
 11
-85.400047
 21
142.959930
  0
LINE
  8
0
 10
-85.400009
 20
142.960037
 11
-86.100006
 21
143.364182
  0
LINE
  8
0
 10
-55.000008
 20
105.959946
 11
-55.000008
 21
152.159943
  0
LINE
  8
0
 10
-49.500061
 20
154.459930
 11
-71.500053
 21
154.459930
  0
LINE
  8
0
 10
-71.500008
 20
153.959930
 11
-71.500008
 21
154.459930
  0
LINE
  8
0
 10
-49.500000
 20
153.959961
 11
-49.500000
 21
154.459961
  0
LINE
  8
0
 10
-70.500053
 20
153.959930
 11
-110.000061
 21
153.959930
  0
LINE
  8
0
 10
-73.000008
 20
99.959930
 11
-73.000008
 21
103.959930
  0
LINE
  8
0
 10
-67.000008
 20
99.959938
 11
-67.000008
 21
103.959938
  0
LINE
  8
0
 10
-67.000015
 20
103.959930
 11
-73.000015
 21
103.959930
  0
LINE
  8
0
 10
-39.000046
 20
151.359924
 11
-50.000046
 21
151.359924
  0
LINE
  8
0
 10
-39.000031
 20
129.359924
 11
-50.000031
 21
129.359924
  0
LINE
  8
0
 10
-45.000000
 20
105.959961
 11
-45.000000
 21
108.059967
  0
LINE
  8
0
 10
-45.000000
 20
151.359955
 11
-45.000000
 21
152.159958
  0
LINE
  8
0
 10
-45.000000
 20
117.859970
 11
-45.000000
 21
129.359955
  0
LINE
  8
0
 10
-36.000046
 20
137.559937
 11
-39.000046
 21
137.559937
  0
LINE
  8
0
 10
-36.000000
 20
137.559967
 11
-36.000000
 21
140.459976
  0
LINE
  8
0
 62
     1
 10
-111.864319
 20
113.263016
 11
-116.687332
 21
119.693703
  0
LINE
  8
0
  6
CENTER
 62
     2
 10
-102.500015
 20
152.269394
 11
-102.500015
 21
161.421310
  0
LINE
  8
0
  6
CENTER
 62
     2
 10
-37.500000
 20
152.089996
 11
-37.500000
 21
161.241913
  0
LINE
  8
0
  6
CENTER
 62
     2
 10
-102.500015
 20
98.434586
 11
-102.500015
 21
107.048157
  0
LINE
  8
0
  6
CENTER
 62
     2
 10
-37.500000
 20
98.434631
 11
-37.500000
 21
107.048203
  0
LINE
  8
0
  6
CENTER
 62
     2
 10
-45.000000
 20
152.089996
 11
-45.000000
 21
161.241913
  0
LINE
  8
0
  6
CENTER
 62
     2
 10
-95.000015
 20
152.269409
 11
-95.000015
 21
161.421326
  0
LINE
  8
0
 62
     2
 10
-79.500008
 20
133.059937
 11
-79.500008
 21
142.959930
  0
LINE
  8
0
 10
-79.000008
 20
133.559906
 11
-79.000008
 21
142.959930
  0
LINE
  8
0
 62
     2
 10
-83.500008
 20
133.059937
 11
-83.500008
 21
142.959930
  0
LINE
  8
0
 10
-84.000008
 20
133.559937
 11
-84.000008
 21
142.959930
  0
LINE
  8
0
 62
     4
 10
-39.000031
 20
-131.359940
 11
-39.000031
 21
-123.159973
  0
LINE
  8
0
 62
     4
 10
-38.999969
 20
-109.359940
 11
-45.000000
 21
-109.359940
  0
LINE
  8
0
 62
     4
 10
-36.999969
 20
-111.859940
 11
-38.999969
 21
-111.859940
  0
LINE
  8
0
 62
     4
 10
-36.999969
 20
-116.859940
 11
-38.999969
 21
-116.859940
  0
LINE
  8
0
 62
     4
 10
-26.637970
 20
-116.059937
 11
-36.999969
 21
-116.059937
  0
LINE
  8
0
 62
     4
 10
-24.087982
 20
-112.659943
 11
-36.999969
 21
-112.659943
  0
LINE
  8
0
 62
     4
 10
-37.000031
 20
-116.859970
 11
-37.000031
 21
-111.859970
  0
LINE
  8
0
 10
-36.700012
 20
-97.859955
 11
-45.000000
 21
-97.859955
  0
LINE
  8
0
 10
-36.700027
 20
-129.359985
 11
-36.700027
 21
-123.159943
  0
LINE
  8
0
 10
-32.700027
 20
-128.459991
 11
-32.700027
 21
-120.459991
  0
LINE
  8
0
 10
-32.700027
 20
-128.459961
 11
-36.700027
 21
-128.459961
  0
LINE
  8
0
 10
-32.700027
 20
-120.459961
 11
-36.200012
 21
-120.459961
  0
LINE
  8
0
 62
     4
 10
-39.999969
 20
-115.359940
 11
-45.000000
 21
-115.359940
  0
LINE
  8
0
 62
     4
 10
-40.000031
 20
-125.359970
 11
-40.000031
 21
-115.359970
  0
LINE
  8
0
 62
     4
 10
-36.199982
 20
-117.559937
 11
-39.884766
 21
-117.559937
  0
LINE
  8
0
 62
     4
 10
-36.199982
 20
-123.159943
 11
-39.884766
 21
-123.159943
  0
LINE
  8
0
 62
     4
 10
-39.000031
 20
-117.559982
 11
-39.000031
 21
-109.359970
  0
LINE
  8
0
 62
     4
 10
-39.200043
 20
-123.159973
 11
-39.200043
 21
-117.559982
  0
LINE
  8
0
 62
     4
 10
-36.200043
 20
-123.159988
 11
-36.200043
 21
-117.559982
  0
LINE
  8
0
 10
-36.700027
 20
-97.859985
 11
-36.700027
 21
-88.059998
  0
LINE
  8
0
 10
-36.700012
 20
-88.059967
 11
-45.000000
 21
-88.059967
  0
LINE
  8
0
 10
-36.700027
 20
-129.359955
 11
-39.000000
 21
-129.359955
  0
LINE
  8
0
 10
-32.700027
 20
-96.959991
 11
-32.700027
 21
-88.959991
  0
LINE
  8
0
 10
-32.700012
 20
-96.959961
 11
-36.700012
 21
-96.959961
  0
LINE
  8
0
 10
-32.700012
 20
-88.959961
 11
-36.700012
 21
-88.959961
  0
LINE
  8
0
 10
-31.700027
 20
-96.959991
 11
-31.700027
 21
-88.959991
  0
LINE
  8
0
 10
-29.700027
 20
-96.959991
 11
-29.700027
 21
-88.959991
  0
LINE
  8
0
 10
-29.700012
 20
-96.959961
 11
-31.700012
 21
-96.959961
  0
LINE
  8
0
 10
-29.700012
 20
-88.959961
 11
-31.700012
 21
-88.959961
  0
LINE
  8
0
 10
-31.700012
 20
-90.459961
 11
-32.700012
 21
-90.459961
  0
LINE
  8
0
 10
-31.700012
 20
-95.459961
 11
-32.700012
 21
-95.459961
  0
LINE
  8
0
 10
-27.300003
 20
-94.459961
 11
-29.700012
 21
-94.459961
  0
LINE
  8
0
 10
-27.300003
 20
-91.459961
 11
-29.700012
 21
-91.459961
  0
LINE
  8
0
 10
-27.300018
 20
-95.459991
 11
-27.300018
 21
-90.459991
  0
LINE
  8
0
 10
-22.300018
 20
-90.459961
 11
-27.300003
 21
-90.459961
  0
LINE
  8
0
 10
-22.300018
 20
-95.459961
 11
-27.300003
 21
-95.459961
  0
LINE
  8
0
 10
-22.300034
 20
-95.459991
 11
-22.300034
 21
-90.459991
  0
LINE
  8
0
 10
-31.700027
 20
-128.459991
 11
-31.700027
 21
-120.459991
  0
LINE
  8
0
 10
-29.700027
 20
-128.459991
 11
-29.700027
 21
-120.459991
  0
LINE
  8
0
 10
-29.700027
 20
-128.459961
 11
-31.700027
 21
-128.459961
  0
LINE
  8
0
 10
-29.700027
 20
-120.459961
 11
-31.700027
 21
-120.459961
  0
LINE
  8
0
 10
-31.700027
 20
-121.959961
 11
-32.700027
 21
-121.959961
  0
LINE
  8
0
 10
-31.700012
 20
-126.959961
 11
-32.700012
 21
-126.959961
  0
LINE
  8
0
 10
-27.300034
 20
-125.959961
 11
-29.700027
 21
-125.959961
  0
LINE
  8
0
 10
-27.300034
 20
-122.959961
 11
-29.700027
 21
-122.959961
  0
LINE
  8
0
 10
-27.300018
 20
-126.959991
 11
-27.300018
 21
-121.959991
  0
LINE
  8
0
 10
-22.300034
 20
-121.959961
 11
-27.300034
 21
-121.959961
  0
LINE
  8
0
 10
-22.300018
 20
-126.959961
 11
-27.300018
 21
-126.959961
  0
LINE
  8
0
 10
-22.300034
 20
-126.959991
 11
-22.300034
 21
-121.959991
  0
LINE
  8
0
 10
-36.000031
 20
-117.559937
 11
-36.200012
 21
-117.559937
  0
LINE
  8
0
 10
-36.000015
 20
-117.559967
 11
-36.000015
 21
-120.459991
  0
LINE
  8
0
 62
     1
 10
-28.135685
 20
-118.056824
 11
-23.312681
 21
-111.626160
  0
LINE
  8
0
 62
     4
 10
-39.000000
 20
-131.359924
 11
-44.999954
 21
-131.359924
  0
LINE
  8
0
 62
     4
 10
-40.000015
 20
-125.359970
 11
-44.999969
 21
-125.359970
  0
LINE
  8
0
 10
-110.000015
 20
-79.959991
 11
-110.000015
 21
-85.959991
  0
LINE
  8
0
 10
-30.000015
 20
-79.959930
 11
-30.000015
 21
-85.959930
  0
LINE
  8
0
 10
-110.000000
 20
-79.959946
 11
-30.000000
 21
-79.959946
  0
LINE
  8
0
 10
-110.000000
 20
-85.959946
 11
-85.000000
 21
-85.959946
  0
LINE
  8
0
 10
-45.000015
 20
-85.959930
 11
-45.000015
 21
-132.159943
  0
LINE
  8
0
 10
-65.499969
 20
-126.159943
 11
-44.999969
 21
-126.159943
  0
LINE
  8
0
 10
-65.500015
 20
-85.959946
 11
-65.500015
 21
-126.159943
  0
LINE
  8
0
  6
CENTER
 62
     2
 10
-70.000015
 20
-77.110840
 11
-70.000015
 21
-172.820953
  0
LINE
  8
0
 10
-95.000015
 20
-85.959961
 11
-95.000015
 21
-88.059998
  0
LINE
  8
0
  6
CENTER
 62
     2
 10
-63.100063
 20
-163.556107
 11
-62.400066
 21
-163.960251
  0
LINE
  8
0
  6
CENTER
 62
     2
 10
-54.599850
 20
-163.960083
 11
-53.899853
 21
-163.555939
  0
LINE
  8
0
  6
CENTER
 62
     2
 10
-53.900024
 20
-161.164093
 11
-53.900024
 21
-163.555786
  0
LINE
  8
0
  6
CENTER
 62
     2
 10
-56.200012
 20
-161.164093
 11
-56.200012
 21
-163.555786
  0
LINE
  8
0
  6
CENTER
 62
     2
 10
-60.800018
 20
-161.164093
 11
-60.800018
 21
-163.555786
  0
LINE
  8
0
  6
CENTER
 62
     2
 10
-63.100021
 20
-161.164093
 11
-63.100021
 21
-163.555786
  0
LINE
  8
0
  6
CENTER
 62
     2
 10
-63.099964
 20
-161.164001
 11
-62.399998
 21
-160.759872
  0
LINE
  8
0
  6
CENTER
 62
     2
 10
-62.399933
 20
-160.759949
 11
-54.599915
 21
-160.759949
  0
LINE
  8
0
  6
CENTER
 62
     2
 10
-54.599915
 20
-160.759979
 11
-53.899933
 21
-161.164124
  0
LINE
  8
0
 10
-60.499985
 20
-113.059937
 11
-56.499985
 21
-113.059937
  0
LINE
  8
0
 10
-61.000015
 20
-96.459930
 11
-61.000015
 21
-111.059937
  0
LINE
  8
0
 10
-56.000015
 20
-96.459930
 11
-56.000015
 21
-111.059937
  0
LINE
  8
0
 10
-63.100021
 20
-132.159943
 11
-63.100021
 21
-133.555786
  0
LINE
  8
0
 10
-63.100040
 20
-133.555954
 11
-62.400043
 21
-133.960098
  0
LINE
  8
0
 10
-54.599907
 20
-133.960022
 11
-53.899906
 21
-133.555878
  0
LINE
  8
0
 10
-53.900024
 20
-132.159943
 11
-53.900024
 21
-133.555786
  0
LINE
  8
0
 62
     4
 10
-101.000015
 20
-101.959946
 11
-95.000015
 21
-101.959946
  0
LINE
  8
0
 62
     4
 10
-103.000015
 20
-99.459946
 11
-101.000015
 21
-99.459946
  0
LINE
  8
0
 62
     4
 10
-103.000015
 20
-94.459946
 11
-101.000015
 21
-94.459946
  0
LINE
  8
0
 62
     4
 10
-113.362000
 20
-95.259949
 11
-103.000015
 21
-95.259949
  0
LINE
  8
0
 62
     4
 10
-115.912003
 20
-98.659943
 11
-103.000015
 21
-98.659943
  0
LINE
  8
0
 62
     4
 10
-103.000015
 20
-94.459930
 11
-103.000015
 21
-99.459930
  0
LINE
  8
0
 10
-90.000015
 20
-85.959961
 11
-90.000015
 21
-132.159973
  0
LINE
  8
0
 10
-94.999954
 20
-132.159943
 11
-44.999939
 21
-132.159943
  0
LINE
  8
0
  6
PHANTOM
 62
     2
 10
-67.000015
 20
-133.959930
 11
-67.000015
 21
-163.959930
  0
LINE
  8
0
  6
PHANTOM
 62
     2
 10
-109.999924
 20
-163.959930
 11
-29.999924
 21
-163.959930
  0
LINE
  8
0
  6
PHANTOM
 62
     2
 10
-110.000015
 20
-163.959991
 11
-110.000015
 21
-169.959991
  0
LINE
  8
0
  6
PHANTOM
 62
     2
 10
-109.999924
 20
-169.959930
 11
-29.999908
 21
-169.959930
  0
LINE
  8
0
  6
PHANTOM
 62
     2
 10
-30.000015
 20
-163.959900
 11
-30.000015
 21
-169.959900
  0
LINE
  8
0
 10
-60.999985
 20
-113.559937
 11
-55.999985
 21
-113.559937
  0
LINE
  8
0
 10
-60.499996
 20
-113.059898
 11
-60.999989
 21
-113.559891
  0
LINE
  8
0
 10
-56.499969
 20
-113.059937
 11
-55.999981
 21
-113.559929
  0
LINE
  8
0
 62
     2
 10
-60.500015
 20
-96.459930
 11
-60.500015
 21
-111.059937
  0
LINE
  8
0
 62
     2
 10
-56.500015
 20
-96.459930
 11
-56.500015
 21
-111.059937
  0
LINE
  8
0
 10
-65.500000
 20
-85.959946
 11
-30.000000
 21
-85.959946
  0
LINE
  8
0
 10
-50.000015
 20
-85.959930
 11
-50.000015
 21
-126.159943
  0
LINE
  8
0
 62
     4
 10
-103.800003
 20
-93.759949
 11
-101.000015
 21
-93.759949
  0
LINE
  8
0
 62
     4
 10
-103.800003
 20
-88.159943
 11
-101.000015
 21
-88.159943
  0
LINE
  8
0
 62
     4
 10
-101.000015
 20
-85.959946
 11
-101.000015
 21
-101.959930
  0
LINE
  8
0
 62
     4
 10
-103.800018
 20
-88.159912
 11
-103.800018
 21
-93.759918
  0
LINE
  8
0
 10
-53.000015
 20
-94.459930
 11
-53.000015
 21
-96.459930
  0
LINE
  8
0
 10
-64.000015
 20
-94.459946
 11
-64.000015
 21
-96.459946
  0
LINE
  8
0
 10
-63.999985
 20
-96.459946
 11
-52.999985
 21
-96.459946
  0
LINE
  8
0
 10
-63.100006
 20
-91.664093
 11
-63.100006
 21
-94.459946
  0
LINE
  8
0
 10
-63.100010
 20
-91.664085
 11
-62.400013
 21
-91.259941
  0
LINE
  8
0
 10
-60.800003
 20
-91.664093
 11
-60.800003
 21
-94.459930
  0
LINE
  8
0
 10
-56.200012
 20
-91.664093
 11
-56.200012
 21
-94.459930
  0
LINE
  8
0
 10
-53.900009
 20
-91.664093
 11
-53.900009
 21
-94.459930
  0
LINE
  8
0
 10
-54.599987
 20
-91.260071
 11
-53.899990
 21
-91.664215
  0
LINE
  8
0
 10
-62.399994
 20
-91.259949
 11
-54.599991
 21
-91.259949
  0
LINE
  8
0
 10
-56.500015
 20
-86.459930
 11
-56.500015
 21
-87.459930
  0
LINE
  8
0
 10
-60.500015
 20
-86.459930
 11
-60.500015
 21
-87.459930
  0
LINE
  8
0
 10
-63.999985
 20
-94.459946
 11
-52.999985
 21
-94.459946
  0
LINE
  8
0
 10
-63.100014
 20
-90.855904
 11
-62.400028
 21
-91.260040
  0
LINE
  8
0
 10
-63.100006
 20
-88.464081
 11
-63.100006
 21
-90.855804
  0
LINE
  8
0
 10
-63.099995
 20
-88.464104
 11
-62.399998
 21
-88.059959
  0
LINE
  8
0
 10
-62.399994
 20
-88.059937
 11
-54.599991
 21
-88.059937
  0
LINE
  8
0
 10
-60.800003
 20
-88.464081
 11
-60.800003
 21
-90.855804
  0
LINE
  8
0
 10
-56.200012
 20
-88.464081
 11
-56.200012
 21
-90.855804
  0
LINE
  8
0
 10
-54.600006
 20
-88.060013
 11
-53.900005
 21
-88.464149
  0
LINE
  8
0
 10
-53.900009
 20
-88.464081
 11
-53.900009
 21
-90.855804
  0
LINE
  8
0
 10
-54.599995
 20
-91.259933
 11
-53.899975
 21
-90.855766
  0
LINE
  8
0
 10
-62.000000
 20
-87.459946
 11
-55.000000
 21
-87.459946
  0
LINE
  8
0
 10
-62.000015
 20
-87.459930
 11
-62.000015
 21
-88.059937
  0
LINE
  8
0
 10
-55.000015
 20
-87.459930
 11
-55.000015
 21
-88.059937
  0
LINE
  8
0
 10
-60.500000
 20
-86.459946
 11
-56.500000
 21
-86.459946
  0
LINE
  8
0
 10
-22.300034
 20
-95.459991
 11
-22.300034
 21
-90.459991
  0
LINE
  8
0
 10
-109.999939
 20
-133.959930
 11
-89.499939
 21
-133.959930
  0
LINE
  8
0
 10
-67.000015
 20
-132.159943
 11
-67.000015
 21
-133.959930
  0
LINE
  8
0
 10
-110.000015
 20
-133.959991
 11
-110.000015
 21
-139.959991
  0
LINE
  8
0
 10
-109.999939
 20
-139.959930
 11
-29.999939
 21
-139.959930
  0
LINE
  8
0
 10
-30.000015
 20
-133.959900
 11
-30.000015
 21
-139.959900
  0
LINE
  8
0
 10
-89.500015
 20
-132.159973
 11
-89.500015
 21
-134.459961
  0
LINE
  8
0
 10
-69.500015
 20
-132.159943
 11
-69.500015
 21
-134.459961
  0
LINE
  8
0
  6
PHANTOM
 62
     2
 10
-89.500015
 20
-160.959961
 11
-89.500015
 21
-163.959961
  0
LINE
  8
0
  6
PHANTOM
 62
     2
 10
-89.499924
 20
-160.959930
 11
-73.000015
 21
-160.959930
  0
LINE
  8
0
  6
PHANTOM
 62
     2
 10
-73.000015
 20
-132.159943
 11
-73.000015
 21
-163.959930
  0
LINE
  8
0
 10
-63.100056
 20
-125.755981
 11
-62.400055
 21
-126.160126
  0
LINE
  8
0
 10
-54.599957
 20
-126.160011
 11
-53.899960
 21
-125.755867
  0
LINE
  8
0
 10
-53.900024
 20
-123.364075
 11
-53.900024
 21
-125.755798
  0
LINE
  8
0
 10
-56.200012
 20
-123.364075
 11
-56.200012
 21
-125.755798
  0
LINE
  8
0
 10
-60.800018
 20
-123.364075
 11
-60.800018
 21
-125.755798
  0
LINE
  8
0
 10
-63.100021
 20
-123.364075
 11
-63.100021
 21
-125.755798
  0
LINE
  8
0
 10
-63.099945
 20
-123.364159
 11
-62.399948
 21
-122.960014
  0
LINE
  8
0
 10
-62.399979
 20
-122.959946
 11
-54.599960
 21
-122.959946
  0
LINE
  8
0
 10
-54.599983
 20
-122.959984
 11
-53.899971
 21
-123.364113
  0
LINE
  8
0
  6
PHANTOM
 62
     2
 10
-61.000015
 20
-132.159943
 11
-61.000015
 21
-160.759949
  0
LINE
  8
0
  6
PHANTOM
 62
     2
 10
-56.000015
 20
-132.159943
 11
-56.000015
 21
-160.759949
  0
LINE
  8
0
  6
PHANTOM
 62
     2
 10
-75.500015
 20
-132.159943
 11
-75.500015
 21
-160.959961
  0
LINE
  8
0
  6
PHANTOM
 62
     2
 10
-83.500015
 20
-132.159973
 11
-83.500015
 21
-160.959961
  0
LINE
  8
0
 10
-85.000015
 20
-85.959961
 11
-85.000015
 21
-132.159973
  0
LINE
  8
0
 10
-90.499939
 20
-134.459930
 11
-68.499939
 21
-134.459930
  0
LINE
  8
0
 10
-68.500015
 20
-133.959961
 11
-68.500015
 21
-134.459961
  0
LINE
  8
0
 10
-90.500015
 20
-133.959961
 11
-90.500015
 21
-134.459961
  0
LINE
  8
0
 10
-69.499939
 20
-133.959930
 11
-29.999939
 21
-133.959930
  0
LINE
  8
0
 10
-95.000015
 20
-85.959961
 11
-95.000015
 21
-131.359924
  0
LINE
  8
0
 10
-95.000015
 20
-131.359955
 11
-95.000015
 21
-132.159973
  0
LINE
  8
0
 62
     1
 10
-111.864296
 20
-93.263062
 11
-116.687294
 21
-99.693726
  0
LINE
  8
0
  6
CENTER
 62
     2
 10
-37.500015
 20
-132.269409
 11
-37.500015
 21
-141.421326
  0
LINE
  8
0
  6
CENTER
 62
     2
 10
-102.500015
 20
-132.089996
 11
-102.500015
 21
-141.241913
  0
LINE
  8
0
  6
CENTER
 62
     2
 10
-37.500015
 20
-78.434601
 11
-37.500015
 21
-87.048172
  0
LINE
  8
0
  6
CENTER
 62
     2
 10
-102.500015
 20
-78.434662
 11
-102.500015
 21
-87.048218
  0
LINE
  8
0
  6
CENTER
 62
     2
 10
-95.000015
 20
-132.089996
 11
-95.000015
 21
-141.241913
  0
LINE
  8
0
  6
CENTER
 62
     2
 10
-45.000015
 20
-132.269409
 11
-45.000015
 21
-141.421326
  0
LINE
  8
0
 10
-56.000015
 20
-113.559937
 11
-56.000015
 21
-122.959930
  0
LINE
  8
0
 62
     2
 10
-56.500015
 20
-113.059937
 11
-56.500015
 21
-122.959946
  0
LINE
  8
0
 62
     2
 10
-60.500015
 20
-113.059937
 11
-60.500015
 21
-122.959930
  0
LINE
  8
0
 10
-61.000015
 20
-113.559937
 11
-61.000015
 21
-122.959930
  0
LINE
  8
0
 10
157.225510
 20
40.000019
 11
157.225510
 21
-40.000004
  0
LINE
  8
0
 10
237.225510
 20
40.000011
 11
237.225510
 21
-39.999981
  0
LINE
  8
0
 10
157.225525
 20
40.000015
 11
237.225525
 21
40.000015
  0
LINE
  8
0
 10
157.225525
 20
-39.999977
 11
237.225525
 21
-39.999977
  0
LINE
  8
0
  6
CENTER
 62
     2
 10
153.961349
 20
0.000015
 11
240.801819
 21
0.000015
  0
LINE
  8
0
  6
CENTER
 62
     2
 10
197.225510
 20
42.876434
 11
197.225510
 21
-44.228432
  0
LINE
  8
0
  6
CENTER
 62
     2
 10
164.725510
 20
37.510868
 11
164.725510
 21
27.409380
  0
LINE
  8
0
  6
CENTER
 62
     2
 10
229.725510
 20
38.088482
 11
229.725510
 21
26.473448
  0
LINE
  8
0
  6
CENTER
 62
     2
 10
159.541504
 20
32.500015
 11
169.691589
 21
32.500015
  0
LINE
  8
0
  6
CENTER
 62
     2
 10
158.924622
 20
-32.499977
 11
170.048630
 21
-32.499977
  0
LINE
  8
0
  6
CENTER
 62
     2
 10
167.036713
 20
-24.999977
 11
177.129929
 21
-24.999977
  0
LINE
  8
0
  6
CENTER
 62
     2
 10
167.184204
 20
25.000015
 11
177.361206
 21
25.000015
  0
LINE
  8
0
  6
CENTER
 62
     2
 10
222.225510
 20
30.579542
 11
222.225510
 21
19.249052
  0
LINE
  8
0
  6
CENTER
 62
     2
 10
172.225510
 20
30.579531
 11
172.225510
 21
20.286440
  0
LINE
  8
0
  6
CENTER
 62
     2
 10
172.225510
 20
-20.194342
 11
172.225510
 21
-30.776464
  0
LINE
  8
0
  6
CENTER
 62
     2
 10
172.225510
 20
3.060983
 11
172.225510
 21
-3.576186
  0
LINE
  8
0
  6
CENTER
 62
     2
 10
216.939041
 20
25.000015
 11
227.444885
 21
25.000015
  0
LINE
  8
0
  6
CENTER
 62
     2
 10
229.725510
 20
-27.367380
 11
229.725510
 21
-37.941975
  0
LINE
  8
0
  6
CENTER
 62
     2
 10
222.225510
 20
-19.462809
 11
222.225510
 21
-30.776468
  0
LINE
  8
0
  6
CENTER
 62
     2
 10
216.741730
 20
-24.999977
 11
227.803329
 21
-24.999977
  0
LINE
  8
0
  6
CENTER
 62
     2
 10
193.585388
 20
-24.999977
 11
200.517548
 21
-24.999977
  0
LINE
  8
0
  6
CENTER
 62
     2
 10
222.225525
 20
2.549910
 11
222.225525
 21
-2.986219
  0
LINE
  8
0
  6
CENTER
 62
     2
 10
229.725525
 20
2.994215
 11
229.725525
 21
-3.133712
  0
LINE
  8
0
  6
CENTER
 62
     2
 10
193.661270
 20
32.500031
 11
200.517548
 21
32.500031
  0
LINE
  8
0
  6
CENTER
 62
     2
 10
193.661270
 20
-32.499977
 11
200.202209
 21
-32.499977
  0
LINE
  8
0
 10
156.925522
 20
4.000018
 11
156.925522
 21
12.000018
  0
LINE
  8
0
 10
156.925522
 20
4.000015
 11
157.225525
 21
4.000015
  0
LINE
  8
0
 10
156.925522
 20
12.000015
 11
157.225525
 21
12.000015
  0
LINE
  8
0
 10
154.525513
 20
6.500015
 11
156.925522
 21
6.500015
  0
LINE
  8
0
 10
154.525513
 20
9.500015
 11
156.925522
 21
9.500015
  0
LINE
  8
0
 10
154.525513
 20
5.500019
 11
154.525513
 21
10.500018
  0
LINE
  8
0
 10
149.525528
 20
10.500015
 11
154.525513
 21
10.500015
  0
LINE
  8
0
 10
149.525528
 20
5.500015
 11
154.525513
 21
5.500015
  0
LINE
  8
0
 10
149.525528
 20
5.500019
 11
149.525528
 21
10.500019
  0
LINE
  8
0
  6
CENTER
 62
     2
 10
164.725510
 20
3.060983
 11
164.725510
 21
-3.281200
  0
LINE
  8
0
  6
CENTER
 62
     2
 10
193.224030
 20
25.000031
 11
200.517548
 21
25.000031
  0
LINE
  8
0
  6
CENTER
 62
     2
 10
164.725510
 20
-27.811682
 11
164.725510
 21
-38.030949
  0
LINE
  8
0
  6
CENTER
 62
     2
 10
224.725525
 20
-32.499977
 11
234.725525
 21
-32.499977
  0
LINE
  8
0
  6
CENTER
 62
     2
 10
224.725525
 20
32.500015
 11
234.725525
 21
32.500015
  0
ARC
  8
0
 62
     4
 10
-50.619980
 20
-8.000004
 40
4.420009
 50
320.692413
 51
340.161774
  0
ARC
  8
0
 62
     4
 10
-50.619980
 20
-8.000004
 40
4.420007
 50
19.838249
 51
39.307606
  0
ARC
  8
0
 62
     4
 10
-89.094971
 20
7.999996
 40
4.704990
 50
141.948822
 51
161.409042
  0
ARC
  8
0
 62
     4
 10
-89.094971
 20
7.999996
 40
4.704993
 50
198.590973
 51
218.051208
  0
CIRCLE
  8
0
 10
-102.499977
 20
32.500000
 40
1.500000
  0
CIRCLE
  8
0
 62
     2
 10
-102.499977
 20
32.500000
 40
2.000000
  0
CIRCLE
  8
0
 10
-37.499969
 20
32.500008
 40
1.500000
  0
CIRCLE
  8
0
 62
     2
 10
-37.499969
 20
32.500008
 40
2.000000
  0
CIRCLE
  8
0
 10
-102.499969
 20
-32.500015
 40
1.500000
  0
CIRCLE
  8
0
 62
     2
 10
-102.499969
 20
-32.500015
 40
2.000000
  0
CIRCLE
  8
0
 10
-37.499969
 20
-32.499992
 40
1.500000
  0
CIRCLE
  8
0
 62
     2
 10
-37.499969
 20
-32.499992
 40
2.000000
  0
ARC
  8
0
 10
-69.999969
 20
31.500004
 40
3.000000
 50
180.000000
 51
359.999969
  0
CIRCLE
  8
0
 10
-69.999969
 20
-32.500000
 40
3.000000
  0
ARC
  8
0
 10
-69.999969
 20
-0.500004
 40
7.500000
 50
0.000014
 51
211.051971
  0
ARC
  8
0
 10
-75.656822
 20
-5.656864
 40
1.500000
 50
300.522614
 51
120.814674
  0
ARC
  8
0
 10
-64.343117
 20
-5.656849
 40
1.500000
 50
59.185143
 51
239.477402
  0
ARC
  8
0
 10
-75.656822
 20
-5.656864
 40
0.600000
 50
259.727814
 51
190.272095
  0
ARC
  8
0
 10
-64.343117
 20
-5.656849
 40
0.600001
 50
349.726410
 51
280.273651
  0
ARC
  8
0
 10
-69.999969
 20
-0.500004
 40
7.500000
 50
328.948059
 51
0.000014
  0
CIRCLE
  8
0
 10
-69.999969
 20
-0.000004
 40
8.500000
  0
ARC
  8
0
 10
-193.154999
 20
18.549969
 40
1.838242
 50
0.000000
 51
38.726051
  0
CIRCLE
  8
0
 62
     4
 10
-194.266724
 20
7.999981
 40
3.300000
  0
ARC
  8
0
 10
-235.378510
 20
25.449959
 40
1.838242
 50
180.000000
 51
218.726013
  0
ARC
  8
0
 10
-230.470001
 20
21.999977
 40
6.746766
 50
160.068008
 51
199.931931
  0
ARC
  8
0
 10
-235.378540
 20
18.549965
 40
1.838253
 50
141.274292
 51
180.000000
  0
CIRCLE
  8
0
 10
-231.416779
 20
7.999977
 40
2.800000
  0
CIRCLE
  8
0
 62
     4
 10
-200.216736
 20
0.499981
 40
1.700000
  0
CIRCLE
  8
0
 62
     4
 10
-200.216736
 20
0.499981
 40
2.500000
  0
ARC
  8
0
 10
-227.578522
 20
36.449959
 40
1.838242
 50
180.000000
 51
218.726013
  0
ARC
  8
0
 10
-222.669983
 20
32.999977
 40
6.746766
 50
160.068008
 51
199.931931
  0
ARC
  8
0
 10
-227.578522
 20
29.549967
 40
1.838253
 50
141.274292
 51
180.000000
  0
ARC
  8
0
 10
-228.054993
 20
29.549967
 40
1.838242
 50
0.000000
 51
38.726051
  0
ARC
  8
0
 10
-232.963562
 20
32.999977
 40
6.746779
 50
340.068085
 51
19.931948
  0
ARC
  8
0
 10
-228.055023
 20
36.449989
 40
1.838255
 50
321.274200
 51
359.999878
  0
ARC
  8
0
 10
-186.216766
 20
7.999981
 40
2.800002
 50
206.767670
 51
153.232315
  0
ARC
  8
0
 10
-196.355011
 20
25.449978
 40
1.838255
 50
321.274200
 51
359.999878
  0
ARC
  8
0
 10
-201.263550
 20
21.999981
 40
6.746779
 50
340.068085
 51
19.931932
  0
ARC
  8
0
 10
-196.355011
 20
18.549969
 40
1.838242
 50
0.000000
 51
38.726051
  0
ARC
  8
0
 10
-192.678528
 20
25.449963
 40
1.838242
 50
180.000000
 51
218.726013
  0
ARC
  8
0
 10
-193.155029
 20
25.449978
 40
1.838255
 50
321.274200
 51
359.999878
  0
ARC
  8
0
 10
-198.063538
 20
21.999981
 40
6.746779
 50
340.068085
 51
19.931932
  0
ARC
  8
0
 10
-187.769989
 20
21.999981
 40
6.746766
 50
160.068008
 51
199.931931
  0
ARC
  8
0
 10
-192.678528
 20
18.549969
 40
1.838253
 50
141.274292
 51
180.000000
  0
ARC
  8
0
 10
53.910492
 20
-18.549973
 40
1.838249
 50
180.000000
 51
218.725906
  0
CIRCLE
  8
0
 62
     4
 10
84.422241
 20
-7.999992
 40
3.300000
  0
ARC
  8
0
 10
96.134003
 20
-25.449966
 40
1.838242
 50
0.000000
 51
38.725857
  0
ARC
  8
0
 10
91.225494
 20
-21.999985
 40
6.746766
 50
340.067993
 51
19.931946
  0
ARC
  8
0
 10
96.134003
 20
-18.549973
 40
1.838247
 50
321.274139
 51
0.000000
  0
CIRCLE
  8
0
 10
92.172241
 20
-7.999992
 40
2.800000
  0
CIRCLE
  8
0
 62
     4
 10
90.372253
 20
-0.499992
 40
1.700000
  0
CIRCLE
  8
0
 62
     4
 10
90.372253
 20
-0.499992
 40
2.500000
  0
ARC
  8
0
 10
88.334015
 20
-36.449966
 40
1.838242
 50
0.000000
 51
38.725857
  0
ARC
  8
0
 10
83.425476
 20
-32.999985
 40
6.746766
 50
340.067993
 51
19.931946
  0
ARC
  8
0
 10
88.334015
 20
-29.549973
 40
1.838247
 50
321.274139
 51
0.000000
  0
ARC
  8
0
 10
88.810486
 20
-29.549973
 40
1.838249
 50
180.000000
 51
218.725906
  0
ARC
  8
0
 10
93.719025
 20
-32.999985
 40
6.746772
 50
160.068054
 51
199.931976
  0
ARC
  8
0
 10
88.810516
 20
-36.449997
 40
1.838249
 50
141.274048
 51
179.999878
  0
CIRCLE
  8
0
 10
46.972260
 20
-7.999996
 40
2.800000
  0
ARC
  8
0
 10
57.110504
 20
-25.449997
 40
1.838252
 50
141.274124
 51
179.999878
  0
ARC
  8
0
 10
62.019012
 20
-21.999985
 40
6.746776
 50
160.068069
 51
199.931946
  0
ARC
  8
0
 10
57.110504
 20
-18.549973
 40
1.838249
 50
180.000000
 51
218.725906
  0
CIRCLE
  8
0
 10
55.972260
 20
8.000004
 40
2.500000
  0
CIRCLE
  8
0
 10
55.972260
 20
8.000004
 40
4.900000
  0
CIRCLE
  8
0
 10
89.672241
 20
8.000008
 40
2.500000
  0
CIRCLE
  8
0
 10
89.672241
 20
8.000008
 40
4.900000
  0
ARC
  8
0
 10
53.433990
 20
-25.449966
 40
1.838245
 50
0.000000
 51
38.725933
  0
ARC
  8
0
 10
53.910492
 20
-25.449997
 40
1.838252
 50
141.274124
 51
179.999878
  0
ARC
  8
0
 10
58.819031
 20
-21.999985
 40
6.746776
 50
160.068069
 51
199.931946
  0
ARC
  8
0
 10
48.525482
 20
-21.999985
 40
6.746770
 50
340.068024
 51
19.931934
  0
ARC
  8
0
 10
53.433990
 20
-18.549973
 40
1.838247
 50
321.274139
 51
0.000000
  0
ARC
  8
0
 10
-84.950043
 20
144.798172
 40
1.838242
 50
270.000000
 51
308.726105
  0
ARC
  8
0
 10
-81.500038
 20
139.413162
 40
6.746766
 50
70.068008
 51
109.931931
  0
ARC
  8
0
 10
-81.500046
 20
149.706711
 40
6.746778
 50
250.068115
 51
289.931946
  0
ARC
  8
0
 10
-84.950043
 20
144.321686
 40
1.838255
 50
51.274197
 51
90.000000
  0
ARC
  8
0
 10
-78.050049
 20
144.321686
 40
1.838242
 50
90.000000
 51
128.725906
  0
ARC
  8
0
 10
-78.050049
 20
144.798187
 40
1.838255
 50
231.274200
 51
270.000000
  0
CIRCLE
  8
0
 10
-41.700043
 20
144.459976
 40
4.900000
  0
CIRCLE
  8
0
 10
-41.700043
 20
144.459976
 40
2.000000
  0
CIRCLE
  8
0
 10
-41.700027
 20
112.959976
 40
2.000000
  0
CIRCLE
  8
0
 10
-41.700027
 20
112.959976
 40
4.900000
  0
ARC
  8
0
 10
-81.500008
 20
104.513168
 40
6.746766
 50
70.068008
 51
109.931908
  0
ARC
  8
0
 10
-84.950027
 20
109.898178
 40
1.838249
 50
270.000000
 51
308.725952
  0
ARC
  8
0
 10
-84.950027
 20
109.421677
 40
1.838249
 50
51.274048
 51
90.000000
  0
ARC
  8
0
 10
-81.500015
 20
114.806702
 40
6.746778
 50
250.068115
 51
289.931976
  0
ARC
  8
0
 10
-78.050018
 20
109.898178
 40
1.838249
 50
231.274048
 51
270.000000
  0
ARC
  8
0
 10
-78.050018
 20
113.098190
 40
1.838249
 50
231.274048
 51
270.000000
  0
ARC
  8
0
 10
-81.500015
 20
118.006699
 40
6.746778
 50
250.068115
 51
289.931976
  0
ARC
  8
0
 10
-84.950027
 20
113.098175
 40
1.838249
 50
270.000000
 51
308.725952
  0
ARC
  8
0
 10
-78.050034
 20
109.421692
 40
1.838242
 50
90.000000
 51
128.725769
  0
ARC
  8
0
 10
-55.049965
 20
-124.798187
 40
1.838249
 50
89.999878
 51
128.725861
  0
ARC
  8
0
 10
-58.499962
 20
-119.413177
 40
6.746769
 50
250.067947
 51
289.931854
  0
ARC
  8
0
 10
-58.499962
 20
-129.706726
 40
6.746775
 50
70.068001
 51
109.931854
  0
ARC
  8
0
 10
-55.049965
 20
-124.321686
 40
1.838249
 50
231.274048
 51
270.000000
  0
ARC
  8
0
 10
-61.949959
 20
-124.321686
 40
1.838242
 50
269.999878
 51
308.725861
  0
ARC
  8
0
 10
-61.949959
 20
-124.798187
 40
1.838252
 50
51.273956
 51
89.999763
  0
ARC
  8
0
  6
CENTER
 62
     2
 10
-61.949928
 20
-162.121704
 40
1.838242
 50
269.999878
 51
308.726013
  0
ARC
  8
0
  6
CENTER
 62
     2
 10
-58.499931
 20
-157.213165
 40
6.746769
 50
250.067947
 51
289.931885
  0
ARC
  8
0
  6
CENTER
 62
     2
 10
-55.049934
 20
-162.121704
 40
1.838243
 50
231.273895
 51
270.000000
  0
ARC
  8
0
  6
CENTER
 62
     2
 10
-61.949928
 20
-162.598206
 40
1.838258
 50
51.274105
 51
89.999763
  0
ARC
  8
0
  6
CENTER
 62
     2
 10
-58.499916
 20
-167.506714
 40
6.746782
 50
70.068024
 51
109.931854
  0
ARC
  8
0
  6
CENTER
 62
     2
 10
-55.049934
 20
-162.598175
 40
1.838242
 50
89.999878
 51
128.725708
  0
ARC
  8
0
 10
-58.500000
 20
-84.513184
 40
6.746769
 50
250.067947
 51
289.931854
  0
ARC
  8
0
 10
-55.049988
 20
-89.898193
 40
1.838249
 50
89.999878
 51
128.725861
  0
ARC
  8
0
 10
-55.049988
 20
-89.421692
 40
1.838249
 50
231.274048
 51
270.000000
  0
ARC
  8
0
 10
-58.499985
 20
-94.806717
 40
6.746775
 50
70.068001
 51
109.931854
  0
ARC
  8
0
 10
-61.949997
 20
-89.898193
 40
1.838252
 50
51.273956
 51
89.999763
  0
ARC
  8
0
 10
-61.949997
 20
-93.098206
 40
1.838252
 50
51.273956
 51
89.999763
  0
ARC
  8
0
 10
-58.499985
 20
-98.006714
 40
6.746775
 50
70.068001
 51
109.931854
  0
ARC
  8
0
 10
-55.049973
 20
-93.098175
 40
1.838249
 50
89.999878
 51
128.725861
  0
ARC
  8
0
 10
-61.949982
 20
-89.421692
 40
1.838242
 50
269.999878
 51
308.725861
  0
CIRCLE
  8
0
 10
164.725525
 20
0.000018
 40
2.000000
  0
CIRCLE
  8
0
 10
172.225525
 20
0.000017
 40
2.000000
  0
CIRCLE
  8
0
 10
222.225525
 20
0.000013
 40
2.000000
  0
CIRCLE
  8
0
 10
229.725525
 20
0.000013
 40
2.000000
  0
CIRCLE
  8
0
 10
197.225525
 20
25.000015
 40
2.000000
  0
CIRCLE
  8
0
 10
164.725525
 20
32.500019
 40
2.250000
  0
CIRCLE
  8
0
 10
172.225525
 20
25.000017
 40
2.250000
  0
CIRCLE
  8
0
 10
222.225525
 20
25.000013
 40
2.250000
  0
CIRCLE
  8
0
 10
229.725525
 20
32.500011
 40
2.250000
  0
CIRCLE
  8
0
 10
222.225525
 20
-24.999979
 40
2.250000
  0
CIRCLE
  8
0
 10
229.725525
 20
-32.499981
 40
2.250000
  0
CIRCLE
  8
0
 62
     2
 10
172.225510
 20
-24.999975
 40
2.250000
  0
CIRCLE
  8
0
 62
     2
 10
164.725510
 20
-32.499973
 40
2.250000
  0
CIRCLE
  8
0
 10
197.225510
 20
-24.999977
 40
2.000000
  0
CIRCLE
  8
0
  6
DASHED
 62
     2
 10
164.725525
 20
32.500019
 40
4.000000
  0
CIRCLE
  8
0
  6
DASHED
 62
     2
 10
172.225525
 20
25.000017
 40
4.000000
  0
CIRCLE
  8
0
  6
DASHED
 62
     2
 10
172.225510
 20
-24.999975
 40
4.000000
  0
CIRCLE
  8
0
  6
DASHED
 62
     2
 10
164.725510
 20
-32.499973
 40
4.000000
  0
CIRCLE
  8
0
  6
DASHED
 62
     2
 10
222.225525
 20
-24.999979
 40
4.000000
  0
CIRCLE
  8
0
  6
DASHED
 62
     2
 10
229.725525
 20
-32.499981
 40
4.000000
  0
CIRCLE
  8
0
  6
DASHED
 62
     2
 10
222.225525
 20
25.000013
 40
4.000000
  0
CIRCLE
  8
0
  6
DASHED
 62
     2
 10
229.725525
 20
32.500011
 40
4.000000
  0
CIRCLE
  8
0
 10
197.225525
 20
32.500015
 40
2.000000
  0
CIRCLE
  8
0
 10
197.225510
 20
-32.499977
 40
2.000000
  0
TEXT
  8
0
 10
174.200241
 20
180.830002
 40
6.300000
  1
DATE: MAY ,1993
 50
0.000000
 41
1.052632
 51
0.000000
  7
STANDARD
  0
TEXT
  8
0
 10
167.564667
 20
-192.100006
 40
9.000000
  1
KOGANEI CORP.
 50
0.000000
 41
1.052632
 51
0.000000
  7
STANDARD
  0
TEXT
  8
0
 10
-269.149719
 20
180.830002
 40
6.300000
  1
HANDLING MODULE
 50
0.000000
 41
1.052632
 51
0.000000
  7
STANDARD
  0
TEXT
  8
0
 10
-270.049713
 20
155.830002
 40
6.300000
  1
MODEL:SHM41M-LS
 50
0.000000
 41
1.052632
 51
0.000000
  7
STANDARD
  0
ENDSEC
  0
EOF
