  0
SECTION
  2
HEADER
  0
ENDSEC
  0
SECTION
  2
TABLES
  0
TABLE
  2
LTYPE
 70
     4
  0
LTYPE
  2
CONTINUOUS
 70
    64
  3
Solid line
 72
    65
 73
     0
 40
0.000000
  0
LTYPE
  2
DASHED
 70
    64
  3
__ __ __ __ __ __ __ __ __ __ __ __ __ __ __
 72
    65
 73
     2
 40
3.500000
 49
2.000000
 49
-1.500000
  0
LTYPE
  2
CENTER
 70
    64
  3
____ _ ____ _ ____ _ ____ _ ____ _ ____ _ ____
 72
    65
 73
     4
 40
17.500000
 49
13.000000
 49
-1.500000
 49
1.500000
 49
-1.500000
  0
LTYPE
  2
PHANTOM
 70
    64
  3
_____ _ _ _____ _ _ _____ _ _ _____ _ _ ____  
 72
    65
 73
     6
 40
15.500000
 49
8.000000
 49
-1.500000
 49
1.500000
 49
-1.500000
 49
1.500000
 49
-1.500000
  0
LTYPE
  2
DASHED1
 70
    64
  3
__ __ __ __ __ __ __ __ __ __ __ __ __ __ __
 72
    65
 73
     2
 40
1.500000
 49
1.000000
 49
-0.500000
  0
LTYPE
  2
DASHED2
 70
    64
  3
__ __ __ __ __ __ __ __ __ __ __ __ __ __ __
 72
    65
 73
     2
 40
3.500000
 49
2.500000
 49
-1.000000
  0
LTYPE
  2
DASHED3
 70
    64
  3
__ __ __ __ __ __ __ __ __ __ __ __ __ __ __
 72
    65
 73
     2
 40
6.000000
 49
4.000000
 49
-2.000000
  0
LTYPE
  2
DASHED4
 70
    64
  3
__ __ __ __ __ __ __ __ __ __ __ __ __ __ __
 72
    65
 73
     2
 40
12.000000
 49
10.000000
 49
-2.000000
  0
LTYPE
  2
DASHED5
 70
    64
  3
__ __ __ __ __ __ __ __ __ __ __ __ __ __ __
 72
    65
 73
     2
 40
17.000000
 49
15.000000
 49
-2.000000
  0
LTYPE
  2
DASHED6
 70
    64
  3
__ __ __ __ __ __ __ __ __ __ __ __ __ __ __
 72
    65
 73
     2
 40
29.000000
 49
27.000000
 49
-2.000000
  0
LTYPE
  2
PHANTOM1
 70
    64
  3
_____ _ _ _____ _ _ _____ _ _ _____ _ _ ____  
 72
    65
 73
     6
 40
31.000000
 49
25.000000
 49
-1.500000
 49
1.000000
 49
-1.000000
 49
1.000000
 49
-1.500000
  0
LTYPE
  2
PHANTOM2
 70
    64
  3
_____ _ _ _____ _ _ _____ _ _ _____ _ _ ____  
 72
    65
 73
     6
 40
36.000000
 49
27.000000
 49
-1.500000
 49
2.500000
 49
-1.000000
 49
2.500000
 49
-1.500000
  0
LTYPE
  2
PHANTOM3
 70
    64
  3
_____ _ _ _____ _ _ _____ _ _ _____ _ _ ____  
 72
    65
 73
     6
 40
78.000000
 49
64.000000
 49
-2.000000
 49
4.000000
 49
-2.000000
 49
4.000000
 49
-2.000000
  0
LTYPE
  2
CENTER1
 70
    64
  3
____ _ ____ _ ____ _ ____ _ ____ _ ____ _ ____
 72
    65
 73
     4
 40
19.000000
 49
14.000000
 49
-1.000000
 49
3.000000
 49
-1.000000
  0
LTYPE
  2
CENTER2
 70
    64
  3
____ _ ____ _ ____ _ ____ _ ____ _ ____ _ ____
 72
    65
 73
     4
 40
28.500000
 49
25.000000
 49
-1.000000
 49
1.500000
 49
-1.000000
  0
LTYPE
  2
CENTER3
 70
    64
  3
____ _ ____ _ ____ _ ____ _ ____ _ ____ _ ____
 72
    65
 73
     4
 40
31.500000
 49
27.000000
 49
-1.000000
 49
2.500000
 49
-1.000000
  0
LTYPE
  2
CENTER4
 70
    64
  3
____ _ ____ _ ____ _ ____ _ ____ _ ____ _ ____
 72
    65
 73
     4
 40
50.000000
 49
45.000000
 49
-1.000000
 49
3.000000
 49
-1.000000
  0
LTYPE
  2
CENTER5
 70
    64
  3
____ _ ____ _ ____ _ ____ _ ____ _ ____ _ ____
 72
    65
 73
     4
 40
100.000000
 49
92.000000
 49
-2.000000
 49
4.000000
 49
-2.000000
  0
LTYPE
  2
SBK1
 70
    64
  3
______ _ _ _ ______ _ _ _ ______ _ _ _ _____  
 72
    65
 73
     8
 40
60.500000
 49
45.000000
 49
-2.000000
 49
2.500000
 49
-2.000000
 49
2.500000
 49
-2.000000
 49
2.500000
 49
-2.000000
  0
LTYPE
  2
SBK2
 70
    64
  3
______ _ _ _ ______ _ _ _ ______ _ _ _ _____  
 72
    65
 73
     8
 40
84.000000
 49
64.000000
 49
-2.000000
 49
4.000000
 49
-2.000000
 49
4.000000
 49
-2.000000
 49
4.000000
 49
-2.000000
  0
LTYPE
  2
STCH
 70
    64
  3
__ __ __ __ __ __ __ __ __ __ __ __ __ __ __
 72
    65
 73
     2
 40
3.000000
 49
1.000000
 49
-2.000000
  0
LTYPE
  2
MTCH
 70
    64
  3
_____ _ _ _____ _ _ _____ _ _ _____ _ _ ____  
 72
    65
 73
     6
 40
80.000000
 49
66.000000
 49
-2.000000
 49
4.000000
 49
-2.000000
 49
4.000000
 49
-2.000000
  0
ENDTAB
  0
TABLE
  2
LAYER
 70
     1
  0
LAYER
  2
0
 70
     0
 62
     7
  6
CONTINUOUS
  0
ENDTAB
  0
TABLE
  2
STYLE
 70
     1
  0
STYLE
  2
STANDARD
 70
     0
 40
0.000000
 41
1.000000
 50
0.000000
 71
     0
 42
0.200000
  3
txt
  4
BIGFONT
  0
ENDTAB
  0
TABLE
  2
VIEW
 70
     0
  0
ENDTAB
  0
ENDSEC
  0
SECTION
  2
BLOCKS
  0
ENDSEC
  0
SECTION
  2
ENTITIES
  0
LINE
  8
0
 10
-281.250000
 20
195.500000
 11
282.099976
 21
195.500000
  0
LINE
  8
0
 10
-281.250000
 20
195.500000
 11
-281.250000
 21
-195.000000
  0
LINE
  8
0
 10
282.099976
 20
195.500000
 11
282.099976
 21
-195.000000
  0
LINE
  8
0
 10
-281.250000
 20
-195.000000
 11
282.099976
 21
-195.000000
  0
LINE
  8
0
 10
162.099976
 20
-175.000000
 11
162.099976
 21
-195.000000
  0
LINE
  8
0
 10
162.099976
 20
-175.000000
 11
282.099976
 21
-175.000000
  0
LINE
  8
0
 10
162.099976
 20
175.500000
 11
282.099976
 21
175.500000
  0
LINE
  8
0
 10
-281.250000
 20
175.500000
 11
-161.250000
 21
175.500000
  0
LINE
  8
0
 10
162.099976
 20
195.500000
 11
162.099976
 21
175.500000
  0
LINE
  8
0
 10
-161.250000
 20
195.500000
 11
-161.250000
 21
175.500000
  0
LINE
  8
0
  6
CENTER
 62
     2
 10
-69.999985
 20
-53.141556
 11
-69.999985
 21
53.311722
  0
LINE
  8
0
  6
CENTER
 62
     2
 10
-16.402809
 20
0.000015
 11
-124.202812
 21
0.000015
  0
LINE
  8
0
 10
-20.000038
 20
-49.999985
 11
-120.000038
 21
-49.999985
  0
LINE
  8
0
 10
-19.999977
 20
50.000015
 11
-119.999977
 21
50.000015
  0
LINE
  8
0
 10
-19.999992
 20
-50.000015
 11
-19.999992
 21
49.999985
  0
LINE
  8
0
 10
-119.999992
 20
-49.999985
 11
-119.999992
 21
50.000015
  0
LINE
  8
0
  6
CENTER
 62
     2
 10
-112.499992
 20
-46.050159
 11
-112.499992
 21
-38.321033
  0
LINE
  8
0
 10
-72.999985
 20
41.500000
 11
-72.999985
 21
50.000000
  0
LINE
  8
0
 10
-66.999985
 20
41.500000
 11
-66.999985
 21
50.000000
  0
LINE
  8
0
  6
CENTER
 62
     2
 10
-108.379562
 20
-42.499985
 11
-116.491661
 21
-42.499985
  0
LINE
  8
0
  6
CENTER
 62
     2
 10
-108.133713
 20
42.500015
 11
-116.983269
 21
42.500015
  0
LINE
  8
0
  6
CENTER
 62
     2
 10
-112.499992
 20
38.165203
 11
-112.499992
 21
47.014763
  0
LINE
  8
0
 10
-79.999985
 20
29.136753
 11
-79.999985
 21
34.863255
  0
LINE
  8
0
 10
-89.999985
 20
29.136755
 11
-89.999985
 21
34.863258
  0
LINE
  8
0
 10
-79.999985
 20
29.136745
 11
-84.999985
 21
26.249994
  0
LINE
  8
0
 10
-84.999977
 20
37.750038
 11
-89.999985
 21
34.863285
  0
LINE
  8
0
 10
-85.000000
 20
26.250017
 11
-90.000000
 21
29.136766
  0
LINE
  8
0
 10
-80.000008
 20
34.863262
 11
-85.000000
 21
37.750011
  0
LINE
  8
0
 10
-50.000061
 20
-34.863167
 11
-55.000061
 21
-37.749916
  0
LINE
  8
0
 10
-54.999973
 20
-37.750004
 11
-59.999966
 21
-34.863255
  0
LINE
  8
0
 10
-59.999985
 20
-34.863255
 11
-59.999985
 21
-29.136753
  0
LINE
  8
0
 10
-55.000046
 20
-26.249924
 11
-60.000057
 21
-29.136679
  0
LINE
  8
0
 10
-49.999973
 20
-29.136730
 11
-54.999969
 21
-26.249979
  0
LINE
  8
0
 10
-49.999985
 20
-34.863258
 11
-49.999985
 21
-29.136755
  0
LINE
  8
0
 62
     2
 10
-69.999985
 20
45.552811
 11
-69.999985
 21
52.107269
  0
LINE
  8
0
  6
CENTER
 62
     2
 10
-65.057365
 20
-42.499985
 11
-75.057098
 21
-42.499985
  0
LINE
  8
0
  6
CENTER
 62
     2
 10
-27.499977
 20
38.165180
 11
-27.499977
 21
47.014740
  0
LINE
  8
0
  6
CENTER
 62
     2
 10
-31.866226
 20
42.500015
 11
-23.016670
 21
42.500015
  0
LINE
  8
0
  6
CENTER
 62
     2
 10
-27.499977
 20
-46.050182
 11
-27.499977
 21
-38.321056
  0
LINE
  8
0
  6
CENTER
 62
     2
 10
-31.620438
 20
-42.499985
 11
-23.508339
 21
-42.499985
  0
LINE
  8
0
 10
-212.000000
 20
37.500031
 11
-212.000000
 21
26.500031
  0
LINE
  8
0
 10
-212.000031
 20
26.500000
 11
-214.000031
 21
26.500000
  0
LINE
  8
0
 10
-212.000031
 20
37.500000
 11
-214.000031
 21
37.500000
  0
LINE
  8
0
 10
-201.600006
 20
34.500031
 11
-201.600006
 21
29.500031
  0
LINE
  8
0
 10
-202.800018
 20
36.500031
 11
-202.800018
 21
27.500031
  0
LINE
  8
0
 10
-201.600067
 20
29.500000
 11
-202.800049
 21
29.500000
  0
LINE
  8
0
 10
-201.600067
 20
34.500000
 11
-202.800049
 21
34.500000
  0
LINE
  8
0
 10
-202.800049
 20
36.500000
 11
-203.400055
 21
36.500000
  0
LINE
  8
0
 10
-202.800049
 20
27.500000
 11
-203.400055
 21
27.500000
  0
LINE
  8
0
 10
-203.400024
 20
36.500031
 11
-203.400024
 21
27.500031
  0
LINE
  8
0
  6
DASHED
 62
     2
 10
-202.800049
 20
30.000000
 11
-203.400055
 21
30.000000
  0
LINE
  8
0
  6
DASHED
 62
     2
 10
-202.800049
 20
34.000000
 11
-203.400055
 21
34.000000
  0
LINE
  8
0
 10
-204.000061
 20
36.999985
 11
-203.400070
 21
35.960770
  0
LINE
  8
0
 10
-203.399948
 20
28.039146
 11
-203.999939
 21
26.999933
  0
LINE
  8
0
 10
-204.000031
 20
27.000000
 11
-206.400055
 21
27.000000
  0
LINE
  8
0
 10
-204.000031
 20
37.000000
 11
-206.400055
 21
37.000000
  0
LINE
  8
0
 10
-206.999924
 20
28.039145
 11
-207.599915
 21
26.999929
  0
LINE
  8
0
 10
-207.000000
 20
35.960785
 11
-207.000000
 21
28.039276
  0
LINE
  8
0
 10
-207.600037
 20
37.000019
 11
-207.000046
 21
35.960804
  0
LINE
  8
0
 10
-207.600067
 20
27.000000
 11
-212.000031
 21
27.000000
  0
LINE
  8
0
 10
-207.600067
 20
37.000000
 11
-212.000031
 21
37.000000
  0
LINE
  8
0
 10
-207.600067
 20
32.000000
 11
-212.000031
 21
32.000000
  0
LINE
  8
0
 10
-180.000031
 20
50.000000
 11
-221.000031
 21
50.000000
  0
LINE
  8
0
 10
-180.000061
 20
-49.999992
 11
-221.000061
 21
-49.999992
  0
LINE
  8
0
  6
CENTER
 62
     2
 10
-175.552856
 20
0.000000
 11
-252.020721
 21
0.000000
  0
LINE
  8
0
 10
-180.000000
 20
50.000031
 11
-180.000000
 21
-49.999969
  0
LINE
  8
0
 10
-250.000000
 20
50.000031
 11
-250.000000
 21
-49.999969
  0
LINE
  8
0
 10
-243.000031
 20
50.000000
 11
-250.000031
 21
50.000000
  0
LINE
  8
0
 10
-243.000061
 20
-49.999992
 11
-250.000061
 21
-49.999992
  0
LINE
  8
0
 10
-195.500031
 20
12.000000
 11
-204.500031
 21
12.000000
  0
LINE
  8
0
 10
-188.000000
 20
50.000031
 11
-188.000000
 21
23.000031
  0
LINE
  8
0
 10
-221.000031
 20
29.000000
 11
-239.400055
 21
29.000000
  0
LINE
  8
0
 62
     2
 10
-221.000031
 20
34.500000
 11
-239.400055
 21
34.500000
  0
LINE
  8
0
 10
-221.000031
 20
35.000000
 11
-239.400055
 21
35.000000
  0
LINE
  8
0
 62
     2
 10
-221.000031
 20
29.500000
 11
-239.400055
 21
29.500000
  0
LINE
  8
0
 10
-214.000000
 20
50.000031
 11
-214.000000
 21
23.000031
  0
LINE
  8
0
 10
-187.500031
 20
3.500000
 11
-220.500031
 21
3.500000
  0
LINE
  8
0
 10
-187.500031
 20
11.500000
 11
-195.500031
 21
11.500000
  0
LINE
  8
0
 10
-187.500000
 20
11.500031
 11
-187.500000
 21
3.500031
  0
LINE
  8
0
 10
-220.500000
 20
11.500031
 11
-220.500000
 21
3.500031
  0
LINE
  8
0
 10
-187.500031
 20
6.250000
 11
-187.794556
 21
6.250000
  0
LINE
  8
0
 10
-187.500031
 20
8.750000
 11
-187.794556
 21
8.750000
  0
LINE
  8
0
 10
-189.000031
 20
-3.500000
 11
-211.000031
 21
-3.500000
  0
LINE
  8
0
 10
-189.000000
 20
3.500031
 11
-189.000000
 21
-3.499969
  0
LINE
  8
0
 10
-211.000000
 20
3.500031
 11
-211.000000
 21
-3.499969
  0
LINE
  8
0
 10
-187.000061
 20
-44.999992
 11
-221.000061
 21
-44.999992
  0
LINE
  8
0
 10
-192.805542
 20
8.750000
 11
-195.500031
 21
8.750000
  0
LINE
  8
0
 10
-192.805542
 20
6.250000
 11
-195.500031
 21
6.250000
  0
LINE
  8
0
 10
-220.205536
 20
8.750000
 11
-220.500031
 21
8.750000
  0
LINE
  8
0
 10
-220.205536
 20
6.250000
 11
-220.500031
 21
6.250000
  0
LINE
  8
0
 10
-204.500000
 20
12.000031
 11
-204.500000
 21
3.500031
  0
LINE
  8
0
 10
-204.500031
 20
6.250000
 11
-215.194550
 21
6.250000
  0
LINE
  8
0
 10
-204.500031
 20
8.750000
 11
-215.194550
 21
8.750000
  0
LINE
  8
0
 10
-199.271729
 20
6.250000
 11
-200.728363
 21
6.250000
  0
LINE
  8
0
 10
-199.271729
 20
8.750000
 11
-200.728363
 21
8.750000
  0
LINE
  8
0
 10
-199.271729
 20
8.750030
 11
-198.550049
 21
7.500030
  0
LINE
  8
0
 10
-201.450012
 20
7.500043
 11
-200.728317
 21
6.250031
  0
LINE
  8
0
 10
-200.728271
 20
8.749976
 11
-201.449951
 21
7.499984
  0
LINE
  8
0
 10
-198.549973
 20
7.499919
 11
-199.271652
 21
6.249934
  0
LINE
  8
0
 10
-217.300049
 20
9.299988
 11
-218.100067
 21
9.299988
  0
LINE
  8
0
 10
-217.300049
 20
5.700012
 11
-218.100067
 21
5.700012
  0
LINE
  8
0
 10
-215.900024
 20
7.900055
 11
-215.900024
 21
7.100037
  0
LINE
  8
0
 10
-219.500000
 20
7.900055
 11
-219.500000
 21
7.100037
  0
LINE
  8
0
 10
-215.900055
 20
7.100006
 11
-217.300049
 21
7.100006
  0
LINE
  8
0
 10
-215.900055
 20
7.899994
 11
-217.300049
 21
7.899994
  0
LINE
  8
0
 10
-217.300018
 20
9.300018
 11
-217.300018
 21
7.900055
  0
LINE
  8
0
 10
-218.100006
 20
9.300018
 11
-218.100006
 21
7.900055
  0
LINE
  8
0
 10
-217.300018
 20
7.100037
 11
-217.300018
 21
5.700043
  0
LINE
  8
0
 10
-218.100067
 20
7.100006
 11
-219.500031
 21
7.100006
  0
LINE
  8
0
 10
-218.100006
 20
7.100037
 11
-218.100006
 21
5.700043
  0
LINE
  8
0
 10
-218.100067
 20
7.899994
 11
-219.500031
 21
7.899994
  0
LINE
  8
0
 10
-188.500000
 20
7.900055
 11
-188.500000
 21
7.100037
  0
LINE
  8
0
 10
-188.500031
 20
7.100006
 11
-189.900055
 21
7.100006
  0
LINE
  8
0
 10
-188.500031
 20
7.899994
 11
-189.900055
 21
7.899994
  0
LINE
  8
0
 10
-189.900024
 20
9.300018
 11
-189.900024
 21
7.900055
  0
LINE
  8
0
 10
-189.900055
 20
9.299988
 11
-190.700043
 21
9.299988
  0
LINE
  8
0
 10
-190.700012
 20
9.300018
 11
-190.700012
 21
7.900055
  0
LINE
  8
0
 10
-190.700043
 20
7.899994
 11
-192.100067
 21
7.899994
  0
LINE
  8
0
 10
-190.700043
 20
7.100006
 11
-192.100067
 21
7.100006
  0
LINE
  8
0
 10
-189.900024
 20
7.100037
 11
-189.900024
 21
5.700043
  0
LINE
  8
0
 10
-190.700012
 20
7.100037
 11
-190.700012
 21
5.700043
  0
LINE
  8
0
 10
-189.900055
 20
5.700012
 11
-190.700043
 21
5.700012
  0
LINE
  8
0
 10
-192.100006
 20
7.900055
 11
-192.100006
 21
7.100037
  0
LINE
  8
0
 10
-195.500000
 20
12.000031
 11
-195.500000
 21
3.500031
  0
LINE
  8
0
 10
-204.500031
 20
11.500000
 11
-220.500031
 21
11.500000
  0
LINE
  8
0
 10
-243.000015
 20
28.039284
 11
-242.400024
 21
27.000069
  0
LINE
  8
0
 10
-240.000031
 20
27.000000
 11
-242.400055
 21
27.000000
  0
LINE
  8
0
 10
-239.399933
 20
28.039221
 11
-239.999924
 21
27.000006
  0
LINE
  8
0
 10
-239.400024
 20
35.960785
 11
-239.400024
 21
28.039276
  0
LINE
  8
0
 10
-240.000031
 20
32.000000
 11
-242.400055
 21
32.000000
  0
LINE
  8
0
 10
-242.399902
 20
36.999981
 11
-242.999908
 21
35.960743
  0
LINE
  8
0
 10
-240.000031
 20
37.000000
 11
-242.400055
 21
37.000000
  0
LINE
  8
0
 10
-240.000061
 20
37.000065
 11
-239.400055
 21
35.960823
  0
LINE
  8
0
 10
-240.500061
 20
-41.999992
 11
-243.000061
 21
-41.999992
  0
LINE
  8
0
 10
-240.500031
 20
-19.999992
 11
-243.000031
 21
-19.999992
  0
LINE
  8
0
 10
-221.000031
 20
-35.999992
 11
-240.500031
 21
-35.999992
  0
LINE
  8
0
 10
-221.000031
 20
-25.999992
 11
-240.500031
 21
-25.999992
  0
LINE
  8
0
 10
-240.500000
 20
-19.999969
 11
-240.500000
 21
-41.999969
  0
LINE
  8
0
 10
-187.000000
 20
50.000031
 11
-187.000000
 21
-49.999969
  0
LINE
  8
0
 10
-243.000000
 20
50.000031
 11
-243.000000
 21
-49.999969
  0
LINE
  8
0
 10
-195.000031
 20
15.000000
 11
-206.000031
 21
15.000000
  0
LINE
  8
0
 10
-221.000000
 20
50.000031
 11
-221.000000
 21
-49.999969
  0
LINE
  8
0
  6
PHANTOM
 62
     2
 10
-221.000031
 20
9.100006
 11
-243.000031
 21
9.100006
  0
LINE
  8
0
  6
PHANTOM
 62
     2
 10
-221.000031
 20
-9.100006
 11
-243.000031
 21
-9.100006
  0
LINE
  8
0
  6
PHANTOM
 62
     2
 10
-221.000031
 20
10.500000
 11
-243.000031
 21
10.500000
  0
LINE
  8
0
  6
PHANTOM
 62
     2
 10
-221.000031
 20
-10.500000
 11
-243.000031
 21
-10.500000
  0
LINE
  8
0
  6
CENTER
 62
     2
 10
-219.938385
 20
-9.799988
 11
-244.569733
 21
-9.799988
  0
LINE
  8
0
  6
CENTER
 62
     2
 10
-220.028290
 20
9.799988
 11
-244.569733
 21
9.799988
  0
LINE
  8
0
 10
-204.000031
 20
32.000000
 11
-206.400055
 21
32.000000
  0
LINE
  8
0
  6
CENTER
 62
     2
 10
-241.399216
 20
42.500000
 11
-251.900696
 21
42.500000
  0
LINE
  8
0
  6
CENTER
 62
     2
 10
-241.574234
 20
32.500000
 11
-251.550644
 21
32.500000
  0
LINE
  8
0
  6
CENTER
 62
     2
 10
-178.040314
 20
42.500000
 11
-190.117004
 21
42.500000
  0
LINE
  8
0
  6
CENTER
 62
     2
 10
-241.399216
 20
-42.500000
 11
-251.900696
 21
-42.500000
  0
LINE
  8
0
  6
CENTER
 62
     2
 10
-241.574234
 20
-32.500000
 11
-251.550644
 21
-32.500000
  0
LINE
  8
0
  6
CENTER
 62
     2
 10
-178.040314
 20
-42.500000
 11
-190.117004
 21
-42.500000
  0
LINE
  8
0
 10
94.999954
 20
-32.000000
 11
97.399948
 21
-32.000000
  0
LINE
  8
0
 10
34.999954
 20
-50.000000
 11
75.999954
 21
-50.000000
  0
LINE
  8
0
 10
34.999985
 20
50.000000
 11
75.999985
 21
50.000000
  0
LINE
  8
0
  6
CENTER
 62
     2
 10
31.887342
 20
0.000000
 11
106.463974
 21
0.000000
  0
LINE
  8
0
 10
35.000000
 20
-49.999985
 11
35.000000
 21
50.000015
  0
LINE
  8
0
 10
105.000000
 20
-49.999977
 11
105.000000
 21
50.000031
  0
LINE
  8
0
 10
97.999954
 20
-50.000000
 11
104.999954
 21
-50.000000
  0
LINE
  8
0
 10
97.999985
 20
50.000000
 11
104.999985
 21
50.000000
  0
LINE
  8
0
 10
49.999954
 20
-12.000000
 11
67.499954
 21
-12.000000
  0
LINE
  8
0
 10
43.000000
 20
-49.999985
 11
43.000000
 21
-19.999985
  0
LINE
  8
0
 10
76.000000
 20
-49.999985
 11
76.000000
 21
50.000015
  0
LINE
  8
0
 10
69.000000
 20
-49.999985
 11
69.000000
 21
-19.999985
  0
LINE
  8
0
 10
42.499969
 20
-3.500000
 11
75.499969
 21
-3.500000
  0
LINE
  8
0
 10
42.499954
 20
-11.500000
 11
58.499954
 21
-11.500000
  0
LINE
  8
0
 10
42.500000
 20
-11.499985
 11
42.500000
 21
-3.499985
  0
LINE
  8
0
 10
75.500000
 20
-11.499985
 11
75.500000
 21
-3.499985
  0
LINE
  8
0
 10
42.499954
 20
-6.250000
 11
42.794464
 21
-6.250000
  0
LINE
  8
0
 10
42.499954
 20
-8.750000
 11
42.794464
 21
-8.750000
  0
LINE
  8
0
 10
51.999969
 20
3.500000
 11
73.999969
 21
3.500000
  0
LINE
  8
0
 10
52.000000
 20
-3.499985
 11
52.000000
 21
3.500015
  0
LINE
  8
0
 10
74.000000
 20
-3.499985
 11
74.000000
 21
3.500015
  0
LINE
  8
0
 10
41.999969
 20
45.000000
 11
75.999969
 21
45.000000
  0
LINE
  8
0
 10
47.805450
 20
-8.750000
 11
58.499954
 21
-8.750000
  0
LINE
  8
0
 10
47.805450
 20
-6.250000
 11
58.499954
 21
-6.250000
  0
LINE
  8
0
 10
75.205444
 20
-8.750000
 11
75.499954
 21
-8.750000
  0
LINE
  8
0
 10
75.205444
 20
-6.250000
 11
75.499954
 21
-6.250000
  0
LINE
  8
0
 10
67.500000
 20
-11.999985
 11
67.500000
 21
-3.499985
  0
LINE
  8
0
 10
67.499954
 20
-6.250000
 11
70.194458
 21
-6.250000
  0
LINE
  8
0
 10
67.499954
 20
-8.750000
 11
70.194458
 21
-8.750000
  0
LINE
  8
0
 10
62.271637
 20
-6.250000
 11
63.728271
 21
-6.250000
  0
LINE
  8
0
 10
62.271637
 20
-8.750000
 11
63.728271
 21
-8.750000
  0
LINE
  8
0
 10
62.271652
 20
-8.749993
 11
61.549965
 21
-7.499995
  0
LINE
  8
0
 10
64.449974
 20
-7.499983
 11
63.728287
 21
-6.249983
  0
LINE
  8
0
 10
63.728275
 20
-8.749985
 11
64.449966
 21
-7.499986
  0
LINE
  8
0
 10
61.549950
 20
-7.499973
 11
62.271637
 21
-6.249974
  0
LINE
  8
0
 10
72.299957
 20
-9.299988
 11
73.099960
 21
-9.299988
  0
LINE
  8
0
 10
72.299957
 20
-5.700012
 11
73.099960
 21
-5.700012
  0
LINE
  8
0
 10
70.900009
 20
-7.899994
 11
70.900009
 21
-7.099991
  0
LINE
  8
0
 10
74.500000
 20
-7.899994
 11
74.500000
 21
-7.099991
  0
LINE
  8
0
 10
70.899948
 20
-7.100006
 11
72.299957
 21
-7.100006
  0
LINE
  8
0
 10
70.899948
 20
-7.899994
 11
72.299957
 21
-7.899994
  0
LINE
  8
0
 10
72.300003
 20
-9.299988
 11
72.300003
 21
-7.899994
  0
LINE
  8
0
 10
73.099991
 20
-9.299988
 11
73.099991
 21
-7.899994
  0
LINE
  8
0
 10
72.300003
 20
-7.099991
 11
72.300003
 21
-5.699997
  0
LINE
  8
0
 10
73.099960
 20
-7.100006
 11
74.499954
 21
-7.100006
  0
LINE
  8
0
 10
73.099991
 20
-7.099991
 11
73.099991
 21
-5.699997
  0
LINE
  8
0
 10
73.099960
 20
-7.899994
 11
74.499954
 21
-7.899994
  0
LINE
  8
0
 10
43.500000
 20
-7.899994
 11
43.500000
 21
-7.099991
  0
LINE
  8
0
 10
43.499954
 20
-7.100006
 11
44.899948
 21
-7.100006
  0
LINE
  8
0
 10
43.499954
 20
-7.899994
 11
44.899948
 21
-7.899994
  0
LINE
  8
0
 10
44.900009
 20
-9.299988
 11
44.900009
 21
-7.899994
  0
LINE
  8
0
 10
44.899948
 20
-9.299988
 11
45.699951
 21
-9.299988
  0
LINE
  8
0
 10
45.699997
 20
-9.299988
 11
45.699997
 21
-7.899994
  0
LINE
  8
0
 10
45.699951
 20
-7.899994
 11
47.099960
 21
-7.899994
  0
LINE
  8
0
 10
45.699951
 20
-7.100006
 11
47.099960
 21
-7.100006
  0
LINE
  8
0
 10
44.900009
 20
-7.099991
 11
44.900009
 21
-5.699997
  0
LINE
  8
0
 10
45.699997
 20
-7.099991
 11
45.699997
 21
-5.699997
  0
LINE
  8
0
 10
44.899948
 20
-5.700012
 11
45.699951
 21
-5.700012
  0
LINE
  8
0
 10
47.099991
 20
-7.899994
 11
47.099991
 21
-7.099991
  0
LINE
  8
0
 10
58.500000
 20
-11.999985
 11
58.500000
 21
-3.499985
  0
LINE
  8
0
 10
67.499954
 20
-11.500000
 11
75.499954
 21
-11.500000
  0
LINE
  8
0
 10
97.999931
 20
-28.039232
 11
97.399948
 21
-27.000023
  0
LINE
  8
0
 10
94.999954
 20
-27.000000
 11
97.399948
 21
-27.000000
  0
LINE
  8
0
 10
94.999954
 20
-32.000000
 11
97.399948
 21
-32.000000
  0
LINE
  8
0
 10
97.399971
 20
-37.000000
 11
97.999969
 21
-35.960773
  0
LINE
  8
0
 10
94.999954
 20
-37.000000
 11
97.399948
 21
-37.000000
  0
LINE
  8
0
 10
95.499969
 20
42.000000
 11
97.999969
 21
42.000000
  0
LINE
  8
0
 10
95.499969
 20
20.000000
 11
97.999969
 21
20.000000
  0
LINE
  8
0
 10
42.000000
 20
-49.999985
 11
42.000000
 21
50.000015
  0
LINE
  8
0
 10
98.000000
 20
-49.999977
 11
98.000000
 21
50.000031
  0
LINE
  8
0
 10
75.999954
 20
-29.000000
 11
94.399948
 21
-29.000000
  0
LINE
  8
0
 62
     2
 10
75.999954
 20
-29.500000
 11
94.399948
 21
-29.500000
  0
LINE
  8
0
 62
     2
 10
75.999954
 20
-34.500000
 11
94.399948
 21
-34.500000
  0
LINE
  8
0
 10
75.999954
 20
-35.000000
 11
94.399948
 21
-35.000000
  0
LINE
  8
0
 10
95.500000
 20
20.000023
 11
95.500000
 21
42.000031
  0
LINE
  8
0
 10
94.999931
 20
-36.999973
 11
94.399940
 21
-35.960762
  0
LINE
  8
0
 10
94.399963
 20
-28.039202
 11
94.999962
 21
-26.999975
  0
LINE
  8
0
 10
94.400009
 20
-35.960762
 11
94.400009
 21
-28.039192
  0
LINE
  8
0
 10
67.000000
 20
-37.499985
 11
67.000000
 21
-26.499985
  0
LINE
  8
0
 10
66.999954
 20
-26.500000
 11
68.999954
 21
-26.500000
  0
LINE
  8
0
 10
66.999954
 20
-37.500000
 11
68.999954
 21
-37.500000
  0
LINE
  8
0
 10
56.599991
 20
-34.499985
 11
56.599991
 21
-29.499985
  0
LINE
  8
0
 10
57.800003
 20
-36.499985
 11
57.800003
 21
-27.499985
  0
LINE
  8
0
 10
56.599960
 20
-29.500000
 11
57.799957
 21
-29.500000
  0
LINE
  8
0
 10
56.599960
 20
-34.500000
 11
57.799957
 21
-34.500000
  0
LINE
  8
0
 10
57.799957
 20
-36.500000
 11
58.399948
 21
-36.500000
  0
LINE
  8
0
 10
57.799957
 20
-27.500000
 11
58.399948
 21
-27.500000
  0
LINE
  8
0
 10
58.400009
 20
-36.499985
 11
58.400009
 21
-27.499985
  0
LINE
  8
0
  6
DASHED
 62
     2
 10
57.799957
 20
-30.000000
 11
58.399948
 21
-30.000000
  0
LINE
  8
0
  6
DASHED
 62
     2
 10
57.799957
 20
-34.000000
 11
58.399948
 21
-34.000000
  0
LINE
  8
0
 10
58.999954
 20
-36.999996
 11
58.399956
 21
-35.960770
  0
LINE
  8
0
 10
58.399952
 20
-28.039223
 11
58.999958
 21
-26.999981
  0
LINE
  8
0
 10
58.999939
 20
-27.000000
 11
61.399948
 21
-27.000000
  0
LINE
  8
0
 10
58.999954
 20
-37.000000
 11
61.399948
 21
-37.000000
  0
LINE
  8
0
  6
DASHED
 62
     2
 10
61.399940
 20
-36.999966
 11
61.999943
 21
-35.960732
  0
LINE
  8
0
  6
DASHED
 62
     2
 10
61.999966
 20
-28.039185
 11
61.399975
 21
-26.999971
  0
LINE
  8
0
 10
61.999954
 20
-28.039202
 11
62.599953
 21
-26.999975
  0
LINE
  8
0
 10
62.000000
 20
-35.960770
 11
62.000000
 21
-28.039230
  0
LINE
  8
0
 10
62.599941
 20
-36.999989
 11
61.999943
 21
-35.960762
  0
LINE
  8
0
  6
DASHED
 62
     2
 10
62.599945
 20
-37.000000
 11
62.999954
 21
-37.000000
  0
LINE
  8
0
  6
DASHED
 62
     2
 10
62.599945
 20
-27.000000
 11
62.999954
 21
-27.000000
  0
LINE
  8
0
 10
62.999954
 20
-27.000000
 11
66.999954
 21
-27.000000
  0
LINE
  8
0
 10
62.999954
 20
-37.000000
 11
66.999954
 21
-37.000000
  0
LINE
  8
0
 10
62.599960
 20
-32.000000
 11
66.999954
 21
-32.000000
  0
LINE
  8
0
 10
75.999969
 20
36.000000
 11
95.499969
 21
36.000000
  0
LINE
  8
0
 10
75.999969
 20
26.000000
 11
95.499969
 21
26.000000
  0
LINE
  8
0
  6
PHANTOM
 62
     2
 10
75.999969
 20
9.100006
 11
97.999969
 21
9.100006
  0
LINE
  8
0
  6
PHANTOM
 62
     2
 10
75.999954
 20
-9.100006
 11
97.999954
 21
-9.100006
  0
LINE
  8
0
  6
PHANTOM
 62
     2
 10
75.999954
 20
-10.500000
 11
97.999954
 21
-10.500000
  0
LINE
  8
0
  6
PHANTOM
 62
     2
 10
75.999969
 20
10.500000
 11
97.999969
 21
10.500000
  0
LINE
  8
0
  6
CENTER
 62
     2
 10
75.422913
 20
-9.799988
 11
98.815002
 21
-9.799988
  0
LINE
  8
0
  6
CENTER
 62
     2
 10
75.042572
 20
9.800003
 11
98.624832
 21
9.800003
  0
LINE
  8
0
 10
58.999954
 20
-32.000000
 11
61.399948
 21
-32.000000
  0
LINE
  8
0
  6
CENTER
 62
     2
 10
96.368729
 20
42.500000
 11
106.805305
 21
42.500000
  0
LINE
  8
0
  6
CENTER
 62
     2
 10
32.551620
 20
42.500000
 11
44.528023
 21
42.500000
  0
LINE
  8
0
  6
CENTER
 62
     2
 10
96.368729
 20
32.500000
 11
106.805305
 21
32.500000
  0
LINE
  8
0
  6
CENTER
 62
     2
 10
32.551620
 20
-42.500000
 11
44.528023
 21
-42.500000
  0
LINE
  8
0
  6
CENTER
 62
     2
 10
96.368729
 20
-42.500000
 11
106.805305
 21
-42.500000
  0
LINE
  8
0
  6
CENTER
 62
     2
 10
96.368729
 20
-32.500000
 11
106.805305
 21
-32.500000
  0
LINE
  8
0
 10
-20.000008
 20
104.999985
 11
-20.000008
 21
111.999985
  0
LINE
  8
0
 10
-120.000008
 20
104.999985
 11
-120.000008
 21
111.999985
  0
LINE
  8
0
  6
CENTER
 62
     2
 10
-70.000000
 20
100.552795
 11
-70.000000
 21
176.204453
  0
LINE
  8
0
 10
-20.000008
 20
105.000000
 11
-120.000008
 21
105.000000
  0
LINE
  8
0
 10
-42.000000
 20
146.000015
 11
-93.000000
 21
146.000015
  0
LINE
  8
0
 10
-20.000008
 20
168.000015
 11
-120.000008
 21
168.000015
  0
LINE
  8
0
 10
-20.000008
 20
175.000015
 11
-120.000008
 21
175.000015
  0
LINE
  8
0
 10
-20.000008
 20
167.999985
 11
-20.000008
 21
174.999985
  0
LINE
  8
0
 10
-120.000008
 20
167.999985
 11
-120.000008
 21
174.999985
  0
LINE
  8
0
 10
-42.000000
 20
111.999985
 11
-42.000000
 21
122.999985
  0
LINE
  8
0
 10
-93.000000
 20
111.999985
 11
-93.000000
 21
145.999985
  0
LINE
  8
0
 10
-20.000008
 20
112.000000
 11
-52.000000
 21
112.000000
  0
LINE
  8
0
 10
-93.000000
 20
112.000000
 11
-120.000008
 21
112.000000
  0
LINE
  8
0
 10
-77.500000
 20
112.999985
 11
-77.500000
 21
138.999985
  0
LINE
  8
0
 10
-77.500000
 20
139.000000
 11
-93.000000
 21
139.000000
  0
LINE
  8
0
 10
-77.500000
 20
113.000000
 11
-93.000000
 21
113.000000
  0
LINE
  8
0
 10
-52.000000
 20
111.999985
 11
-52.000000
 21
145.999985
  0
LINE
  8
0
 10
-49.500000
 20
165.499985
 11
-49.500000
 21
167.999985
  0
LINE
  8
0
 10
-71.500000
 20
165.499985
 11
-71.500000
 21
167.999985
  0
LINE
  8
0
 10
-80.000008
 20
164.999954
 11
-81.039230
 21
164.399963
  0
LINE
  8
0
 10
-81.039230
 20
164.400009
 11
-88.960770
 21
164.400009
  0
LINE
  8
0
 10
-88.960762
 20
164.399979
 11
-89.999977
 21
164.999969
  0
LINE
  8
0
 10
-37.000008
 20
122.999985
 11
-37.000008
 21
144.999985
  0
LINE
  8
0
 10
-37.000008
 20
145.000015
 11
-47.000000
 21
145.000015
  0
LINE
  8
0
 10
-93.000000
 20
112.500000
 11
-98.000000
 21
112.500000
  0
LINE
  8
0
 10
-93.000000
 20
145.000015
 11
-98.000000
 21
145.000015
  0
LINE
  8
0
 10
-98.000000
 20
136.000000
 11
-104.000008
 21
136.000000
  0
LINE
  8
0
 10
-98.000000
 20
114.000000
 11
-104.000008
 21
114.000000
  0
LINE
  8
0
 10
-104.000008
 20
113.999985
 11
-104.000008
 21
122.249985
  0
LINE
  8
0
 10
-98.000000
 20
112.499985
 11
-98.000000
 21
144.999985
  0
LINE
  8
0
 10
-98.000000
 20
120.500000
 11
-103.000008
 21
120.500000
  0
LINE
  8
0
 10
-98.000000
 20
129.500000
 11
-103.000008
 21
129.500000
  0
LINE
  8
0
 10
-103.000008
 20
120.499985
 11
-103.000008
 21
129.499985
  0
LINE
  8
0
 10
-106.799995
 20
122.249985
 11
-106.799995
 21
127.749985
  0
LINE
  8
0
 10
-103.799995
 20
127.750000
 11
-106.799995
 21
127.750000
  0
LINE
  8
0
 10
-103.799995
 20
122.250000
 11
-106.799995
 21
122.250000
  0
LINE
  8
0
 10
-104.000008
 20
127.749985
 11
-104.000008
 21
135.999985
  0
LINE
  8
0
 10
-103.799995
 20
121.999985
 11
-103.799995
 21
127.999985
  0
LINE
  8
0
 10
-103.000008
 20
122.000000
 11
-103.799995
 21
122.000000
  0
LINE
  8
0
 10
-103.000008
 20
128.000000
 11
-103.799995
 21
128.000000
  0
LINE
  8
0
 10
-104.000008
 20
128.500000
 11
-106.000008
 21
128.500000
  0
LINE
  8
0
 10
-104.000008
 20
133.500000
 11
-106.000008
 21
133.500000
  0
LINE
  8
0
 10
-106.000008
 20
128.499985
 11
-106.000008
 21
133.499985
  0
LINE
  8
0
 10
-106.000008
 20
129.000000
 11
-118.587646
 21
129.000000
  0
LINE
  8
0
 10
-106.000008
 20
133.000000
 11
-116.278244
 21
133.000000
  0
LINE
  8
0
  6
CENTER
 62
     2
 10
-20.000008
 20
148.000015
 11
-120.000008
 21
148.000015
  0
LINE
  8
0
  6
CENTER
 62
     2
 10
-20.000008
 20
155.000015
 11
-120.000008
 21
155.000015
  0
LINE
  8
0
  6
CENTER
 62
     2
 10
-20.000008
 20
147.999985
 11
-20.000008
 21
154.999985
  0
LINE
  8
0
  6
CENTER
 62
     2
 10
-120.000008
 20
147.999985
 11
-120.000008
 21
154.999985
  0
LINE
  8
0
 10
-65.500000
 20
145.999985
 11
-65.500000
 21
165.499985
  0
LINE
  8
0
 10
-55.500000
 20
145.999985
 11
-55.500000
 21
165.499985
  0
LINE
  8
0
 10
-88.960770
 20
128.399963
 11
-90.000008
 21
128.999969
  0
LINE
  8
0
 10
-79.500000
 20
137.000000
 11
-90.500000
 21
137.000000
  0
LINE
  8
0
 10
-90.500000
 20
136.999985
 11
-90.500000
 21
138.999985
  0
LINE
  8
0
 10
-79.500000
 20
136.999985
 11
-79.500000
 21
138.999985
  0
LINE
  8
0
 10
-80.500000
 20
127.800003
 11
-89.500000
 21
127.800003
  0
LINE
  8
0
 10
-87.500000
 20
126.599991
 11
-87.500000
 21
127.799988
  0
LINE
  8
0
 10
-82.500000
 20
126.599991
 11
-82.500000
 21
127.799988
  0
LINE
  8
0
 10
-80.500000
 20
127.799988
 11
-80.500000
 21
128.399979
  0
LINE
  8
0
 10
-89.500000
 20
127.799988
 11
-89.500000
 21
128.399979
  0
LINE
  8
0
 10
-80.500000
 20
128.400009
 11
-89.500000
 21
128.400009
  0
LINE
  8
0
  6
DASHED
 62
     2
 10
-87.000000
 20
127.799988
 11
-87.000000
 21
128.399979
  0
LINE
  8
0
  6
DASHED
 62
     2
 10
-83.000000
 20
127.799988
 11
-83.000000
 21
128.399979
  0
LINE
  8
0
 10
-80.000015
 20
128.999954
 11
-81.039246
 21
128.399963
  0
LINE
  8
0
 10
-90.000000
 20
128.999969
 11
-90.000000
 21
131.399979
  0
LINE
  8
0
 10
-80.000000
 20
128.999985
 11
-80.000000
 21
131.399979
  0
LINE
  8
0
 10
-88.960785
 20
131.999985
 11
-90.000023
 21
132.599991
  0
LINE
  8
0
 10
-81.039230
 20
132.000000
 11
-88.960770
 21
132.000000
  0
LINE
  8
0
 10
-79.999977
 20
132.599930
 11
-81.039207
 21
131.999924
  0
LINE
  8
0
 10
-90.000000
 20
132.599976
 11
-90.000000
 21
136.999985
  0
LINE
  8
0
 10
-80.000000
 20
132.599976
 11
-80.000000
 21
136.999985
  0
LINE
  8
0
 10
-85.000000
 20
132.599991
 11
-85.000000
 21
136.999985
  0
LINE
  8
0
 10
-82.500000
 20
126.599991
 11
-87.500000
 21
126.599991
  0
LINE
  8
0
 10
-88.000000
 20
145.999985
 11
-88.000000
 21
164.399979
  0
LINE
  8
0
 62
     2
 10
-87.500000
 20
145.999985
 11
-87.500000
 21
164.399979
  0
LINE
  8
0
 62
     2
 10
-82.500000
 20
145.999985
 11
-82.500000
 21
164.399979
  0
LINE
  8
0
 10
-82.000000
 20
145.999985
 11
-82.000000
 21
164.399979
  0
LINE
  8
0
 10
-49.500000
 20
165.500015
 11
-71.500000
 21
165.500015
  0
LINE
  8
0
 10
-79.999992
 20
167.400009
 11
-81.039215
 21
168.000000
  0
LINE
  8
0
 10
-88.960754
 20
167.999969
 11
-89.999985
 21
167.399979
  0
LINE
  8
0
 10
-90.000000
 20
164.999985
 11
-90.000000
 21
167.399979
  0
LINE
  8
0
 10
-85.000000
 20
164.999985
 11
-85.000000
 21
167.399979
  0
LINE
  8
0
 10
-80.000000
 20
164.999985
 11
-80.000000
 21
167.399979
  0
LINE
  8
0
  6
CENTER
 62
     2
 10
-79.099998
 20
145.258591
 11
-79.099998
 21
169.400101
  0
LINE
  8
0
  6
CENTER
 62
     2
 10
-79.799995
 20
145.999985
 11
-79.799995
 21
167.999985
  0
LINE
  8
0
  6
CENTER
 62
     2
 10
-78.400002
 20
145.999985
 11
-78.400002
 21
167.999985
  0
LINE
  8
0
 10
-37.000008
 20
123.000000
 11
-47.000000
 21
123.000000
  0
LINE
  8
0
 10
-42.000000
 20
144.999985
 11
-42.000000
 21
145.999985
  0
LINE
  8
0
 10
-85.000000
 20
128.999985
 11
-85.000000
 21
131.399979
  0
LINE
  8
0
 10
-47.000000
 20
111.999985
 11
-47.000000
 21
145.999985
  0
LINE
  8
0
 10
-35.000008
 20
141.000000
 11
-22.700871
 21
141.000000
  0
LINE
  8
0
 10
-35.000008
 20
137.000000
 11
-25.010273
 21
137.000000
  0
LINE
  8
0
 10
-35.000008
 20
136.499985
 11
-35.000008
 21
141.499985
  0
LINE
  8
0
 10
-37.000008
 20
141.500000
 11
-35.000008
 21
141.500000
  0
LINE
  8
0
 10
-37.000008
 20
136.500000
 11
-35.000008
 21
136.500000
  0
LINE
  8
0
 10
-37.000008
 20
130.250000
 11
-34.000008
 21
130.250000
  0
LINE
  8
0
 10
-34.000008
 20
130.249985
 11
-34.000008
 21
135.749985
  0
LINE
  8
0
 10
-37.000008
 20
135.750000
 11
-34.000008
 21
135.750000
  0
LINE
  8
0
  6
PHANTOM
 62
     2
 10
-119.906265
 20
126.716095
 11
-114.231033
 21
136.545883
  0
LINE
  8
0
  6
PHANTOM
 62
     2
 10
-121.906250
 20
126.716103
 11
-116.231026
 21
136.545883
  0
LINE
  8
0
  6
PHANTOM
 62
     2
 10
-24.906237
 20
133.716095
 11
-19.231009
 21
143.545868
  0
LINE
  8
0
  6
PHANTOM
 62
     2
 10
-26.906240
 20
133.716095
 11
-21.231012
 21
143.545868
  0
LINE
  8
0
  6
CENTER
 62
     2
 10
-112.500008
 20
101.523735
 11
-112.500008
 21
115.428787
  0
LINE
  8
0
  6
CENTER
 62
     2
 10
-112.500008
 20
164.096436
 11
-112.500008
 21
179.160248
  0
LINE
  8
0
  6
CENTER
 62
     2
 10
-102.500008
 20
164.096436
 11
-102.500008
 21
179.160248
  0
LINE
  8
0
  6
CENTER
 62
     2
 10
-27.499992
 20
164.096436
 11
-27.499992
 21
179.160248
  0
LINE
  8
0
  6
CENTER
 62
     2
 10
-37.499992
 20
164.096436
 11
-37.499992
 21
179.160248
  0
LINE
  8
0
  6
CENTER
 62
     2
 10
-27.499992
 20
101.523735
 11
-27.499992
 21
115.428787
  0
LINE
  8
0
 10
-119.999992
 20
-105.000000
 11
-119.999992
 21
-112.000000
  0
LINE
  8
0
 10
-19.999992
 20
-105.000000
 11
-19.999992
 21
-112.000000
  0
LINE
  8
0
  6
CENTER
 62
     2
 10
-70.000000
 20
-100.552811
 11
-70.000000
 21
-178.250732
  0
LINE
  8
0
 10
-120.000023
 20
-105.000000
 11
-20.000023
 21
-105.000000
  0
LINE
  8
0
 10
-98.000031
 20
-146.000000
 11
-47.000031
 21
-146.000000
  0
LINE
  8
0
 10
-120.000023
 20
-168.000000
 11
-20.000023
 21
-168.000000
  0
LINE
  8
0
 10
-120.000023
 20
-175.000000
 11
-20.000023
 21
-175.000000
  0
LINE
  8
0
 10
-119.999992
 20
-168.000000
 11
-119.999992
 21
-175.000000
  0
LINE
  8
0
 10
-19.999992
 20
-168.000000
 11
-19.999992
 21
-175.000000
  0
LINE
  8
0
 10
-98.000000
 20
-112.000000
 11
-98.000000
 21
-123.000000
  0
LINE
  8
0
 10
-47.000000
 20
-112.000000
 11
-47.000000
 21
-146.000000
  0
LINE
  8
0
 10
-120.000023
 20
-112.000000
 11
-88.000031
 21
-112.000000
  0
LINE
  8
0
 10
-47.000031
 20
-112.000000
 11
-20.000023
 21
-112.000000
  0
LINE
  8
0
 10
-62.500000
 20
-113.000000
 11
-62.500000
 21
-139.000000
  0
LINE
  8
0
 10
-62.500031
 20
-139.000000
 11
-47.000031
 21
-139.000000
  0
LINE
  8
0
 10
-62.500031
 20
-113.000000
 11
-47.000031
 21
-113.000000
  0
LINE
  8
0
 10
-88.000000
 20
-112.000000
 11
-88.000000
 21
-146.000000
  0
LINE
  8
0
 10
-90.500000
 20
-165.500000
 11
-90.500000
 21
-168.000000
  0
LINE
  8
0
 10
-68.500000
 20
-165.500000
 11
-68.500000
 21
-168.000000
  0
LINE
  8
0
 10
-60.000031
 20
-164.999985
 11
-58.960800
 21
-164.399994
  0
LINE
  8
0
 10
-58.960800
 20
-164.400009
 11
-51.039261
 21
-164.400009
  0
LINE
  8
0
 10
-51.039230
 20
-164.399979
 11
-50.000015
 21
-164.999969
  0
LINE
  8
0
 10
-102.999992
 20
-123.000000
 11
-102.999992
 21
-145.000000
  0
LINE
  8
0
 10
-103.000023
 20
-145.000000
 11
-93.000031
 21
-145.000000
  0
LINE
  8
0
 10
-47.000031
 20
-112.500000
 11
-42.000031
 21
-112.500000
  0
LINE
  8
0
 10
-47.000031
 20
-145.000000
 11
-42.000031
 21
-145.000000
  0
LINE
  8
0
 10
-42.000031
 20
-136.000000
 11
-36.000023
 21
-136.000000
  0
LINE
  8
0
 10
-42.000031
 20
-114.000000
 11
-36.000023
 21
-114.000000
  0
LINE
  8
0
 10
-35.999992
 20
-114.000000
 11
-35.999992
 21
-122.250000
  0
LINE
  8
0
 10
-42.000000
 20
-112.500000
 11
-42.000000
 21
-145.000000
  0
LINE
  8
0
 10
-42.000031
 20
-120.500000
 11
-37.000023
 21
-120.500000
  0
LINE
  8
0
 10
-42.000031
 20
-129.500000
 11
-37.000023
 21
-129.500000
  0
LINE
  8
0
 10
-36.999992
 20
-120.500000
 11
-36.999992
 21
-129.500000
  0
LINE
  8
0
 10
-33.200005
 20
-122.250000
 11
-33.200005
 21
-127.750000
  0
LINE
  8
0
 10
-36.200035
 20
-127.750000
 11
-33.200035
 21
-127.750000
  0
LINE
  8
0
 10
-36.200035
 20
-122.250000
 11
-33.200035
 21
-122.250000
  0
LINE
  8
0
 10
-35.999992
 20
-127.750000
 11
-35.999992
 21
-136.000000
  0
LINE
  8
0
 10
-36.200005
 20
-122.000000
 11
-36.200005
 21
-128.000000
  0
LINE
  8
0
 10
-37.000023
 20
-122.000000
 11
-36.200035
 21
-122.000000
  0
LINE
  8
0
 10
-37.000023
 20
-128.000000
 11
-36.200035
 21
-128.000000
  0
LINE
  8
0
 10
-36.000023
 20
-128.500000
 11
-34.000023
 21
-128.500000
  0
LINE
  8
0
 10
-36.000023
 20
-133.500000
 11
-34.000023
 21
-133.500000
  0
LINE
  8
0
 10
-33.999992
 20
-128.500000
 11
-33.999992
 21
-133.500000
  0
LINE
  8
0
 10
-34.000023
 20
-129.000000
 11
-21.820774
 21
-129.000000
  0
LINE
  8
0
 10
-34.000023
 20
-133.000000
 11
-24.130177
 21
-133.000000
  0
LINE
  8
0
  6
CENTER
 62
     2
 10
-120.000023
 20
-148.000000
 11
-20.000023
 21
-148.000000
  0
LINE
  8
0
  6
CENTER
 62
     2
 10
-120.000023
 20
-155.000000
 11
-20.000023
 21
-155.000000
  0
LINE
  8
0
  6
CENTER
 62
     2
 10
-119.999992
 20
-148.000000
 11
-119.999992
 21
-155.000000
  0
LINE
  8
0
  6
CENTER
 62
     2
 10
-19.999992
 20
-148.000000
 11
-19.999992
 21
-155.000000
  0
LINE
  8
0
 10
-74.500000
 20
-146.000000
 11
-74.500000
 21
-165.500000
  0
LINE
  8
0
 10
-84.500000
 20
-146.000000
 11
-84.500000
 21
-165.500000
  0
LINE
  8
0
 10
-51.039272
 20
-128.399994
 11
-50.000031
 21
-129.000000
  0
LINE
  8
0
 10
-60.500031
 20
-137.000000
 11
-49.500031
 21
-137.000000
  0
LINE
  8
0
 10
-49.500000
 20
-137.000000
 11
-49.500000
 21
-139.000000
  0
LINE
  8
0
 10
-60.500000
 20
-137.000000
 11
-60.500000
 21
-139.000000
  0
LINE
  8
0
 10
-59.500031
 20
-127.800003
 11
-50.500031
 21
-127.800003
  0
LINE
  8
0
 10
-52.500000
 20
-126.600006
 11
-52.500000
 21
-127.800003
  0
LINE
  8
0
 10
-57.500000
 20
-126.600006
 11
-57.500000
 21
-127.800003
  0
LINE
  8
0
 10
-59.500000
 20
-127.800003
 11
-59.500000
 21
-128.399994
  0
LINE
  8
0
 10
-50.500000
 20
-127.800003
 11
-50.500000
 21
-128.399994
  0
LINE
  8
0
 10
-59.500031
 20
-128.400009
 11
-50.500031
 21
-128.400009
  0
LINE
  8
0
  6
DASHED
 62
     2
 10
-53.000000
 20
-127.800003
 11
-53.000000
 21
-128.399994
  0
LINE
  8
0
  6
DASHED
 62
     2
 10
-57.000000
 20
-127.800003
 11
-57.000000
 21
-128.399994
  0
LINE
  8
0
 10
-60.000000
 20
-128.999985
 11
-58.960773
 21
-128.399994
  0
LINE
  8
0
 10
-50.000000
 20
-128.999985
 11
-50.000000
 21
-131.399994
  0
LINE
  8
0
 10
-60.000000
 20
-129.000000
 11
-60.000000
 21
-131.399994
  0
LINE
  8
0
 10
-51.039249
 20
-132.000000
 11
-50.000019
 21
-132.600006
  0
LINE
  8
0
 10
-58.960800
 20
-132.000000
 11
-51.039261
 21
-132.000000
  0
LINE
  8
0
 10
-60.000015
 20
-132.599991
 11
-58.960789
 21
-131.999985
  0
LINE
  8
0
 10
-50.000000
 20
-132.599991
 11
-50.000000
 21
-137.000000
  0
LINE
  8
0
 10
-60.000000
 20
-132.599991
 11
-60.000000
 21
-137.000000
  0
LINE
  8
0
 10
-55.000000
 20
-132.600006
 11
-55.000000
 21
-137.000000
  0
LINE
  8
0
 10
-57.500031
 20
-126.599991
 11
-52.500031
 21
-126.599991
  0
LINE
  8
0
 10
-52.000000
 20
-146.000000
 11
-52.000000
 21
-164.399994
  0
LINE
  8
0
 62
     2
 10
-52.500000
 20
-146.000000
 11
-52.500000
 21
-164.399994
  0
LINE
  8
0
 62
     2
 10
-57.500000
 20
-146.000000
 11
-57.500000
 21
-164.399994
  0
LINE
  8
0
 10
-58.000000
 20
-146.000000
 11
-58.000000
 21
-164.399994
  0
LINE
  8
0
 10
-90.500031
 20
-165.500000
 11
-68.500031
 21
-165.500000
  0
LINE
  8
0
 10
-60.000000
 20
-167.400024
 11
-58.960773
 21
-168.000031
  0
LINE
  8
0
 10
-51.039288
 20
-168.000000
 11
-50.000053
 21
-167.399994
  0
LINE
  8
0
 10
-50.000000
 20
-165.000000
 11
-50.000000
 21
-167.399994
  0
LINE
  8
0
 10
-55.000000
 20
-165.000000
 11
-55.000000
 21
-167.399994
  0
LINE
  8
0
 10
-60.000000
 20
-165.000000
 11
-60.000000
 21
-167.399994
  0
LINE
  8
0
  6
CENTER
 62
     2
 10
-60.900002
 20
-145.258606
 11
-60.900002
 21
-169.400116
  0
LINE
  8
0
  6
CENTER
 62
     2
 10
-60.200005
 20
-146.000000
 11
-60.200005
 21
-168.000000
  0
LINE
  8
0
  6
CENTER
 62
     2
 10
-61.599998
 20
-146.000000
 11
-61.599998
 21
-168.000000
  0
LINE
  8
0
 10
-103.000023
 20
-123.000000
 11
-93.000031
 21
-123.000000
  0
LINE
  8
0
 10
-98.000000
 20
-145.000000
 11
-98.000000
 21
-146.000000
  0
LINE
  8
0
 10
-55.000000
 20
-129.000000
 11
-55.000000
 21
-131.399994
  0
LINE
  8
0
 10
-93.000000
 20
-112.000000
 11
-93.000000
 21
-146.000000
  0
LINE
  8
0
 10
-105.000023
 20
-141.000000
 11
-117.130173
 21
-141.000000
  0
LINE
  8
0
 10
-105.000023
 20
-137.000000
 11
-114.820770
 21
-137.000000
  0
LINE
  8
0
 10
-104.999992
 20
-136.500000
 11
-104.999992
 21
-141.500000
  0
LINE
  8
0
 10
-103.000023
 20
-141.500000
 11
-105.000023
 21
-141.500000
  0
LINE
  8
0
 10
-103.000023
 20
-136.500000
 11
-105.000023
 21
-136.500000
  0
LINE
  8
0
 10
-103.000023
 20
-130.250000
 11
-106.000023
 21
-130.250000
  0
LINE
  8
0
 10
-105.999992
 20
-130.250000
 11
-105.999992
 21
-135.750000
  0
LINE
  8
0
 10
-103.000023
 20
-135.750000
 11
-106.000023
 21
-135.750000
  0
LINE
  8
0
  6
CENTER
 62
     2
 10
-118.870941
 20
-144.015091
 11
-112.759819
 21
-133.430328
  0
LINE
  8
0
  6
CENTER
 62
     2
 10
-120.791962
 20
-143.878296
 11
-114.759819
 21
-133.430328
  0
LINE
  8
0
  6
CENTER
 62
     2
 10
-24.155615
 20
-136.508179
 11
-17.995581
 21
-125.838684
  0
LINE
  8
0
  6
CENTER
 62
     2
 10
-25.988817
 20
-136.219269
 11
-19.759817
 21
-125.430321
  0
LINE
  8
0
  6
CENTER
 62
     2
 10
-112.499992
 20
-100.364983
 11
-112.499992
 21
-116.008163
  0
LINE
  8
0
  6
CENTER
 62
     2
 10
-112.499992
 20
-164.096436
 11
-112.499992
 21
-180.319000
  0
LINE
  8
0
  6
CENTER
 62
     2
 10
-102.499992
 20
-179.635010
 11
-102.499992
 21
-163.991837
  0
LINE
  8
0
  6
CENTER
 62
     2
 10
-27.500008
 20
-100.364983
 11
-27.500008
 21
-116.008163
  0
LINE
  8
0
  6
CENTER
 62
     2
 10
-37.500008
 20
-179.635010
 11
-37.500008
 21
-163.991837
  0
LINE
  8
0
  6
CENTER
 62
     2
 10
-27.500008
 20
-164.096436
 11
-27.500008
 21
-180.319000
  0
LINE
  8
0
 10
147.999939
 20
-49.999992
 11
247.999939
 21
-49.999992
  0
LINE
  8
0
 10
147.999969
 20
50.000008
 11
247.999969
 21
50.000008
  0
LINE
  8
0
 10
148.000000
 20
-50.000069
 11
148.000000
 21
49.999931
  0
LINE
  8
0
  6
CENTER
 62
     2
 10
198.000000
 20
-54.552612
 11
198.000000
 21
54.027718
  0
LINE
  8
0
 10
247.999969
 20
-50.000099
 11
247.999969
 21
49.999901
  0
LINE
  8
0
  6
CENTER
 62
     2
 10
150.605438
 20
42.500008
 11
160.286560
 21
42.500008
  0
LINE
  8
0
  6
CENTER
 62
     2
 10
155.500000
 20
36.766319
 11
155.500000
 21
48.107048
  0
LINE
  8
0
  6
CENTER
 62
     2
 10
161.116364
 20
32.500008
 11
169.414474
 21
32.500008
  0
LINE
  8
0
  6
CENTER
 62
     2
 10
165.500000
 20
28.468208
 11
165.500000
 21
36.213112
  0
LINE
  8
0
  6
CENTER
 62
     2
 10
165.500000
 20
-3.894386
 11
165.500000
 21
4.127113
  0
LINE
  8
0
  6
CENTER
 62
     2
 10
155.500000
 20
-3.894386
 11
155.500000
 21
4.127113
  0
LINE
  8
0
  6
CENTER
 62
     2
 10
193.755569
 20
32.500008
 11
202.330276
 21
32.500008
  0
LINE
  8
0
  6
CENTER
 62
     2
 10
193.755569
 20
42.500008
 11
202.053665
 21
42.500008
  0
LINE
  8
0
 10
222.800064
 20
6.749977
 11
221.343430
 21
6.749977
  0
LINE
  8
0
 10
222.800064
 20
4.249977
 11
221.343430
 21
4.249977
  0
LINE
  8
0
 10
222.800003
 20
6.749872
 11
223.521698
 21
5.499859
  0
LINE
  8
0
 10
220.621658
 20
5.499801
 11
221.343353
 21
4.249801
  0
LINE
  8
0
 10
221.343475
 20
6.749934
 11
220.621780
 21
5.499922
  0
LINE
  8
0
 10
223.521774
 20
5.499904
 11
222.800095
 21
4.249919
  0
LINE
  8
0
 10
230.449997
 20
17.499914
 11
229.728317
 21
16.249929
  0
LINE
  8
0
 10
229.728180
 20
18.749849
 11
230.449875
 21
17.499836
  0
LINE
  8
0
 10
229.728256
 20
18.749977
 11
228.271652
 21
18.749977
  0
LINE
  8
0
 10
229.728256
 20
16.249977
 11
228.271652
 21
16.249977
  0
LINE
  8
0
 10
227.549881
 20
17.499849
 11
228.271561
 21
16.249849
  0
LINE
  8
0
 10
228.271698
 20
18.749945
 11
227.550003
 21
17.499933
  0
LINE
  8
0
 10
237.378082
 20
5.499975
 11
236.656387
 21
4.249963
  0
LINE
  8
0
 10
236.656357
 20
6.749865
 11
237.378052
 21
5.499853
  0
LINE
  8
0
 10
236.656464
 20
6.749977
 11
235.199875
 21
6.749977
  0
LINE
  8
0
 10
236.656464
 20
4.249977
 11
235.199844
 21
4.249977
  0
LINE
  8
0
 10
234.478058
 20
5.499865
 11
235.199768
 21
4.249833
  0
LINE
  8
0
 10
235.199844
 20
6.749907
 11
234.478149
 21
5.499895
  0
LINE
  8
0
 10
174.656403
 20
-6.750056
 11
175.378098
 21
-5.500044
  0
LINE
  8
0
 10
175.378128
 20
-5.500100
 11
174.656448
 21
-4.250100
  0
LINE
  8
0
 10
173.199844
 20
-4.250000
 11
174.656479
 21
-4.250000
  0
LINE
  8
0
 10
172.478073
 20
-5.500080
 11
173.199768
 21
-4.250068
  0
LINE
  8
0
 10
173.199844
 20
-6.750099
 11
172.478165
 21
-5.500100
  0
LINE
  8
0
 10
173.199844
 20
-6.750000
 11
174.656479
 21
-6.750000
  0
LINE
  8
0
 10
160.799988
 20
-6.750028
 11
161.521683
 21
-5.500029
  0
LINE
  8
0
 10
161.521729
 20
-5.500083
 11
160.800034
 21
-4.250071
  0
LINE
  8
0
 10
159.343430
 20
-4.250000
 11
160.800064
 21
-4.250000
  0
LINE
  8
0
 10
158.621689
 20
-5.500066
 11
159.343384
 21
-4.250068
  0
LINE
  8
0
 10
159.343445
 20
-6.750091
 11
158.621750
 21
-5.500078
  0
LINE
  8
0
 10
159.343430
 20
-6.750000
 11
160.800034
 21
-6.750000
  0
LINE
  8
0
 10
168.449982
 20
-17.500071
 11
167.728287
 21
-16.250071
  0
LINE
  8
0
 10
166.271652
 20
-16.250000
 11
167.728256
 21
-16.250000
  0
LINE
  8
0
 10
165.549866
 20
-17.500071
 11
166.271561
 21
-16.250072
  0
LINE
  8
0
 10
166.271637
 20
-18.750088
 11
165.549957
 21
-17.500088
  0
LINE
  8
0
 10
166.271652
 20
-18.750000
 11
167.728256
 21
-18.750000
  0
LINE
  8
0
 10
167.728210
 20
-18.750034
 11
168.449890
 21
-17.500050
  0
LINE
  8
0
  6
CENTER
 62
     2
 10
143.413757
 20
0.000000
 11
251.950409
 21
0.000000
  0
LINE
  8
0
  6
CENTER
 62
     2
 10
193.755569
 20
-32.500008
 11
202.330276
 21
-32.500008
  0
LINE
  8
0
  6
CENTER
 62
     2
 10
193.755569
 20
-42.500008
 11
202.053665
 21
-42.500008
  0
LINE
  8
0
  6
CENTER
 62
     2
 10
230.500000
 20
-3.894386
 11
230.500000
 21
4.127113
  0
LINE
  8
0
  6
CENTER
 62
     2
 10
240.500000
 20
-3.894386
 11
240.500000
 21
4.127113
  0
LINE
  8
0
  6
CENTER
 62
     2
 10
234.883636
 20
32.500008
 11
226.585526
 21
32.500008
  0
LINE
  8
0
  6
CENTER
 62
     2
 10
230.500000
 20
28.468208
 11
230.500000
 21
36.213112
  0
LINE
  8
0
  6
CENTER
 62
     2
 10
240.500000
 20
36.766319
 11
240.500000
 21
48.107048
  0
LINE
  8
0
  6
CENTER
 62
     2
 10
245.394562
 20
42.500008
 11
235.713440
 21
42.500008
  0
LINE
  8
0
  6
CENTER
 62
     2
 10
230.500000
 20
-28.468208
 11
230.500000
 21
-36.213112
  0
LINE
  8
0
  6
CENTER
 62
     2
 10
234.883636
 20
-32.500008
 11
226.585526
 21
-32.500008
  0
LINE
  8
0
  6
CENTER
 62
     2
 10
240.500000
 20
-36.766319
 11
240.500000
 21
-48.107048
  0
LINE
  8
0
  6
CENTER
 62
     2
 10
245.394562
 20
-42.500008
 11
235.713440
 21
-42.500008
  0
LINE
  8
0
  6
CENTER
 62
     2
 10
155.500000
 20
-36.766319
 11
155.500000
 21
-48.107048
  0
LINE
  8
0
  6
CENTER
 62
     2
 10
150.605438
 20
-42.500008
 11
160.286560
 21
-42.500008
  0
LINE
  8
0
  6
CENTER
 62
     2
 10
165.500000
 20
-28.468208
 11
165.500000
 21
-36.213112
  0
LINE
  8
0
  6
CENTER
 62
     2
 10
161.116364
 20
-32.500008
 11
169.414474
 21
-32.500008
  0
CIRCLE
  8
0
 10
-27.500027
 20
-42.500019
 40
2.000000
  0
CIRCLE
  8
0
 10
-112.500015
 20
-42.499981
 40
2.000000
  0
CIRCLE
  8
0
 10
-112.499985
 20
42.500011
 40
2.000000
  0
CIRCLE
  8
0
 10
-27.499989
 20
42.499989
 40
2.000000
  0
CIRCLE
  8
0
 62
     2
 10
-27.500027
 20
-42.500019
 40
2.500000
  0
CIRCLE
  8
0
 62
     2
 10
-112.500015
 20
-42.499981
 40
2.500000
  0
CIRCLE
  8
0
 62
     2
 10
-27.499989
 20
42.499989
 40
2.500000
  0
CIRCLE
  8
0
 62
     2
 10
-112.499985
 20
42.500011
 40
2.500000
  0
CIRCLE
  8
0
 10
-55.000015
 20
-32.000004
 40
8.000000
  0
CIRCLE
  8
0
 10
-84.999985
 20
32.000004
 40
8.000000
  0
CIRCLE
  8
0
 10
-70.000023
 20
-42.500000
 40
3.000000
  0
ARC
  8
0
 10
-69.999977
 20
41.500000
 40
3.000000
 50
180.000000
 51
0.000000
  0
CIRCLE
  8
0
 10
-51.000000
 20
-0.000006
 40
3.000000
  0
CIRCLE
  8
0
 10
-89.000000
 20
0.000006
 40
3.000000
  0
CIRCLE
  8
0
 10
-60.499985
 20
30.999996
 40
9.500000
  0
CIRCLE
  8
0
 10
-79.500015
 20
-30.999996
 40
9.500000
  0
CIRCLE
  8
0
 10
-79.500015
 20
-30.999996
 40
5.000000
  0
CIRCLE
  8
0
 10
-60.499985
 20
30.999996
 40
5.000000
  0
CIRCLE
  8
0
 10
-55.000015
 20
-32.000004
 40
3.000000
  0
CIRCLE
  8
0
 10
-84.999985
 20
32.000004
 40
3.000000
  0
CIRCLE
  8
0
 62
     2
 10
-84.999985
 20
32.000004
 40
2.500000
  0
CIRCLE
  8
0
 62
     2
 10
-55.000015
 20
-32.000004
 40
2.500000
  0
CIRCLE
  8
0
 10
-55.000015
 20
-32.000004
 40
5.500000
  0
CIRCLE
  8
0
 10
-84.999985
 20
32.000004
 40
5.500000
  0
CIRCLE
  8
0
 10
-51.000000
 20
-0.000006
 40
2.500000
  0
CIRCLE
  8
0
 10
-89.000000
 20
0.000006
 40
2.500000
  0
CIRCLE
  8
0
 10
-51.000000
 20
-0.000006
 40
1.750000
  0
CIRCLE
  8
0
 10
-89.000000
 20
0.000006
 40
1.750000
  0
ARC
  8
0
 10
-63.742207
 20
8.499998
 40
0.700001
 50
105.627541
 51
1.650711
  0
ARC
  8
0
 10
-76.257790
 20
8.500002
 40
0.699997
 50
180.000000
 51
74.372459
  0
CIRCLE
  8
0
 10
-70.000000
 20
0.000000
 40
11.000000
  0
ARC
  8
0
 10
-70.000000
 20
0.699997
 40
9.999999
 50
137.341843
 51
42.467644
  0
ARC
  8
0
 10
-63.742207
 20
8.499998
 40
1.500002
 50
130.235947
 51
316.959442
  0
ARC
  8
0
 10
-76.257790
 20
8.500002
 40
1.500000
 50
223.040573
 51
49.764172
  0
ARC
  8
0
 10
-208.908356
 20
34.500015
 40
5.508326
 50
333.008484
 51
26.991575
  0
ARC
  8
0
 10
-208.908356
 20
29.500015
 40
5.508325
 50
333.008514
 51
26.991575
  0
ARC
  8
0
 10
-201.491730
 20
34.500015
 40
5.508329
 50
153.008423
 51
206.991470
  0
ARC
  8
0
 10
-201.491730
 20
29.500015
 40
5.508329
 50
153.008423
 51
206.991470
  0
ARC
  8
0
 10
-212.508392
 20
29.500015
 40
5.508325
 50
333.008514
 51
26.991575
  0
ARC
  8
0
 10
-212.508392
 20
34.500015
 40
5.508326
 50
333.008484
 51
26.991575
  0
ARC
  8
0
 10
-196.000061
 20
23.000015
 40
8.000000
 50
270.000000
 51
0.000000
  0
ARC
  8
0
 10
-206.000061
 20
23.000015
 40
8.000000
 50
180.000046
 51
270.000000
  0
CIRCLE
  8
0
 10
-190.300079
 20
7.500015
 40
2.800000
  0
CIRCLE
  8
0
 10
-217.700073
 20
7.500015
 40
2.800000
  0
CIRCLE
  8
0
 10
-200.000061
 20
7.500015
 40
2.750000
  0
CIRCLE
  8
0
 10
-206.000061
 20
0.000015
 40
2.500000
  0
CIRCLE
  8
0
 10
-193.500061
 20
0.500015
 40
1.000000
  0
CIRCLE
  8
0
 10
-206.000061
 20
0.000015
 40
2.000000
  0
ARC
  8
0
 10
-244.908356
 20
29.500015
 40
5.508325
 50
333.008514
 51
26.991575
  0
ARC
  8
0
 10
-237.491730
 20
29.500015
 40
5.508329
 50
153.008423
 51
206.991470
  0
ARC
  8
0
 10
-237.491730
 20
34.500015
 40
5.508329
 50
153.008423
 51
206.991470
  0
ARC
  8
0
 10
-244.908356
 20
34.500015
 40
5.508326
 50
333.008484
 51
26.991575
  0
ARC
  8
0
 10
50.999954
 20
-19.999992
 40
8.000000
 50
90.000000
 51
180.000000
  0
ARC
  8
0
 10
60.999954
 20
-19.999992
 40
8.000000
 50
0.000027
 51
90.000000
  0
CIRCLE
  8
0
 10
45.299973
 20
-7.499985
 40
2.800000
  0
CIRCLE
  8
0
 10
72.699966
 20
-7.499985
 40
2.800000
  0
CIRCLE
  8
0
 10
62.999954
 20
-7.499985
 40
2.750000
  0
CIRCLE
  8
0
 10
68.999969
 20
0.000015
 40
2.500000
  0
CIRCLE
  8
0
 10
56.499969
 20
-0.499985
 40
1.000000
  0
CIRCLE
  8
0
 10
68.999969
 20
0.000015
 40
2.000000
  0
ARC
  8
0
 10
92.491631
 20
-29.499985
 40
5.508329
 50
333.008423
 51
26.991434
  0
ARC
  8
0
 10
92.491631
 20
-34.499985
 40
5.508329
 50
333.008423
 51
26.991434
  0
ARC
  8
0
 10
99.908287
 20
-34.499985
 40
5.508333
 50
153.008530
 51
206.991547
  0
ARC
  8
0
 10
99.908302
 20
-29.499985
 40
5.508333
 50
153.008530
 51
206.991562
  0
ARC
  8
0
 10
63.908287
 20
-34.499992
 40
5.508329
 50
153.008514
 51
206.991547
  0
ARC
  8
0
 10
63.908287
 20
-29.499992
 40
5.508329
 50
153.008514
 51
206.991562
  0
ARC
  8
0
 10
56.491631
 20
-34.499992
 40
5.508329
 50
333.008423
 51
26.991434
  0
ARC
  8
0
 10
56.491631
 20
-29.499992
 40
5.508329
 50
333.008423
 51
26.991434
  0
ARC
  8
0
 10
67.508293
 20
-29.499992
 40
5.508329
 50
153.008514
 51
206.991562
  0
ARC
  8
0
 10
67.508293
 20
-34.499992
 40
5.508329
 50
153.008514
 51
206.991547
  0
ARC
  8
0
 10
-87.499992
 20
169.908310
 40
5.508326
 50
243.008499
 51
296.991577
  0
ARC
  8
0
 10
-82.499992
 20
169.908310
 40
5.508326
 50
243.008499
 51
296.991577
  0
ARC
  8
0
 10
-87.500000
 20
126.491653
 40
5.508329
 50
63.008423
 51
116.991508
  0
ARC
  8
0
 10
-82.500000
 20
137.508316
 40
5.508326
 50
243.008499
 51
296.991577
  0
ARC
  8
0
 10
-87.500000
 20
137.508316
 40
5.508326
 50
243.008499
 51
296.991577
  0
ARC
  8
0
 10
-82.500000
 20
133.908310
 40
5.508326
 50
243.008499
 51
296.991577
  0
ARC
  8
0
 10
-87.500000
 20
133.908310
 40
5.508326
 50
243.008499
 51
296.991577
  0
ARC
  8
0
 10
-82.500000
 20
126.491653
 40
5.508329
 50
63.008423
 51
116.991508
  0
ARC
  8
0
 10
-82.499992
 20
162.491653
 40
5.508329
 50
63.008423
 51
116.991508
  0
ARC
  8
0
 10
-87.499992
 20
162.491653
 40
5.508329
 50
63.008423
 51
116.991508
  0
ARC
  8
0
 10
-52.500038
 20
-169.908325
 40
5.508326
 50
63.008495
 51
116.991577
  0
ARC
  8
0
 10
-57.500046
 20
-169.908325
 40
5.508326
 50
63.008495
 51
116.991577
  0
ARC
  8
0
 10
-52.500031
 20
-126.491669
 40
5.508328
 50
243.008453
 51
296.991455
  0
ARC
  8
0
 10
-57.500031
 20
-137.508331
 40
5.508326
 50
63.008495
 51
116.991577
  0
ARC
  8
0
 10
-52.500031
 20
-137.508331
 40
5.508326
 50
63.008495
 51
116.991577
  0
ARC
  8
0
 10
-57.500031
 20
-133.908325
 40
5.508326
 50
63.008495
 51
116.991577
  0
ARC
  8
0
 10
-52.500031
 20
-133.908325
 40
5.508326
 50
63.008495
 51
116.991577
  0
ARC
  8
0
 10
-57.500031
 20
-126.491669
 40
5.508328
 50
243.008453
 51
296.991455
  0
ARC
  8
0
 10
-57.500038
 20
-162.491669
 40
5.508328
 50
243.008453
 51
296.991455
  0
ARC
  8
0
 10
-52.500038
 20
-162.491669
 40
5.508328
 50
243.008453
 51
296.991455
  0
CIRCLE
  8
0
 10
165.999969
 20
14.999916
 40
3.000000
  0
CIRCLE
  8
0
 10
229.999969
 20
-15.000107
 40
3.000000
  0
CIRCLE
  8
0
 10
165.999969
 20
14.999916
 40
2.500000
  0
CIRCLE
  8
0
 10
229.999969
 20
-15.000107
 40
2.500000
  0
CIRCLE
  8
0
 10
155.499969
 20
-42.500065
 40
2.750000
  0
CIRCLE
  8
0
 10
155.499969
 20
42.499931
 40
2.750000
  0
CIRCLE
  8
0
 10
240.499969
 20
42.499901
 40
2.750000
  0
CIRCLE
  8
0
 10
240.499969
 20
-42.500092
 40
2.750000
  0
CIRCLE
  8
0
 10
165.499969
 20
-32.500069
 40
2.250000
  0
CIRCLE
  8
0
 10
165.499969
 20
32.499931
 40
2.250000
  0
CIRCLE
  8
0
 10
230.499969
 20
32.499901
 40
2.250000
  0
CIRCLE
  8
0
 10
230.499969
 20
-32.500092
 40
2.250000
  0
CIRCLE
  8
0
 10
155.499969
 20
-0.000069
 40
2.000000
  0
CIRCLE
  8
0
 10
165.499969
 20
-0.000084
 40
2.000000
  0
CIRCLE
  8
0
 10
230.499969
 20
-0.000099
 40
2.000000
  0
CIRCLE
  8
0
 10
240.499969
 20
-0.000107
 40
2.000000
  0
CIRCLE
  8
0
 10
197.999969
 20
-42.500088
 40
2.000000
  0
CIRCLE
  8
0
 10
197.999969
 20
-32.500084
 40
2.000000
  0
CIRCLE
  8
0
 10
197.999969
 20
32.499901
 40
2.000000
  0
CIRCLE
  8
0
 10
197.999969
 20
42.499901
 40
2.000000
  0
CIRCLE
  8
0
 10
228.999969
 20
17.499893
 40
3.250000
  0
CIRCLE
  8
0
 10
235.928162
 20
5.499893
 40
3.250000
  0
CIRCLE
  8
0
 10
222.071777
 20
5.499908
 40
3.250000
  0
CIRCLE
  8
0
 10
235.928162
 20
5.499893
 40
2.750000
  0
CIRCLE
  8
0
 10
222.071777
 20
5.499908
 40
2.750000
  0
CIRCLE
  8
0
 10
228.999969
 20
17.499893
 40
2.750000
  0
CIRCLE
  8
0
 10
160.071777
 20
-5.500069
 40
2.750000
  0
CIRCLE
  8
0
 10
160.071777
 20
-5.500069
 40
3.250000
  0
CIRCLE
  8
0
 10
166.999969
 20
-17.500084
 40
3.250000
  0
CIRCLE
  8
0
 10
166.999969
 20
-17.500084
 40
2.750000
  0
CIRCLE
  8
0
 10
173.928162
 20
-5.500092
 40
3.250000
  0
CIRCLE
  8
0
 10
173.928162
 20
-5.500092
 40
2.750000
  0
CIRCLE
  8
0
 10
166.999969
 20
-9.500084
 40
3.000000
  0
CIRCLE
  8
0
 10
228.999969
 20
9.499901
 40
3.000000
  0
CIRCLE
  8
0
 62
     2
 10
197.999969
 20
-19.000084
 40
1.500000
  0
CIRCLE
  8
0
 62
     2
 10
197.999969
 20
18.999916
 40
1.500000
  0
CIRCLE
  8
0
 10
197.999969
 20
18.999916
 40
1.000000
  0
CIRCLE
  8
0
 10
197.999969
 20
-19.000084
 40
1.000000
  0
TEXT
  8
0
 10
174.200241
 20
180.830002
 40
6.300000
  1
DATE: AUG ,1994
 50
0.000000
 41
1.052632
 51
0.000000
  7
STANDARD
  0
TEXT
  8
0
 10
167.564667
 20
-192.100006
 40
9.000000
  1
KOGANEI CORP.
 50
0.000000
 41
1.052632
 51
0.000000
  7
STANDARD
  0
TEXT
  8
0
 10
-269.149719
 20
180.830002
 40
6.300000
  1
HANDLING MODULE
 50
0.000000
 41
1.052632
 51
0.000000
  7
STANDARD
  0
TEXT
  8
0
 10
-270.049713
 20
155.830002
 40
6.300000
  1
MODEL:SHM51L-MS
 50
0.000000
 41
1.052632
 51
0.000000
  7
STANDARD
  0
ENDSEC
  0
EOF
