  0
SECTION
  2
HEADER
  0
ENDSEC
  0
SECTION
  2
TABLES
  0
TABLE
  2
LTYPE
 70
     4
  0
LTYPE
  2
CONTINUOUS
 70
    64
  3
Solid line
 72
    65
 73
     0
 40
0.000000
  0
LTYPE
  2
DASHED
 70
    64
  3
__ __ __ __ __ __ __ __ __ __ __ __ __ __ __
 72
    65
 73
     2
 40
3.500000
 49
2.000000
 49
-1.500000
  0
LTYPE
  2
CENTER
 70
    64
  3
____ _ ____ _ ____ _ ____ _ ____ _ ____ _ ____
 72
    65
 73
     4
 40
17.500000
 49
13.000000
 49
-1.500000
 49
1.500000
 49
-1.500000
  0
LTYPE
  2
PHANTOM
 70
    64
  3
_____ _ _ _____ _ _ _____ _ _ _____ _ _ ____  
 72
    65
 73
     6
 40
15.500000
 49
8.000000
 49
-1.500000
 49
1.500000
 49
-1.500000
 49
1.500000
 49
-1.500000
  0
LTYPE
  2
DASHED1
 70
    64
  3
__ __ __ __ __ __ __ __ __ __ __ __ __ __ __
 72
    65
 73
     2
 40
1.500000
 49
1.000000
 49
-0.500000
  0
LTYPE
  2
DASHED2
 70
    64
  3
__ __ __ __ __ __ __ __ __ __ __ __ __ __ __
 72
    65
 73
     2
 40
3.500000
 49
2.500000
 49
-1.000000
  0
LTYPE
  2
DASHED3
 70
    64
  3
__ __ __ __ __ __ __ __ __ __ __ __ __ __ __
 72
    65
 73
     2
 40
6.000000
 49
4.000000
 49
-2.000000
  0
LTYPE
  2
DASHED4
 70
    64
  3
__ __ __ __ __ __ __ __ __ __ __ __ __ __ __
 72
    65
 73
     2
 40
12.000000
 49
10.000000
 49
-2.000000
  0
LTYPE
  2
DASHED5
 70
    64
  3
__ __ __ __ __ __ __ __ __ __ __ __ __ __ __
 72
    65
 73
     2
 40
17.000000
 49
15.000000
 49
-2.000000
  0
LTYPE
  2
DASHED6
 70
    64
  3
__ __ __ __ __ __ __ __ __ __ __ __ __ __ __
 72
    65
 73
     2
 40
29.000000
 49
27.000000
 49
-2.000000
  0
LTYPE
  2
PHANTOM1
 70
    64
  3
_____ _ _ _____ _ _ _____ _ _ _____ _ _ ____  
 72
    65
 73
     6
 40
31.000000
 49
25.000000
 49
-1.500000
 49
1.000000
 49
-1.000000
 49
1.000000
 49
-1.500000
  0
LTYPE
  2
PHANTOM2
 70
    64
  3
_____ _ _ _____ _ _ _____ _ _ _____ _ _ ____  
 72
    65
 73
     6
 40
36.000000
 49
27.000000
 49
-1.500000
 49
2.500000
 49
-1.000000
 49
2.500000
 49
-1.500000
  0
LTYPE
  2
PHANTOM3
 70
    64
  3
_____ _ _ _____ _ _ _____ _ _ _____ _ _ ____  
 72
    65
 73
     6
 40
78.000000
 49
64.000000
 49
-2.000000
 49
4.000000
 49
-2.000000
 49
4.000000
 49
-2.000000
  0
LTYPE
  2
CENTER1
 70
    64
  3
____ _ ____ _ ____ _ ____ _ ____ _ ____ _ ____
 72
    65
 73
     4
 40
19.000000
 49
14.000000
 49
-1.000000
 49
3.000000
 49
-1.000000
  0
LTYPE
  2
CENTER2
 70
    64
  3
____ _ ____ _ ____ _ ____ _ ____ _ ____ _ ____
 72
    65
 73
     4
 40
28.500000
 49
25.000000
 49
-1.000000
 49
1.500000
 49
-1.000000
  0
LTYPE
  2
CENTER3
 70
    64
  3
____ _ ____ _ ____ _ ____ _ ____ _ ____ _ ____
 72
    65
 73
     4
 40
31.500000
 49
27.000000
 49
-1.000000
 49
2.500000
 49
-1.000000
  0
LTYPE
  2
CENTER4
 70
    64
  3
____ _ ____ _ ____ _ ____ _ ____ _ ____ _ ____
 72
    65
 73
     4
 40
50.000000
 49
45.000000
 49
-1.000000
 49
3.000000
 49
-1.000000
  0
LTYPE
  2
CENTER5
 70
    64
  3
____ _ ____ _ ____ _ ____ _ ____ _ ____ _ ____
 72
    65
 73
     4
 40
100.000000
 49
92.000000
 49
-2.000000
 49
4.000000
 49
-2.000000
  0
LTYPE
  2
SBK1
 70
    64
  3
______ _ _ _ ______ _ _ _ ______ _ _ _ _____  
 72
    65
 73
     8
 40
60.500000
 49
45.000000
 49
-2.000000
 49
2.500000
 49
-2.000000
 49
2.500000
 49
-2.000000
 49
2.500000
 49
-2.000000
  0
LTYPE
  2
SBK2
 70
    64
  3
______ _ _ _ ______ _ _ _ ______ _ _ _ _____  
 72
    65
 73
     8
 40
84.000000
 49
64.000000
 49
-2.000000
 49
4.000000
 49
-2.000000
 49
4.000000
 49
-2.000000
 49
4.000000
 49
-2.000000
  0
LTYPE
  2
STCH
 70
    64
  3
__ __ __ __ __ __ __ __ __ __ __ __ __ __ __
 72
    65
 73
     2
 40
3.000000
 49
1.000000
 49
-2.000000
  0
LTYPE
  2
MTCH
 70
    64
  3
_____ _ _ _____ _ _ _____ _ _ _____ _ _ ____  
 72
    65
 73
     6
 40
80.000000
 49
66.000000
 49
-2.000000
 49
4.000000
 49
-2.000000
 49
4.000000
 49
-2.000000
  0
ENDTAB
  0
TABLE
  2
LAYER
 70
     1
  0
LAYER
  2
0
 70
     0
 62
     7
  6
CONTINUOUS
  0
ENDTAB
  0
TABLE
  2
STYLE
 70
     1
  0
STYLE
  2
STANDARD
 70
     0
 40
0.000000
 41
1.000000
 50
0.000000
 71
     0
 42
0.200000
  3
txt
  4
BIGFONT
  0
ENDTAB
  0
TABLE
  2
VIEW
 70
     0
  0
ENDTAB
  0
ENDSEC
  0
SECTION
  2
BLOCKS
  0
ENDSEC
  0
SECTION
  2
ENTITIES
  0
LINE
  8
0
 10
-281.250000
 20
195.500000
 11
282.099976
 21
195.500000
  0
LINE
  8
0
 10
-281.250000
 20
195.500000
 11
-281.250000
 21
-195.000000
  0
LINE
  8
0
 10
282.099976
 20
195.500000
 11
282.099976
 21
-195.000000
  0
LINE
  8
0
 10
-281.250000
 20
-195.000000
 11
282.099976
 21
-195.000000
  0
LINE
  8
0
 10
162.099976
 20
-175.000000
 11
162.099976
 21
-195.000000
  0
LINE
  8
0
 10
162.099976
 20
-175.000000
 11
282.099976
 21
-175.000000
  0
LINE
  8
0
 10
162.099976
 20
175.500000
 11
282.099976
 21
175.500000
  0
LINE
  8
0
 10
-281.250000
 20
175.500000
 11
-161.250000
 21
175.500000
  0
LINE
  8
0
 10
162.099976
 20
195.500000
 11
162.099976
 21
175.500000
  0
LINE
  8
0
 10
-161.250000
 20
195.500000
 11
-161.250000
 21
175.500000
  0
LINE
  8
0
 10
-29.999908
 20
39.999939
 11
-29.999908
 21
3.999935
  0
LINE
  8
0
 10
-109.999908
 20
39.999954
 11
-109.999908
 21
11.999943
  0
LINE
  8
0
 10
-109.999886
 20
-40.000069
 11
-29.999893
 21
-40.000069
  0
LINE
  8
0
 10
-109.999863
 20
39.999924
 11
-29.999863
 21
39.999924
  0
LINE
  8
0
 10
-49.999908
 20
3.999943
 11
-49.999908
 21
-12.000057
  0
LINE
  8
0
 10
-89.999908
 20
11.999935
 11
-89.999908
 21
-4.000065
  0
LINE
  8
0
  6
DASHED
 10
-96.499878
 20
-4.000069
 11
-89.999878
 21
-4.000069
  0
LINE
  8
0
  6
DASHED
 10
-49.999878
 20
3.999931
 11
-43.499878
 21
3.999931
  0
LINE
  8
0
 62
     4
 10
-100.999878
 20
-3.000069
 11
-89.999878
 21
-3.000069
  0
LINE
  8
0
 62
     4
 10
-100.999878
 20
3.999931
 11
-94.999908
 21
3.999931
  0
LINE
  8
0
 10
-96.499878
 20
11.999931
 11
-89.999878
 21
11.999931
  0
LINE
  8
0
 10
-94.999908
 20
11.999943
 11
-94.999908
 21
9.499928
  0
LINE
  8
0
 62
     4
 10
-100.999908
 20
3.999943
 11
-100.999908
 21
-3.000057
  0
LINE
  8
0
 10
-49.999886
 20
-12.000069
 11
-43.499886
 21
-12.000069
  0
LINE
  8
0
 10
-49.999878
 20
3.999931
 11
-29.999878
 21
3.999931
  0
LINE
  8
0
 10
-49.999886
 20
-12.000069
 11
-29.999893
 21
-12.000069
  0
LINE
  8
0
 10
-109.999878
 20
11.999931
 11
-89.999878
 21
11.999931
  0
LINE
  8
0
 10
-109.999878
 20
-4.000069
 11
-89.999878
 21
-4.000069
  0
LINE
  8
0
 62
     4
 10
-102.999908
 20
2.999943
 11
-102.999908
 21
-2.000057
  0
LINE
  8
0
 62
     4
 10
-102.999878
 20
-2.000069
 11
-100.999878
 21
-2.000069
  0
LINE
  8
0
 62
     4
 10
-102.999878
 20
2.999931
 11
-100.999878
 21
2.999931
  0
LINE
  8
0
 62
     4
 10
-116.998535
 20
2.199928
 11
-102.999878
 21
2.199928
  0
LINE
  8
0
 62
     4
 10
-118.402878
 20
-1.200066
 11
-102.999893
 21
-1.200066
  0
LINE
  8
0
 62
     4
 10
-99.999908
 20
11.999943
 11
-99.999908
 21
3.999943
  0
LINE
  8
0
 10
-94.999878
 20
9.499931
 11
-93.899902
 21
9.499931
  0
LINE
  8
0
 10
-94.999878
 20
6.499931
 11
-93.899902
 21
6.499931
  0
LINE
  8
0
 10
-93.899902
 20
10.899937
 11
-93.899902
 21
9.499943
  0
LINE
  8
0
 10
-91.099899
 20
10.899937
 11
-91.099899
 21
5.099941
  0
LINE
  8
0
 10
-93.899887
 20
10.899925
 11
-91.099884
 21
10.899925
  0
LINE
  8
0
 10
-93.899887
 20
5.099930
 11
-91.099884
 21
5.099930
  0
LINE
  8
0
 62
     4
 10
-49.999878
 20
2.999931
 11
-38.999878
 21
2.999931
  0
LINE
  8
0
 10
-49.999878
 20
-4.000069
 11
-44.999908
 21
-4.000069
  0
LINE
  8
0
 10
-44.999908
 20
-4.000065
 11
-44.999908
 21
-6.500065
  0
LINE
  8
0
 62
     4
 10
-39.999908
 20
-4.000065
 11
-39.999908
 21
-12.000065
  0
LINE
  8
0
 62
     4
 10
-38.999908
 20
2.999935
 11
-38.999908
 21
-4.000065
  0
LINE
  8
0
 10
-93.899902
 20
6.499943
 11
-93.899902
 21
5.099941
  0
LINE
  8
0
 10
-48.899910
 20
-5.100063
 11
-48.899910
 21
-10.900066
  0
LINE
  8
0
 10
-46.099907
 20
-5.100063
 11
-46.099907
 21
-6.500065
  0
LINE
  8
0
 10
-48.899887
 20
-5.100067
 11
-46.099884
 21
-5.100067
  0
LINE
  8
0
 10
-48.899887
 20
-10.900070
 11
-46.099884
 21
-10.900070
  0
LINE
  8
0
 10
-46.099907
 20
-9.500065
 11
-46.099907
 21
-10.900066
  0
LINE
  8
0
 10
-46.099899
 20
-6.500069
 11
-44.999878
 21
-6.500069
  0
LINE
  8
0
 10
-46.099899
 20
-9.500069
 11
-44.999878
 21
-9.500069
  0
LINE
  8
0
 62
     4
 10
-103.799896
 20
5.199928
 11
-99.999878
 21
5.199928
  0
LINE
  8
0
 62
     4
 10
-103.799896
 20
10.799934
 11
-99.999878
 21
10.799934
  0
LINE
  8
0
 62
     4
 10
-39.999878
 20
-5.200066
 11
-36.199890
 21
-5.200066
  0
LINE
  8
0
 62
     4
 10
-39.999893
 20
-10.800072
 11
-36.199905
 21
-10.800072
  0
LINE
  8
0
 10
-44.999908
 20
-9.500065
 11
-44.999908
 21
-12.000065
  0
LINE
  8
0
 62
     4
 10
-48.199913
 20
-5.100063
 11
-48.199913
 21
-10.900066
  0
LINE
  8
0
 62
     4
 10
-48.899887
 20
-10.800072
 11
-47.199890
 21
-10.800072
  0
LINE
  8
0
 62
     4
 10
-48.899887
 20
-5.200066
 11
-47.199890
 21
-5.200066
  0
LINE
  8
0
 62
     4
 10
-91.799896
 20
10.899937
 11
-91.799896
 21
5.099941
  0
LINE
  8
0
 62
     4
 10
-38.999878
 20
-3.000069
 11
-36.999878
 21
-3.000069
  0
LINE
  8
0
 62
     4
 10
-38.999878
 20
1.999931
 11
-36.999878
 21
1.999931
  0
LINE
  8
0
 62
     4
 10
-36.999893
 20
1.199928
 11
-22.009964
 21
1.199928
  0
LINE
  8
0
 62
     4
 10
-36.999893
 20
-2.200066
 11
-23.414307
 21
-2.200066
  0
LINE
  8
0
 62
     4
 10
-36.999908
 20
1.999935
 11
-36.999908
 21
-3.000065
  0
LINE
  8
0
  6
CENTER
 62
     2
 10
-106.102409
 20
32.499924
 11
-99.072029
 21
32.499924
  0
LINE
  8
0
  6
CENTER
 62
     2
 10
-106.102409
 20
-32.500069
 11
-99.163940
 21
-32.500069
  0
LINE
  8
0
  6
CENTER
 62
     2
 10
-37.499908
 20
35.787338
 11
-37.499908
 21
29.055710
  0
LINE
  8
0
  6
CENTER
 62
     2
 10
-102.499908
 20
36.191238
 11
-102.499908
 21
29.382782
  0
LINE
  8
0
  6
CENTER
 62
     2
 10
-41.002548
 20
32.499924
 11
-34.136276
 21
32.499924
  0
LINE
  8
0
  6
CENTER
 62
     2
 10
-102.499908
 20
-28.836403
 11
-102.499908
 21
-36.447151
  0
LINE
  8
0
  6
CENTER
 62
     2
 10
-40.464050
 20
-32.500069
 11
-34.540192
 21
-32.500069
  0
LINE
  8
0
  6
CENTER
 62
     2
 10
-37.499908
 20
-29.240303
 11
-37.499908
 21
-36.125954
  0
LINE
  8
0
  6
CENTER
 62
     2
 10
-73.852974
 20
-32.500069
 11
-66.313538
 21
-32.500069
  0
LINE
  8
0
  6
CENTER
 62
     2
 10
-69.999908
 20
42.216827
 11
-69.999908
 21
-41.541222
  0
LINE
  8
0
 10
-109.999908
 20
-4.000057
 11
-109.999908
 21
-40.000038
  0
LINE
  8
0
 10
-29.999908
 20
-12.000065
 11
-29.999908
 21
-40.000038
  0
LINE
  8
0
 62
     4
 10
-36.199905
 20
-5.200069
 11
-36.199905
 21
-10.800076
  0
LINE
  8
0
 62
     4
 10
-103.799911
 20
10.799938
 11
-103.799911
 21
5.199932
  0
LINE
  8
0
 62
     4
 10
-39.199905
 20
-5.200069
 11
-39.199905
 21
-10.800076
  0
LINE
  8
0
 62
     4
 10
-100.799911
 20
10.799938
 11
-100.799911
 21
5.199932
  0
LINE
  8
0
 10
-66.999908
 20
39.999924
 11
-66.999908
 21
31.499939
  0
LINE
  8
0
 10
-72.999908
 20
39.999924
 11
-72.999908
 21
31.499924
  0
LINE
  8
0
 62
     1
 10
-21.174400
 20
3.222992
 11
-24.426691
 21
-4.650979
  0
LINE
  8
0
 62
     1
 10
-119.229263
 20
-3.200899
 11
-116.120972
 21
4.324444
  0
LINE
  8
0
  6
CENTER
 62
     2
 10
-19.047104
 20
-0.000061
 11
-123.294884
 21
-0.000061
  0
LINE
  8
0
 62
     4
 10
-44.999908
 20
-4.000069
 11
-38.999878
 21
-4.000069
  0
LINE
  8
0
 10
-94.999908
 20
6.499928
 11
-94.999908
 21
3.999928
  0
LINE
  8
0
 10
-94.999908
 20
3.999931
 11
-89.999878
 21
3.999931
  0
LINE
  8
0
 10
-179.802872
 20
39.999962
 11
-179.802872
 21
-40.000046
  0
LINE
  8
0
 10
-234.402878
 20
39.999901
 11
-234.402878
 21
-40.000107
  0
LINE
  8
0
 10
-179.802811
 20
-40.000061
 11
-210.802811
 21
-40.000061
  0
LINE
  8
0
  6
CENTER
 62
     2
 10
-177.605820
 20
-0.000061
 11
-235.076340
 21
-0.000061
  0
LINE
  8
0
 10
-179.802963
 20
39.999947
 11
-210.802963
 21
39.999947
  0
LINE
  8
0
 10
-228.402817
 20
-40.000061
 11
-234.402817
 21
-40.000061
  0
LINE
  8
0
 10
-228.402969
 20
39.999947
 11
-234.402969
 21
39.999947
  0
LINE
  8
0
 10
-204.802872
 20
39.999931
 11
-204.802872
 21
11.999928
  0
LINE
  8
0
 62
     4
 10
-205.052841
 20
3.999928
 11
-205.052841
 21
-3.000072
  0
LINE
  8
0
 62
     4
 10
-183.052872
 20
3.999958
 11
-183.052872
 21
-3.000042
  0
LINE
  8
0
 62
     4
 10
-189.552856
 20
12.499958
 11
-189.552856
 21
3.999958
  0
LINE
  8
0
 62
     4
 10
-189.552872
 20
12.499939
 11
-198.552872
 21
12.499939
  0
LINE
  8
0
 10
-209.065079
 20
9.649933
 11
-210.802902
 21
9.649933
  0
LINE
  8
0
 10
-209.065079
 20
6.349945
 11
-210.802872
 21
6.349945
  0
LINE
  8
0
 62
     4
 10
-198.552856
 20
12.499928
 11
-198.552856
 21
3.999928
  0
LINE
  8
0
 10
-210.802933
 20
25.484436
 11
-225.337387
 21
25.484436
  0
LINE
  8
0
 62
     2
 10
-210.802933
 20
25.984436
 11
-225.204269
 21
25.984436
  0
LINE
  8
0
 62
     2
 10
-210.802933
 20
29.984444
 11
-225.204300
 21
29.984444
  0
LINE
  8
0
 10
-210.802933
 20
30.484444
 11
-225.204300
 21
30.484444
  0
LINE
  8
0
 10
-228.402878
 20
39.999901
 11
-228.402878
 21
-40.000107
  0
LINE
  8
0
 10
-210.802872
 20
39.999931
 11
-210.802872
 21
-40.000076
  0
LINE
  8
0
 10
-179.802902
 20
11.999939
 11
-189.552841
 21
11.999939
  0
LINE
  8
0
 10
-179.802872
 20
9.649933
 11
-180.540695
 21
9.649933
  0
LINE
  8
0
 10
-179.802872
 20
6.349945
 11
-180.540695
 21
6.349945
  0
LINE
  8
0
 10
-179.802872
 20
-4.000061
 11
-185.802872
 21
-4.000061
  0
LINE
  8
0
 10
-179.802872
 20
3.999939
 11
-187.852859
 21
3.999939
  0
LINE
  8
0
 62
     4
 10
-183.052872
 20
-3.000061
 11
-205.052841
 21
-3.000061
  0
LINE
  8
0
 10
-185.802872
 20
-4.000042
 11
-185.802872
 21
-40.000046
  0
LINE
  8
0
 10
-198.552841
 20
9.649933
 11
-204.540695
 21
9.649933
  0
LINE
  8
0
 10
-198.552841
 20
6.349945
 11
-204.540695
 21
6.349945
  0
LINE
  8
0
 10
-185.065079
 20
9.649933
 11
-189.552841
 21
9.649933
  0
LINE
  8
0
 10
-185.065079
 20
6.349945
 11
-189.552841
 21
6.349945
  0
LINE
  8
0
 10
-225.608444
 20
32.719032
 11
-228.000168
 21
32.719032
  0
LINE
  8
0
 10
-228.000443
 20
32.719170
 11
-228.404587
 21
32.019180
  0
LINE
  8
0
 10
-225.608444
 20
30.419044
 11
-228.000137
 21
30.419044
  0
LINE
  8
0
 10
-225.608261
 20
32.719154
 11
-225.204117
 21
32.019154
  0
LINE
  8
0
 10
-225.204208
 20
32.019005
 11
-225.204208
 21
24.218987
  0
LINE
  8
0
 10
-225.608414
 20
25.819031
 11
-228.000137
 21
25.819031
  0
LINE
  8
0
 10
-225.608414
 20
23.519043
 11
-228.000107
 21
23.519043
  0
LINE
  8
0
 10
-225.204514
 20
24.219093
 11
-225.608658
 21
23.519085
  0
LINE
  8
0
 10
-228.404160
 20
24.219069
 11
-228.000015
 21
23.519070
  0
LINE
  8
0
 10
-185.802872
 20
39.999962
 11
-185.802872
 21
11.999958
  0
LINE
  8
0
 10
-210.802811
 20
-29.000061
 11
-225.402817
 21
-29.000061
  0
LINE
  8
0
 10
-210.802841
 20
-21.000061
 11
-225.402847
 21
-21.000061
  0
LINE
  8
0
 10
-225.402847
 20
-15.000061
 11
-228.402847
 21
-15.000061
  0
LINE
  8
0
 10
-225.402817
 20
-35.000061
 11
-228.402817
 21
-35.000061
  0
LINE
  8
0
 10
-225.402908
 20
14.999939
 11
-228.402908
 21
14.999939
  0
LINE
  8
0
 10
-225.202866
 20
24.221458
 11
-225.202866
 21
32.016777
  0
LINE
  8
0
 10
-225.402939
 20
34.999947
 11
-228.402939
 21
34.999947
  0
LINE
  8
0
 10
-202.802902
 20
22.484436
 11
-204.856216
 21
22.484436
  0
LINE
  8
0
 10
-202.802933
 20
33.484444
 11
-204.856247
 21
33.484444
  0
LINE
  8
0
 10
-194.603409
 20
25.569641
 11
-195.603470
 21
25.569641
  0
LINE
  8
0
 62
     2
 10
-194.603470
 20
26.069641
 11
-195.603470
 21
26.069641
  0
LINE
  8
0
 62
     2
 10
-194.603470
 20
30.069649
 11
-195.603470
 21
30.069649
  0
LINE
  8
0
 10
-194.603409
 20
30.569649
 11
-195.603470
 21
30.569649
  0
LINE
  8
0
 10
-199.207077
 20
32.669655
 11
-202.802933
 21
32.669655
  0
LINE
  8
0
 10
-199.207077
 20
30.369637
 11
-202.802933
 21
30.369637
  0
LINE
  8
0
 10
-199.206924
 20
32.669674
 11
-198.802780
 21
31.969677
  0
LINE
  8
0
 10
-199.207077
 20
25.769653
 11
-202.802933
 21
25.769653
  0
LINE
  8
0
 10
-199.207047
 20
23.469635
 11
-202.802902
 21
23.469635
  0
LINE
  8
0
 10
-198.802994
 20
24.169611
 11
-199.207153
 21
23.469612
  0
LINE
  8
0
 10
-194.603424
 20
30.569664
 11
-194.603424
 21
25.569664
  0
LINE
  8
0
 10
-202.802872
 20
33.484428
 11
-202.802872
 21
22.484428
  0
LINE
  8
0
 10
-198.803329
 20
24.169628
 11
-198.399185
 21
23.469629
  0
LINE
  8
0
 10
-196.007645
 20
32.669655
 11
-198.399338
 21
32.669655
  0
LINE
  8
0
 10
-198.399414
 20
32.669701
 11
-198.803558
 21
31.969694
  0
LINE
  8
0
 10
-196.007614
 20
30.369637
 11
-198.399338
 21
30.369637
  0
LINE
  8
0
 10
-196.007507
 20
32.669735
 11
-195.603363
 21
31.969738
  0
LINE
  8
0
 10
-195.603424
 20
31.969627
 11
-195.603424
 21
24.169640
  0
LINE
  8
0
 10
-196.007614
 20
25.769653
 11
-198.399338
 21
25.769653
  0
LINE
  8
0
 10
-196.007584
 20
23.469635
 11
-198.399307
 21
23.469635
  0
LINE
  8
0
 10
-195.603592
 20
24.169672
 11
-196.007736
 21
23.469681
  0
LINE
  8
0
 10
-198.803421
 20
31.969658
 11
-198.803421
 21
24.169701
  0
LINE
  8
0
 62
     4
 10
-193.374557
 20
9.249939
 11
-194.831192
 21
9.249939
  0
LINE
  8
0
 62
     4
 10
-193.374557
 20
6.749939
 11
-194.831192
 21
6.749939
  0
LINE
  8
0
 62
     4
 10
-193.374542
 20
9.250005
 11
-192.652847
 21
7.999994
  0
LINE
  8
0
 62
     4
 10
-195.552811
 20
7.999945
 11
-194.831100
 21
6.749938
  0
LINE
  8
0
 62
     4
 10
-194.831314
 20
9.250030
 11
-195.552994
 21
8.000043
  0
LINE
  8
0
 62
     4
 10
-192.652939
 20
8.000058
 11
-193.374619
 21
6.750072
  0
LINE
  8
0
 10
-198.552841
 20
11.999939
 11
-210.802902
 21
11.999939
  0
LINE
  8
0
 10
-210.802902
 20
20.999939
 11
-225.402908
 21
20.999939
  0
LINE
  8
0
 10
-185.802811
 20
-35.000061
 11
-210.802811
 21
-35.000061
  0
LINE
  8
0
 10
-225.402878
 20
14.999897
 11
-225.402878
 21
23.875023
  0
LINE
  8
0
 10
-225.402878
 20
-15.000103
 11
-225.402878
 21
-35.000107
  0
LINE
  8
0
 10
-225.402878
 20
32.363182
 11
-225.402878
 21
34.999901
  0
LINE
  8
0
  6
CENTER
 62
     2
 10
-226.636246
 20
32.499947
 11
-235.969589
 21
32.499947
  0
LINE
  8
0
  6
CENTER
 62
     2
 10
-226.302811
 20
-32.500061
 11
-236.302811
 21
-32.500061
  0
LINE
  8
0
  6
CENTER
 62
     2
 10
-177.636154
 20
-32.500061
 11
-187.302811
 21
-32.500061
  0
LINE
  8
0
  6
CENTER
 62
     2
 10
-177.302933
 20
32.499947
 11
-187.969589
 21
32.499947
  0
LINE
  8
0
  6
CENTER
 62
     2
 10
-226.302811
 20
-25.000061
 11
-236.302811
 21
-25.000061
  0
LINE
  8
0
  6
CENTER
 62
     2
 10
-226.636215
 20
24.999939
 11
-235.969559
 21
24.999939
  0
LINE
  8
0
 10
-212.318634
 20
8.126116
 11
-211.807510
 21
2.499936
  0
LINE
  8
0
 10
-213.780319
 20
8.017963
 11
-213.279037
 21
2.499945
  0
LINE
  8
0
 10
-221.118637
 20
8.126124
 11
-220.607513
 21
2.499960
  0
LINE
  8
0
 10
-222.580307
 20
8.017941
 11
-222.078995
 21
2.499945
  0
LINE
  8
0
 10
-184.217056
 20
6.585725
 11
-181.388626
 21
9.414152
  0
LINE
  8
0
 10
-184.217117
 20
9.414201
 11
-181.388687
 21
6.585772
  0
LINE
  8
0
 10
-208.217163
 20
6.585731
 11
-205.388733
 21
9.414156
  0
LINE
  8
0
 10
-208.217133
 20
9.414136
 11
-205.388702
 21
6.585711
  0
LINE
  8
0
 10
-205.052841
 20
3.999939
 11
-210.802872
 21
3.999939
  0
LINE
  8
0
 62
     4
 10
-183.052841
 20
3.999939
 11
-205.052841
 21
3.999939
  0
LINE
  8
0
 10
-224.053177
 20
8.138260
 11
-223.540939
 21
2.499962
  0
LINE
  8
0
 10
-225.512802
 20
8.005655
 11
-225.012589
 21
2.499961
  0
LINE
  8
0
 10
-226.986542
 20
8.138287
 11
-226.474182
 21
2.499974
  0
LINE
  8
0
 10
-228.446213
 20
8.005669
 11
-227.945892
 21
2.499989
  0
LINE
  8
0
  6
CENTER
 62
     2
 10
-229.484909
 20
-8.072449
 11
-209.421585
 21
-8.072449
  0
LINE
  8
0
  6
CENTER
 62
     2
 10
-229.548599
 20
8.071930
 11
-209.357864
 21
8.071930
  0
LINE
  8
0
 10
-215.252029
 20
8.126136
 11
-214.740921
 21
2.499989
  0
LINE
  8
0
 10
-216.713699
 20
8.017982
 11
-216.212402
 21
2.499981
  0
LINE
  8
0
 10
-218.185318
 20
8.126146
 11
-217.674194
 21
2.499971
  0
LINE
  8
0
 10
-219.647110
 20
8.017954
 11
-219.145828
 21
2.499966
  0
LINE
  8
0
 10
-210.802841
 20
-2.500061
 11
-228.402878
 21
-2.500061
  0
LINE
  8
0
 10
-210.802841
 20
2.499939
 11
-228.402878
 21
2.499939
  0
LINE
  8
0
 10
-227.491409
 20
-2.499997
 11
-226.979004
 21
-8.138704
  0
LINE
  8
0
 10
-226.019730
 20
-2.500021
 11
-225.519379
 21
-8.006101
  0
LINE
  8
0
 10
-224.558380
 20
-2.500047
 11
-224.046112
 21
-8.138725
  0
LINE
  8
0
 10
-223.086548
 20
-2.500027
 11
-222.586319
 21
-8.006099
  0
LINE
  8
0
 10
-221.624863
 20
-2.500064
 11
-221.113724
 21
-8.126445
  0
LINE
  8
0
 10
-220.153290
 20
-2.500043
 11
-219.651978
 21
-8.018243
  0
LINE
  8
0
 10
-218.691559
 20
-2.500039
 11
-218.180420
 21
-8.126417
  0
LINE
  8
0
 10
-217.220047
 20
-2.500032
 11
-216.718735
 21
-8.018221
  0
LINE
  8
0
 10
-215.758133
 20
-2.500009
 11
-215.246994
 21
-8.126406
  0
LINE
  8
0
 10
-214.286636
 20
-2.500020
 11
-213.785324
 21
-8.018219
  0
LINE
  8
0
 10
-212.824875
 20
-2.500047
 11
-212.313751
 21
-8.126399
  0
LINE
  8
0
 10
-211.353348
 20
-2.500065
 11
-210.852036
 21
-8.018341
  0
LINE
  8
0
 10
-210.802933
 20
-30.484558
 11
-225.204269
 21
-30.484558
  0
LINE
  8
0
 62
     2
 10
-210.802933
 20
-29.984558
 11
-225.204269
 21
-29.984558
  0
LINE
  8
0
 10
45.197113
 20
-40.000069
 11
45.197113
 21
39.999939
  0
LINE
  8
0
 10
99.797127
 20
-40.000008
 11
99.797127
 21
40.000000
  0
LINE
  8
0
 10
45.197067
 20
39.999939
 11
76.197067
 21
39.999939
  0
LINE
  8
0
  6
CENTER
 62
     2
 10
43.000092
 20
-0.000061
 11
100.470604
 21
-0.000061
  0
LINE
  8
0
 10
45.197220
 20
-40.000069
 11
76.197220
 21
-40.000069
  0
LINE
  8
0
 10
93.797073
 20
39.999939
 11
99.797081
 21
39.999939
  0
LINE
  8
0
 10
93.797226
 20
-40.000069
 11
99.797234
 21
-40.000069
  0
LINE
  8
0
 10
70.197098
 20
-40.000038
 11
70.197098
 21
-12.000034
  0
LINE
  8
0
 62
     4
 10
75.247116
 20
-4.000034
 11
75.247116
 21
2.999966
  0
LINE
  8
0
 62
     4
 10
53.247116
 20
-4.000065
 11
53.247116
 21
2.999935
  0
LINE
  8
0
 62
     4
 10
59.747101
 20
-12.500065
 11
59.747101
 21
-4.000065
  0
LINE
  8
0
 62
     4
 10
59.747162
 20
-12.500061
 11
68.747162
 21
-12.500061
  0
LINE
  8
0
 10
74.459335
 20
-9.650055
 11
76.197159
 21
-9.650055
  0
LINE
  8
0
 10
74.459335
 20
-6.350067
 11
76.197159
 21
-6.350067
  0
LINE
  8
0
 62
     4
 10
68.747101
 20
-12.500034
 11
68.747101
 21
-4.000034
  0
LINE
  8
0
 10
76.197189
 20
-25.484558
 11
90.731644
 21
-25.484558
  0
LINE
  8
0
 62
     2
 10
76.197189
 20
-25.984558
 11
90.598541
 21
-25.984558
  0
LINE
  8
0
 62
     2
 10
76.197205
 20
-29.984566
 11
90.598557
 21
-29.984566
  0
LINE
  8
0
 10
76.197205
 20
-30.484566
 11
90.598557
 21
-30.484566
  0
LINE
  8
0
 10
93.797127
 20
-40.000008
 11
93.797127
 21
40.000000
  0
LINE
  8
0
 10
76.197113
 20
-40.000038
 11
76.197113
 21
39.999969
  0
LINE
  8
0
 10
45.197159
 20
-12.000061
 11
59.747162
 21
-12.000061
  0
LINE
  8
0
 10
45.197159
 20
-9.650055
 11
45.934952
 21
-9.650055
  0
LINE
  8
0
 10
45.197159
 20
-6.350067
 11
45.934952
 21
-6.350067
  0
LINE
  8
0
 10
45.197128
 20
3.999939
 11
51.197128
 21
3.999939
  0
LINE
  8
0
 10
45.197144
 20
-4.000061
 11
53.247131
 21
-4.000061
  0
LINE
  8
0
 62
     4
 10
53.247147
 20
2.999939
 11
75.247131
 21
2.999939
  0
LINE
  8
0
 10
51.197113
 20
3.999935
 11
51.197113
 21
39.999939
  0
LINE
  8
0
 10
68.747147
 20
-9.650055
 11
69.934967
 21
-9.650055
  0
LINE
  8
0
 10
68.747147
 20
-6.350067
 11
69.934952
 21
-6.350067
  0
LINE
  8
0
 10
50.459351
 20
-9.650055
 11
59.747147
 21
-9.650055
  0
LINE
  8
0
 10
50.459351
 20
-6.350067
 11
59.747147
 21
-6.350067
  0
LINE
  8
0
 10
91.002701
 20
-32.719154
 11
93.394424
 21
-32.719154
  0
LINE
  8
0
 10
93.394821
 20
-32.719326
 11
93.798965
 21
-32.019329
  0
LINE
  8
0
 10
91.002701
 20
-30.419167
 11
93.394409
 21
-30.419167
  0
LINE
  8
0
 10
91.002518
 20
-32.719250
 11
90.598373
 21
-32.019253
  0
LINE
  8
0
 10
90.598457
 20
-32.019112
 11
90.598457
 21
-24.219093
  0
LINE
  8
0
 10
91.002686
 20
-25.819153
 11
93.394409
 21
-25.819153
  0
LINE
  8
0
 10
91.002670
 20
-23.519165
 11
93.394394
 21
-23.519165
  0
LINE
  8
0
 10
90.598953
 20
-24.219278
 11
91.003098
 21
-23.519279
  0
LINE
  8
0
 10
93.798401
 20
-24.219170
 11
93.394257
 21
-23.519173
  0
LINE
  8
0
 10
51.197113
 20
-40.000069
 11
51.197113
 21
-12.000065
  0
LINE
  8
0
 10
76.197098
 20
28.999939
 11
90.797089
 21
28.999939
  0
LINE
  8
0
 10
76.197098
 20
20.999939
 11
90.797104
 21
20.999939
  0
LINE
  8
0
 10
90.797119
 20
14.999939
 11
93.797119
 21
14.999939
  0
LINE
  8
0
 10
90.797089
 20
34.999939
 11
93.797089
 21
34.999939
  0
LINE
  8
0
 10
90.797165
 20
-15.000061
 11
93.797165
 21
-15.000061
  0
LINE
  8
0
 10
90.597115
 20
-24.221565
 11
90.597115
 21
-32.016884
  0
LINE
  8
0
 10
90.797211
 20
-35.000069
 11
93.797211
 21
-35.000069
  0
LINE
  8
0
 10
68.197174
 20
-22.484558
 11
70.250473
 21
-22.484558
  0
LINE
  8
0
 10
68.197205
 20
-33.484566
 11
70.250504
 21
-33.484566
  0
LINE
  8
0
 10
59.997681
 20
-25.569763
 11
60.997726
 21
-25.569763
  0
LINE
  8
0
 62
     2
 10
59.997726
 20
-26.069763
 11
60.997726
 21
-26.069763
  0
LINE
  8
0
 62
     2
 10
59.997742
 20
-30.069771
 11
60.997742
 21
-30.069771
  0
LINE
  8
0
 10
59.997681
 20
-30.569771
 11
60.997742
 21
-30.569771
  0
LINE
  8
0
 10
64.601349
 20
-32.669777
 11
68.197205
 21
-32.669777
  0
LINE
  8
0
 10
64.601349
 20
-30.369759
 11
68.197205
 21
-30.369759
  0
LINE
  8
0
 10
64.601097
 20
-32.669819
 11
64.196953
 21
-31.969822
  0
LINE
  8
0
 10
64.601334
 20
-25.769775
 11
68.197189
 21
-25.769775
  0
LINE
  8
0
 10
64.601318
 20
-23.469757
 11
68.197174
 21
-23.469757
  0
LINE
  8
0
 10
64.197456
 20
-24.169838
 11
64.601593
 21
-23.469841
  0
LINE
  8
0
 10
59.997650
 20
-30.569771
 11
59.997650
 21
-25.569771
  0
LINE
  8
0
 10
68.197098
 20
-33.484535
 11
68.197098
 21
-22.484535
  0
LINE
  8
0
 10
64.197548
 20
-24.169767
 11
63.793404
 21
-23.469769
  0
LINE
  8
0
 10
61.401901
 20
-32.669777
 11
63.793610
 21
-32.669777
  0
LINE
  8
0
 10
63.793831
 20
-32.669884
 11
64.197975
 21
-31.969887
  0
LINE
  8
0
 10
61.401886
 20
-30.369759
 11
63.793594
 21
-30.369759
  0
LINE
  8
0
 10
61.401711
 20
-32.669880
 11
60.997566
 21
-31.969883
  0
LINE
  8
0
 10
60.997650
 20
-31.969734
 11
60.997650
 21
-24.169746
  0
LINE
  8
0
 10
61.401871
 20
-25.769775
 11
63.793594
 21
-25.769775
  0
LINE
  8
0
 10
61.401871
 20
-23.469757
 11
63.793579
 21
-23.469757
  0
LINE
  8
0
 10
60.997986
 20
-24.169836
 11
61.402130
 21
-23.469837
  0
LINE
  8
0
 10
64.197647
 20
-31.969765
 11
64.197647
 21
-24.169807
  0
LINE
  8
0
 62
     4
 10
63.568848
 20
-9.250061
 11
65.025467
 21
-9.250061
  0
LINE
  8
0
 62
     4
 10
63.568848
 20
-6.750061
 11
65.025467
 21
-6.750061
  0
LINE
  8
0
 62
     4
 10
63.568733
 20
-9.250143
 11
62.847038
 21
-8.000132
  0
LINE
  8
0
 62
     4
 10
65.747047
 20
-8.000090
 11
65.025352
 21
-6.750077
  0
LINE
  8
0
 62
     4
 10
65.025711
 20
-9.250144
 11
65.747391
 21
-8.000157
  0
LINE
  8
0
 62
     4
 10
62.847404
 20
-8.000228
 11
63.569084
 21
-6.750242
  0
LINE
  8
0
 10
68.747162
 20
-12.000061
 11
76.197159
 21
-12.000061
  0
LINE
  8
0
 10
76.197174
 20
-21.000061
 11
90.797180
 21
-21.000061
  0
LINE
  8
0
 10
51.197083
 20
34.999939
 11
76.197083
 21
34.999939
  0
LINE
  8
0
 10
90.797127
 20
-15.000004
 11
90.797127
 21
-23.875130
  0
LINE
  8
0
 10
90.797127
 20
14.999996
 11
90.797127
 21
35.000000
  0
LINE
  8
0
 10
90.797127
 20
-32.363289
 11
90.797127
 21
-35.000008
  0
LINE
  8
0
  6
CENTER
 62
     2
 10
92.030518
 20
-32.500069
 11
101.363853
 21
-32.500069
  0
LINE
  8
0
  6
CENTER
 62
     2
 10
91.697067
 20
32.499939
 11
101.697075
 21
32.499939
  0
LINE
  8
0
  6
CENTER
 62
     2
 10
43.030411
 20
32.499939
 11
52.697067
 21
32.499939
  0
LINE
  8
0
  6
CENTER
 62
     2
 10
42.697189
 20
-32.500069
 11
53.363846
 21
-32.500069
  0
LINE
  8
0
  6
CENTER
 62
     2
 10
91.697083
 20
24.999939
 11
101.697075
 21
24.999939
  0
LINE
  8
0
  6
CENTER
 62
     2
 10
92.030502
 20
-25.000061
 11
101.363823
 21
-25.000061
  0
LINE
  8
0
 10
49.611393
 20
-6.585896
 11
46.782967
 21
-9.414323
  0
LINE
  8
0
 10
49.611359
 20
-9.414281
 11
46.782940
 21
-6.585865
  0
LINE
  8
0
 10
73.611389
 20
-6.585824
 11
70.782967
 21
-9.414251
  0
LINE
  8
0
 10
73.611382
 20
-9.414255
 11
70.782959
 21
-6.585829
  0
LINE
  8
0
 10
75.247116
 20
-4.000061
 11
76.197144
 21
-4.000061
  0
LINE
  8
0
 62
     4
 10
53.247131
 20
-4.000061
 11
75.247116
 21
-4.000061
  0
LINE
  8
0
 10
76.197128
 20
2.499939
 11
93.797134
 21
2.499939
  0
LINE
  8
0
 10
76.197128
 20
-2.500061
 11
93.797134
 21
-2.500061
  0
LINE
  8
0
 10
76.197189
 20
30.484436
 11
90.598541
 21
30.484436
  0
LINE
  8
0
 62
     2
 10
76.197189
 20
29.984436
 11
90.598541
 21
29.984436
  0
LINE
  8
0
 10
77.712921
 20
-8.126220
 11
77.201797
 21
-2.500036
  0
LINE
  8
0
 10
79.174728
 20
-8.018045
 11
78.673431
 21
-2.500021
  0
LINE
  8
0
 10
86.512955
 20
-8.126211
 11
86.001831
 21
-2.500043
  0
LINE
  8
0
 10
87.974731
 20
-8.018028
 11
87.473442
 21
-2.500026
  0
LINE
  8
0
 10
89.447319
 20
-8.138380
 11
88.935066
 21
-2.500087
  0
LINE
  8
0
 10
90.906929
 20
-8.005758
 11
90.406723
 21
-2.500068
  0
LINE
  8
0
 10
92.380653
 20
-8.138388
 11
91.868286
 21
-2.500075
  0
LINE
  8
0
  6
CENTER
 62
     2
 10
94.942894
 20
-8.072052
 11
74.752151
 21
-8.072052
  0
LINE
  8
0
 10
80.646271
 20
-8.126254
 11
80.135147
 21
-2.500101
  0
LINE
  8
0
 10
82.108047
 20
-8.018091
 11
81.606758
 21
-2.500090
  0
LINE
  8
0
 10
83.579620
 20
-8.126261
 11
83.068497
 21
-2.500077
  0
LINE
  8
0
 10
85.041389
 20
-8.018081
 11
84.540092
 21
-2.500094
  0
LINE
  8
0
  6
CENTER
 62
     2
 10
94.879204
 20
8.072327
 11
74.815842
 21
8.072327
  0
LINE
  8
0
 10
92.885567
 20
2.499895
 11
92.373161
 21
8.138602
  0
LINE
  8
0
 10
91.413925
 20
2.499918
 11
90.913574
 21
8.005994
  0
LINE
  8
0
 10
89.952469
 20
2.499939
 11
89.440178
 21
8.138611
  0
LINE
  8
0
 10
88.480812
 20
2.499918
 11
87.980576
 21
8.005989
  0
LINE
  8
0
 10
87.019203
 20
2.499971
 11
86.508064
 21
8.126352
  0
LINE
  8
0
 10
85.547600
 20
2.499955
 11
85.046288
 21
8.018154
  0
LINE
  8
0
 10
84.085861
 20
2.499911
 11
83.574715
 21
8.126292
  0
LINE
  8
0
 10
82.614258
 20
2.499920
 11
82.112946
 21
8.018105
  0
LINE
  8
0
 10
81.152519
 20
2.499904
 11
80.641373
 21
8.126300
  0
LINE
  8
0
 10
79.680908
 20
2.499908
 11
79.179596
 21
8.018107
  0
LINE
  8
0
 10
78.219193
 20
2.499973
 11
77.708054
 21
8.126324
  0
LINE
  8
0
 10
76.747566
 20
2.499962
 11
76.246246
 21
8.018237
  0
LINE
  8
0
 10
93.840240
 20
-8.005783
 11
93.339928
 21
-2.500102
  0
LINE
  8
0
 10
-29.999908
 20
104.489388
 11
-29.999908
 21
110.489380
  0
LINE
  8
0
 10
-109.999908
 20
104.489380
 11
-109.999908
 21
110.489380
  0
LINE
  8
0
 10
-29.999908
 20
104.489380
 11
-109.999901
 21
104.489380
  0
LINE
  8
0
 10
-29.999908
 20
110.489380
 11
-54.999908
 21
110.489380
  0
LINE
  8
0
 10
-49.999908
 20
110.489380
 11
-49.999908
 21
135.489380
  0
LINE
  8
0
 10
-74.499908
 20
129.489380
 11
-89.999908
 21
129.489380
  0
LINE
  8
0
 10
-74.499908
 20
110.489380
 11
-74.499908
 21
129.489380
  0
LINE
  8
0
 62
     4
 10
-38.999908
 20
112.739380
 11
-38.999908
 21
134.739380
  0
LINE
  8
0
  6
CENTER
 62
     2
 10
-69.999908
 20
102.351349
 11
-69.999908
 21
162.273682
  0
LINE
  8
0
 10
-75.999908
 20
129.489380
 11
-86.999908
 21
129.489380
  0
LINE
  8
0
 62
     4
 10
-38.999908
 20
134.739380
 11
-49.999908
 21
134.739380
  0
LINE
  8
0
 62
     4
 10
-36.999908
 20
132.239380
 11
-38.999908
 21
132.239380
  0
LINE
  8
0
 62
     4
 10
-36.999908
 20
127.239380
 11
-38.999908
 21
127.239380
  0
LINE
  8
0
 62
     4
 10
-23.262772
 20
128.039383
 11
-36.999908
 21
128.039383
  0
LINE
  8
0
 62
     4
 10
-22.085861
 20
131.439392
 11
-36.999908
 21
131.439392
  0
LINE
  8
0
 62
     4
 10
-36.999908
 20
127.239380
 11
-36.999908
 21
132.239380
  0
LINE
  8
0
 10
-89.999908
 20
110.489380
 11
-89.999908
 21
135.489380
  0
LINE
  8
0
 10
-44.999908
 20
135.489380
 11
-94.999908
 21
135.489380
  0
LINE
  8
0
 10
-67.999924
 20
153.489380
 11
-71.999924
 21
153.489380
  0
LINE
  8
0
 10
-76.799469
 20
150.659439
 11
-76.799469
 21
153.081238
  0
LINE
  8
0
 10
-76.799423
 20
153.081299
 11
-77.499420
 21
153.485443
  0
LINE
  8
0
 10
-79.099472
 20
150.659454
 11
-79.099472
 21
153.081177
  0
LINE
  8
0
 10
-76.799431
 20
150.659424
 11
-77.499428
 21
150.255280
  0
LINE
  8
0
 10
-77.499474
 20
150.255310
 11
-85.299477
 21
150.255310
  0
LINE
  8
0
 10
-83.699463
 20
150.659454
 11
-83.699463
 21
153.081146
  0
LINE
  8
0
 10
-85.999466
 20
150.659454
 11
-85.999466
 21
153.051147
  0
LINE
  8
0
 10
-85.299477
 20
150.255371
 11
-85.999481
 21
150.659515
  0
LINE
  8
0
 10
-85.292381
 20
153.489365
 11
-85.999489
 21
153.081116
  0
LINE
  8
0
 62
     2
 10
-79.399460
 20
135.489380
 11
-79.399460
 21
150.255310
  0
LINE
  8
0
 10
-78.899460
 20
135.489380
 11
-78.899460
 21
150.255310
  0
LINE
  8
0
 62
     2
 10
-83.399460
 20
135.489380
 11
-83.399460
 21
150.255310
  0
LINE
  8
0
 10
-83.899460
 20
135.489380
 11
-83.899460
 21
150.255310
  0
LINE
  8
0
 10
-74.499901
 20
110.489380
 11
-109.999908
 21
110.489380
  0
LINE
  8
0
 10
-50.499924
 20
150.489380
 11
-70.499924
 21
150.489380
  0
LINE
  8
0
 10
-56.499908
 20
135.489380
 11
-56.499908
 21
150.489380
  0
LINE
  8
0
 10
-64.499908
 20
135.489380
 11
-64.499908
 21
150.489380
  0
LINE
  8
0
 10
-50.499908
 20
150.489380
 11
-50.499908
 21
153.489380
  0
LINE
  8
0
 10
-70.499908
 20
150.489380
 11
-70.499908
 21
153.489380
  0
LINE
  8
0
 10
-87.115425
 20
127.489380
 11
-87.115425
 21
129.489380
  0
LINE
  8
0
 10
-76.115425
 20
127.489380
 11
-76.115425
 21
129.489380
  0
LINE
  8
0
 10
-84.030205
 20
119.289917
 11
-84.030205
 21
120.289932
  0
LINE
  8
0
 62
     2
 10
-83.530205
 20
119.289932
 11
-83.530205
 21
120.289932
  0
LINE
  8
0
 62
     2
 10
-79.530205
 20
119.289932
 11
-79.530205
 21
120.289932
  0
LINE
  8
0
 10
-79.030205
 20
119.289917
 11
-79.030205
 21
120.289932
  0
LINE
  8
0
 10
-76.930214
 20
123.893524
 11
-76.930214
 21
127.489380
  0
LINE
  8
0
 10
-79.230217
 20
123.893524
 11
-79.230217
 21
127.489380
  0
LINE
  8
0
 10
-76.930176
 20
123.893486
 11
-77.630173
 21
123.489342
  0
LINE
  8
0
 10
-83.830208
 20
123.893524
 11
-83.830208
 21
127.489380
  0
LINE
  8
0
 10
-86.130211
 20
123.893524
 11
-86.130211
 21
127.489380
  0
LINE
  8
0
 10
-85.430229
 20
123.489418
 11
-86.130241
 21
123.893570
  0
LINE
  8
0
 10
-79.030197
 20
119.289917
 11
-84.030197
 21
119.289917
  0
LINE
  8
0
 10
-76.115417
 20
127.489380
 11
-87.115417
 21
127.489380
  0
LINE
  8
0
 10
-85.430222
 20
123.489891
 11
-86.130219
 21
123.085747
  0
LINE
  8
0
 10
-76.930214
 20
120.694061
 11
-76.930214
 21
123.085785
  0
LINE
  8
0
 10
-76.930244
 20
123.085846
 11
-77.630241
 21
123.489990
  0
LINE
  8
0
 10
-79.230217
 20
120.694061
 11
-79.230217
 21
123.085785
  0
LINE
  8
0
 10
-76.930214
 20
120.694023
 11
-77.630211
 21
120.289879
  0
LINE
  8
0
 10
-77.630203
 20
120.289917
 11
-85.430206
 21
120.289917
  0
LINE
  8
0
 10
-83.830208
 20
120.694061
 11
-83.830208
 21
123.085785
  0
LINE
  8
0
 10
-86.130211
 20
120.694061
 11
-86.130211
 21
123.085785
  0
LINE
  8
0
 10
-85.430252
 20
120.289970
 11
-86.130249
 21
120.694115
  0
LINE
  8
0
 10
-77.630173
 20
123.489929
 11
-85.430145
 21
123.489929
  0
LINE
  8
0
 62
     4
 10
-38.999908
 20
112.739380
 11
-49.999908
 21
112.739380
  0
LINE
  8
0
 62
     4
 10
-100.999908
 20
129.739380
 11
-94.999908
 21
129.739380
  0
LINE
  8
0
 62
     4
 10
-102.999908
 20
127.239380
 11
-100.999908
 21
127.239380
  0
LINE
  8
0
 62
     4
 10
-102.999908
 20
122.239380
 11
-102.999908
 21
127.239380
  0
LINE
  8
0
 62
     4
 10
-102.999908
 20
122.239380
 11
-100.999908
 21
122.239380
  0
LINE
  8
0
 62
     4
 10
-116.183182
 20
123.039383
 11
-102.999908
 21
123.039383
  0
LINE
  8
0
 62
     4
 10
-115.006256
 20
126.439377
 11
-102.999908
 21
126.439377
  0
LINE
  8
0
 62
     4
 10
-100.999908
 20
110.489380
 11
-100.999908
 21
115.939377
  0
LINE
  8
0
 10
-29.999924
 20
153.489380
 11
-109.999924
 21
153.489380
  0
LINE
  8
0
 10
-29.999908
 20
153.489380
 11
-29.999908
 21
159.489380
  0
LINE
  8
0
 10
-29.999924
 20
159.489380
 11
-109.999924
 21
159.489380
  0
LINE
  8
0
 10
-109.999908
 20
153.489380
 11
-109.999908
 21
159.489380
  0
LINE
  8
0
 10
-54.999908
 20
110.489380
 11
-54.999908
 21
135.489380
  0
LINE
  8
0
 10
-72.999908
 20
104.489380
 11
-72.999908
 21
108.489380
  0
LINE
  8
0
 10
-66.999908
 20
104.489380
 11
-66.999908
 21
108.489380
  0
LINE
  8
0
 10
-66.999908
 20
108.489380
 11
-72.999908
 21
108.489380
  0
LINE
  8
0
 10
-44.999908
 20
110.489380
 11
-44.999908
 21
112.739380
  0
LINE
  8
0
 10
-44.999908
 20
134.739380
 11
-44.999908
 21
135.489380
  0
LINE
  8
0
 62
     4
 10
-99.999908
 20
123.239380
 11
-94.999908
 21
123.239380
  0
LINE
  8
0
 10
-94.999908
 20
110.489380
 11
-94.999908
 21
135.489380
  0
LINE
  8
0
 62
     4
 10
-99.999901
 20
114.239380
 11
-94.999901
 21
114.239380
  0
LINE
  8
0
 62
     4
 10
-99.999908
 20
114.239380
 11
-99.999908
 21
123.239380
  0
LINE
  8
0
 62
     4
 10
-35.999908
 20
126.539383
 11
-38.999908
 21
126.539383
  0
LINE
  8
0
 62
     4
 10
-35.999908
 20
120.939377
 11
-38.999908
 21
120.939377
  0
LINE
  8
0
 62
     4
 10
-103.799896
 20
115.939377
 11
-99.999901
 21
115.939377
  0
LINE
  8
0
 62
     4
 10
-103.799904
 20
121.539383
 11
-99.999908
 21
121.539383
  0
LINE
  8
0
 62
     4
 10
-35.999908
 20
120.939392
 11
-35.999908
 21
126.539383
  0
LINE
  8
0
 62
     4
 10
-103.799911
 20
115.939377
 11
-103.799911
 21
121.539368
  0
LINE
  8
0
 62
     4
 10
-100.999908
 20
121.539368
 11
-100.999908
 21
129.739380
  0
LINE
  8
0
 62
     4
 10
-100.799911
 20
115.939377
 11
-100.799911
 21
121.539368
  0
LINE
  8
0
  6
CENTER
 62
     2
 10
-37.499908
 20
150.989380
 11
-37.499908
 21
161.656036
  0
LINE
  8
0
  6
CENTER
 62
     2
 10
-102.499908
 20
151.322708
 11
-102.499908
 21
161.322723
  0
LINE
  8
0
  6
CENTER
 62
     2
 10
-94.999908
 20
151.322708
 11
-94.999908
 21
161.322723
  0
LINE
  8
0
  6
CENTER
 62
     2
 10
-44.999908
 20
150.989380
 11
-44.999908
 21
161.656036
  0
LINE
  8
0
  6
CENTER
 62
     2
 10
-37.499908
 20
101.989380
 11
-37.499908
 21
111.989380
  0
LINE
  8
0
  6
CENTER
 62
     2
 10
-102.499908
 20
101.989380
 11
-102.499908
 21
111.656036
  0
LINE
  8
0
 62
     1
 10
-21.126745
 20
134.210129
 11
-24.071386
 21
125.703377
  0
LINE
  8
0
 62
     1
 10
-117.214104
 20
120.061096
 11
-114.029037
 21
129.262405
  0
LINE
  8
0
 10
-64.499901
 20
136.766571
 11
-78.018204
 21
135.538483
  0
LINE
  8
0
 10
-64.499901
 20
138.238205
 11
-78.126282
 21
137.000290
  0
LINE
  8
0
  6
CENTER
 62
     2
 10
-78.072296
 20
154.171448
 11
-78.072296
 21
134.108093
  0
LINE
  8
0
 10
-70.499901
 20
150.888184
 11
-77.505562
 21
150.251740
  0
LINE
  8
0
 10
-70.499924
 20
152.359818
 11
-76.799484
 21
151.787521
  0
LINE
  8
0
 10
-64.499916
 20
139.699966
 11
-78.018082
 21
138.471878
  0
LINE
  8
0
 10
-64.499916
 20
141.171555
 11
-78.126274
 21
139.933640
  0
LINE
  8
0
 10
-64.499901
 20
142.633270
 11
-78.018066
 21
141.405197
  0
LINE
  8
0
 10
-64.499916
 20
144.104874
 11
-78.126266
 21
142.866959
  0
LINE
  8
0
 10
-64.499908
 20
145.566620
 11
-78.018074
 21
144.338531
  0
LINE
  8
0
 10
-64.499916
 20
147.038239
 11
-78.126274
 21
145.800323
  0
LINE
  8
0
 10
-64.499908
 20
148.499924
 11
-78.018082
 21
147.271835
  0
LINE
  8
0
 10
-64.499916
 20
149.971558
 11
-78.126282
 21
148.733643
  0
LINE
  8
0
 10
-109.999908
 20
-103.830444
 11
-109.999908
 21
-109.830444
  0
LINE
  8
0
 10
-29.999908
 20
-103.830444
 11
-29.999908
 21
-109.830444
  0
LINE
  8
0
 10
-109.999893
 20
-103.830444
 11
-29.999893
 21
-103.830444
  0
LINE
  8
0
 10
-109.999893
 20
-109.830444
 11
-84.999893
 21
-109.830444
  0
LINE
  8
0
 10
-89.999908
 20
-109.830444
 11
-89.999908
 21
-134.830444
  0
LINE
  8
0
 10
-65.499893
 20
-128.830444
 11
-49.999893
 21
-128.830444
  0
LINE
  8
0
 10
-65.499908
 20
-109.830444
 11
-65.499908
 21
-128.830444
  0
LINE
  8
0
 62
     4
 10
-100.999908
 20
-109.830444
 11
-100.999908
 21
-129.080444
  0
LINE
  8
0
  6
CENTER
 62
     2
 10
-69.999908
 20
-101.692413
 11
-69.999908
 21
-161.614746
  0
LINE
  8
0
 10
-63.999893
 20
-128.830444
 11
-52.999893
 21
-128.830444
  0
LINE
  8
0
 62
     4
 10
-100.999893
 20
-129.080444
 11
-89.999893
 21
-129.080444
  0
LINE
  8
0
 62
     4
 10
-102.999893
 20
-126.580444
 11
-100.999893
 21
-126.580444
  0
LINE
  8
0
 62
     4
 10
-102.999893
 20
-121.580444
 11
-100.999893
 21
-121.580444
  0
LINE
  8
0
 62
     4
 10
-116.737015
 20
-122.380432
 11
-102.999893
 21
-122.380432
  0
LINE
  8
0
 62
     4
 10
-117.913940
 20
-125.780441
 11
-102.999893
 21
-125.780441
  0
LINE
  8
0
 62
     4
 10
-102.999908
 20
-121.580444
 11
-102.999908
 21
-126.580444
  0
LINE
  8
0
 10
-49.999908
 20
-109.830444
 11
-49.999908
 21
-134.830444
  0
LINE
  8
0
 10
-94.999893
 20
-134.830444
 11
-44.999886
 21
-134.830444
  0
LINE
  8
0
 10
-71.999893
 20
-152.830444
 11
-67.999893
 21
-152.830444
  0
LINE
  8
0
 10
-63.200348
 20
-150.000488
 11
-63.200348
 21
-152.422302
  0
LINE
  8
0
 10
-63.200394
 20
-152.422363
 11
-62.500397
 21
-152.826508
  0
LINE
  8
0
 10
-60.900345
 20
-150.000519
 11
-60.900345
 21
-152.422241
  0
LINE
  8
0
 10
-63.200340
 20
-150.000519
 11
-62.500355
 21
-149.596390
  0
LINE
  8
0
 10
-62.500336
 20
-149.596375
 11
-54.700333
 21
-149.596375
  0
LINE
  8
0
 10
-56.300354
 20
-150.000519
 11
-56.300354
 21
-152.422211
  0
LINE
  8
0
 10
-54.000351
 20
-150.000519
 11
-54.000351
 21
-152.392212
  0
LINE
  8
0
 10
-54.700367
 20
-149.596481
 11
-54.000336
 21
-150.000641
  0
LINE
  8
0
 10
-54.707458
 20
-152.830353
 11
-54.000336
 21
-152.422089
  0
LINE
  8
0
 62
     2
 10
-60.600357
 20
-134.830444
 11
-60.600357
 21
-149.596375
  0
LINE
  8
0
 10
-61.100357
 20
-134.830444
 11
-61.100357
 21
-149.596375
  0
LINE
  8
0
 62
     2
 10
-56.600357
 20
-134.830444
 11
-56.600357
 21
-149.596375
  0
LINE
  8
0
 10
-56.100357
 20
-134.830444
 11
-56.100357
 21
-149.596375
  0
LINE
  8
0
 10
-65.499893
 20
-109.830444
 11
-29.999893
 21
-109.830444
  0
LINE
  8
0
 10
-89.499893
 20
-149.830444
 11
-69.499893
 21
-149.830444
  0
LINE
  8
0
 10
-83.499908
 20
-134.830444
 11
-83.499908
 21
-149.830444
  0
LINE
  8
0
 10
-75.499908
 20
-134.830444
 11
-75.499908
 21
-149.830444
  0
LINE
  8
0
  6
PHANTOM
 62
     2
 10
-109.999893
 20
-137.830444
 11
-29.999893
 21
-137.830444
  0
LINE
  8
0
  6
PHANTOM
 62
     2
 10
-109.999908
 20
-137.830444
 11
-109.999908
 21
-143.830444
  0
LINE
  8
0
  6
PHANTOM
 62
     2
 10
-109.999893
 20
-143.830444
 11
-29.999893
 21
-143.830444
  0
LINE
  8
0
  6
PHANTOM
 62
     2
 10
-29.999908
 20
-137.830444
 11
-29.999908
 21
-143.830444
  0
LINE
  8
0
 10
-89.499908
 20
-149.830444
 11
-89.499908
 21
-152.830444
  0
LINE
  8
0
 10
-69.499908
 20
-149.830444
 11
-69.499908
 21
-152.830444
  0
LINE
  8
0
 10
-52.884392
 20
-126.830444
 11
-52.884392
 21
-128.830444
  0
LINE
  8
0
 10
-63.884392
 20
-126.830444
 11
-63.884392
 21
-128.830444
  0
LINE
  8
0
 10
-55.969612
 20
-118.630981
 11
-55.969612
 21
-119.630981
  0
LINE
  8
0
 62
     2
 10
-56.469612
 20
-118.630981
 11
-56.469612
 21
-119.630981
  0
LINE
  8
0
 62
     2
 10
-60.469612
 20
-118.630981
 11
-60.469612
 21
-119.630981
  0
LINE
  8
0
 10
-60.969612
 20
-118.630981
 11
-60.969612
 21
-119.630981
  0
LINE
  8
0
 10
-63.069603
 20
-123.234589
 11
-63.069603
 21
-126.830444
  0
LINE
  8
0
 10
-60.769600
 20
-123.234589
 11
-60.769600
 21
-126.830444
  0
LINE
  8
0
 10
-63.069618
 20
-123.234505
 11
-62.369617
 21
-122.830360
  0
LINE
  8
0
 10
-56.169609
 20
-123.234589
 11
-56.169609
 21
-126.830444
  0
LINE
  8
0
 10
-53.869606
 20
-123.234589
 11
-53.869606
 21
-126.830444
  0
LINE
  8
0
 10
-54.569588
 20
-122.830498
 11
-53.869572
 21
-123.234642
  0
LINE
  8
0
 10
-60.969589
 20
-118.630981
 11
-55.969589
 21
-118.630981
  0
LINE
  8
0
 10
-63.884369
 20
-126.830444
 11
-52.884369
 21
-126.830444
  0
LINE
  8
0
 10
-54.569576
 20
-122.830978
 11
-53.869579
 21
-122.426826
  0
LINE
  8
0
 10
-63.069603
 20
-120.035126
 11
-63.069603
 21
-122.426849
  0
LINE
  8
0
 10
-63.069565
 20
-122.426949
 11
-62.369568
 21
-122.831093
  0
LINE
  8
0
 10
-60.769600
 20
-120.035126
 11
-60.769600
 21
-122.426849
  0
LINE
  8
0
 10
-63.069595
 20
-120.035110
 11
-62.369591
 21
-119.630951
  0
LINE
  8
0
 10
-62.369583
 20
-119.630981
 11
-54.569580
 21
-119.630981
  0
LINE
  8
0
 10
-56.169609
 20
-120.035126
 11
-56.169609
 21
-122.426849
  0
LINE
  8
0
 10
-53.869606
 20
-120.035126
 11
-53.869606
 21
-122.426849
  0
LINE
  8
0
 10
-54.569565
 20
-119.630959
 11
-53.869572
 21
-120.035088
  0
LINE
  8
0
 10
-62.369614
 20
-122.830994
 11
-54.569641
 21
-122.830994
  0
LINE
  8
0
 62
     4
 10
-38.999893
 20
-134.080444
 11
-44.999886
 21
-134.080444
  0
LINE
  8
0
 62
     4
 10
-36.999893
 20
-131.580444
 11
-38.999893
 21
-131.580444
  0
LINE
  8
0
 62
     4
 10
-36.999908
 20
-126.580444
 11
-36.999908
 21
-131.580444
  0
LINE
  8
0
 62
     4
 10
-36.999893
 20
-126.580444
 11
-38.999893
 21
-126.580444
  0
LINE
  8
0
 62
     4
 10
-23.816605
 20
-127.380432
 11
-36.999893
 21
-127.380432
  0
LINE
  8
0
 62
     4
 10
-24.993546
 20
-130.780441
 11
-36.999893
 21
-130.780441
  0
LINE
  8
0
 62
     4
 10
-38.999908
 20
-112.080444
 11
-38.999908
 21
-120.280441
  0
LINE
  8
0
 10
-109.999893
 20
-152.830444
 11
-29.999893
 21
-152.830444
  0
LINE
  8
0
 10
-109.999908
 20
-152.830444
 11
-109.999908
 21
-158.830444
  0
LINE
  8
0
 10
-109.999893
 20
-158.830444
 11
-29.999893
 21
-158.830444
  0
LINE
  8
0
 10
-29.999908
 20
-152.830444
 11
-29.999908
 21
-158.830444
  0
LINE
  8
0
 10
-84.999908
 20
-109.830444
 11
-84.999908
 21
-134.830444
  0
LINE
  8
0
 10
-94.999908
 20
-129.080444
 11
-94.999908
 21
-134.830444
  0
LINE
  8
0
 62
     4
 10
-39.999893
 20
-127.580444
 11
-44.999886
 21
-127.580444
  0
LINE
  8
0
 10
-44.999908
 20
-109.830444
 11
-44.999908
 21
-134.830444
  0
LINE
  8
0
 62
     4
 10
-39.999893
 20
-118.580444
 11
-44.999893
 21
-118.580444
  0
LINE
  8
0
 62
     4
 10
-39.999908
 20
-118.580444
 11
-39.999908
 21
-127.580444
  0
LINE
  8
0
 62
     4
 10
-103.999893
 20
-120.880432
 11
-100.999893
 21
-120.880432
  0
LINE
  8
0
 62
     4
 10
-103.999893
 20
-115.280441
 11
-100.999893
 21
-115.280441
  0
LINE
  8
0
 62
     4
 10
-36.199905
 20
-120.280441
 11
-39.999893
 21
-120.280441
  0
LINE
  8
0
 62
     4
 10
-36.199890
 20
-125.880432
 11
-39.999893
 21
-125.880432
  0
LINE
  8
0
 62
     4
 10
-103.999908
 20
-115.280457
 11
-103.999908
 21
-120.880447
  0
LINE
  8
0
 62
     4
 10
-36.199905
 20
-120.280441
 11
-36.199905
 21
-125.880432
  0
LINE
  8
0
 62
     4
 10
-38.999908
 20
-125.880432
 11
-38.999908
 21
-134.080444
  0
LINE
  8
0
 62
     4
 10
-39.199905
 20
-120.280441
 11
-39.199905
 21
-125.880432
  0
LINE
  8
0
  6
CENTER
 62
     2
 10
-102.499908
 20
-150.330444
 11
-102.499908
 21
-160.997101
  0
LINE
  8
0
  6
CENTER
 62
     2
 10
-37.499908
 20
-150.663757
 11
-37.499908
 21
-160.663788
  0
LINE
  8
0
  6
CENTER
 62
     2
 10
-44.999908
 20
-150.663757
 11
-44.999908
 21
-160.663788
  0
LINE
  8
0
  6
CENTER
 62
     2
 10
-94.999908
 20
-150.330444
 11
-94.999908
 21
-160.997101
  0
LINE
  8
0
  6
CENTER
 62
     2
 10
-102.499908
 20
-101.330444
 11
-102.499908
 21
-111.330444
  0
LINE
  8
0
  6
CENTER
 62
     2
 10
-37.499908
 20
-101.330444
 11
-37.499908
 21
-110.997101
  0
LINE
  8
0
 62
     1
 10
-118.873032
 20
-128.551163
 11
-115.928398
 21
-120.044441
  0
LINE
  8
0
 62
     1
 10
-22.785709
 20
-124.402145
 11
-25.970776
 21
-133.603485
  0
LINE
  8
0
 10
-75.499886
 20
-136.107697
 11
-61.981598
 21
-134.879608
  0
LINE
  8
0
 10
-75.499893
 20
-137.579224
 11
-61.873520
 21
-136.341293
  0
LINE
  8
0
  6
CENTER
 62
     2
 10
-61.927521
 20
-153.512512
 11
-61.927521
 21
-133.449158
  0
LINE
  8
0
 10
-69.499893
 20
-150.229279
 11
-62.494247
 21
-149.592834
  0
LINE
  8
0
 10
-69.499886
 20
-151.700867
 11
-63.200321
 21
-151.128571
  0
LINE
  8
0
 10
-75.499901
 20
-139.041107
 11
-61.981731
 21
-137.813034
  0
LINE
  8
0
 10
-75.499886
 20
-140.512604
 11
-61.873535
 21
-139.274689
  0
LINE
  8
0
 10
-75.499901
 20
-141.974289
 11
-61.981743
 21
-140.746201
  0
LINE
  8
0
 10
-75.499901
 20
-143.445984
 11
-61.873543
 21
-142.208069
  0
LINE
  8
0
 10
-75.499886
 20
-144.907623
 11
-61.981716
 21
-143.679535
  0
LINE
  8
0
 10
-75.499878
 20
-146.379257
 11
-61.873524
 21
-145.141342
  0
LINE
  8
0
 10
-75.499901
 20
-147.840927
 11
-61.981735
 21
-146.612839
  0
LINE
  8
0
 10
-75.499878
 20
-149.312622
 11
-61.873524
 21
-148.074707
  0
LINE
  8
0
 10
-38.999893
 20
-112.080444
 11
-44.999886
 21
-112.080444
  0
LINE
  8
0
 10
230.060059
 20
38.678040
 11
150.060043
 21
38.678040
  0
LINE
  8
0
 10
230.060089
 20
-41.321960
 11
150.060089
 21
-41.321960
  0
LINE
  8
0
 10
230.060089
 20
38.678051
 11
230.060089
 21
-41.321941
  0
LINE
  8
0
 10
150.060074
 20
38.678013
 11
150.060074
 21
-41.321995
  0
LINE
  8
0
  6
CENTER
 62
     2
 10
190.060089
 20
44.547188
 11
190.060089
 21
-44.546982
  0
LINE
  8
0
  6
CENTER
 62
     2
 10
236.248169
 20
-1.321962
 11
147.166504
 21
-1.321962
  0
LINE
  8
0
  6
CENTER
 62
     2
 10
228.135696
 20
31.178038
 11
217.469421
 21
31.178038
  0
LINE
  8
0
  6
CENTER
 62
     2
 10
228.135742
 20
-33.821960
 11
216.533539
 21
-33.821960
  0
LINE
  8
0
  6
CENTER
 62
     2
 10
222.560089
 20
37.255791
 11
222.560089
 21
25.668852
  0
LINE
  8
0
  6
CENTER
 62
     2
 10
157.560074
 20
36.339359
 11
157.560074
 21
25.854902
  0
LINE
  8
0
  6
CENTER
 62
     2
 10
165.060074
 20
29.008150
 11
165.060074
 21
18.773600
  0
LINE
  8
0
  6
CENTER
 62
     2
 10
215.060089
 20
29.008173
 11
215.060089
 21
19.688723
  0
LINE
  8
0
  6
CENTER
 62
     2
 10
221.037781
 20
-26.321962
 11
209.309143
 21
-26.321962
  0
LINE
  8
0
  6
CENTER
 62
     2
 10
220.511963
 20
23.678038
 11
210.346497
 21
23.678038
  0
LINE
  8
0
  6
CENTER
 62
     2
 10
169.865707
 20
23.678038
 11
159.283569
 21
23.678038
  0
LINE
  8
0
  6
CENTER
 62
     2
 10
193.568008
 20
23.678038
 11
186.461609
 21
23.678038
  0
LINE
  8
0
  6
CENTER
 62
     2
 10
222.560089
 20
-28.941423
 11
222.560089
 21
-39.286911
  0
LINE
  8
0
  6
CENTER
 62
     2
 10
215.060089
 20
-21.035482
 11
215.060089
 21
-32.541645
  0
LINE
  8
0
  6
CENTER
 62
     2
 10
162.692688
 20
-33.821960
 11
151.241333
 21
-33.821960
  0
LINE
  8
0
  6
CENTER
 62
     2
 10
170.597275
 20
-26.321962
 11
159.283600
 21
-26.321962
  0
LINE
  8
0
  6
CENTER
 62
     2
 10
165.060074
 20
-21.856321
 11
165.060074
 21
-32.220474
  0
LINE
  8
0
  6
CENTER
 62
     2
 10
157.560074
 20
-28.123598
 11
157.560074
 21
-39.929356
  0
LINE
  8
0
  6
CENTER
 62
     2
 10
165.060074
 20
1.292543
 11
165.060074
 21
-5.321990
  0
LINE
  8
0
  6
CENTER
 62
     2
 10
193.563797
 20
-26.321962
 11
186.782837
 21
-26.321962
  0
LINE
  8
0
  6
CENTER
 62
     2
 10
193.724564
 20
-33.821960
 11
186.811584
 21
-33.821960
  0
LINE
  8
0
  6
CENTER
 62
     2
 10
222.560089
 20
2.242293
 11
222.560089
 21
-4.918134
  0
LINE
  8
0
  6
CENTER
 62
     2
 10
157.560074
 20
2.242262
 11
157.560074
 21
-4.596964
  0
LINE
  8
0
  6
CENTER
 62
     2
 10
193.568008
 20
31.178038
 11
186.461609
 21
31.178038
  0
LINE
  8
0
  6
CENTER
 62
     2
 10
215.060089
 20
2.679537
 11
215.060089
 21
-5.321958
  0
LINE
  8
0
  6
CENTER
 62
     2
 10
162.248352
 20
31.178038
 11
152.029083
 21
31.178038
  0
CIRCLE
  8
0
 10
-69.999878
 20
-0.000057
 40
9.000000
  0
ARC
  8
0
 62
     4
 10
-50.619888
 20
-8.000057
 40
4.420009
 50
320.692413
 51
39.307362
  0
ARC
  8
0
 62
     4
 10
-89.094879
 20
7.999939
 40
4.704990
 50
141.948822
 51
218.051529
  0
CIRCLE
  8
0
 10
-102.499870
 20
32.499939
 40
1.500000
  0
CIRCLE
  8
0
 62
     2
 10
-102.499870
 20
32.499939
 40
2.000000
  0
CIRCLE
  8
0
 10
-37.499863
 20
32.499939
 40
1.500000
  0
CIRCLE
  8
0
 62
     2
 10
-37.499863
 20
32.499939
 40
2.000000
  0
CIRCLE
  8
0
 10
-102.499878
 20
-32.500076
 40
1.500000
  0
CIRCLE
  8
0
 62
     2
 10
-102.499878
 20
-32.500076
 40
2.000000
  0
CIRCLE
  8
0
 10
-37.499893
 20
-32.500069
 40
1.500000
  0
CIRCLE
  8
0
 62
     2
 10
-37.499893
 20
-32.500069
 40
2.000000
  0
ARC
  8
0
 10
-69.999863
 20
31.499939
 40
3.000000
 50
180.000000
 51
359.999969
  0
CIRCLE
  8
0
 10
-69.999893
 20
-32.500069
 40
3.000000
  0
ARC
  8
0
 10
-69.999878
 20
-0.500057
 40
7.500000
 50
0.000014
 51
211.051971
  0
ARC
  8
0
 10
-75.656731
 20
-5.656918
 40
1.500000
 50
277.078552
 51
120.814674
  0
ARC
  8
0
 10
-64.343025
 20
-5.656910
 40
1.500000
 50
59.185143
 51
262.921753
  0
ARC
  8
0
 10
-75.656731
 20
-5.656918
 40
0.600000
 50
259.727814
 51
190.272095
  0
ARC
  8
0
 10
-64.343025
 20
-5.656910
 40
0.600001
 50
349.726410
 51
280.273651
  0
ARC
  8
0
 10
-69.999878
 20
-0.500057
 40
7.500000
 50
328.948059
 51
0.000014
  0
ARC
  8
0
 10
-196.965225
 20
31.519615
 40
1.838242
 50
180.000000
 51
218.726013
  0
ARC
  8
0
 10
-202.350250
 20
28.069633
 40
6.746778
 50
340.068115
 51
19.931963
  0
ARC
  8
0
 10
-196.965210
 20
24.619652
 40
1.838253
 50
141.274292
 51
180.000061
  0
ARC
  8
0
 10
-197.441711
 20
24.619652
 40
1.838242
 50
0.000000
 51
38.726051
  0
ARC
  8
0
 10
-197.441727
 20
31.519676
 40
1.838254
 50
321.274231
 51
359.999939
  0
CIRCLE
  8
0
 62
     4
 10
-194.102875
 20
7.999931
 40
3.300000
  0
CIRCLE
  8
0
 10
-206.802887
 20
7.999928
 40
2.800000
  0
CIRCLE
  8
0
 62
     4
 10
-200.052856
 20
0.499931
 40
1.700000
  0
CIRCLE
  8
0
 62
     4
 10
-200.052856
 20
0.499931
 40
2.500000
  0
CIRCLE
  8
0
 10
-182.802902
 20
7.999962
 40
2.800000
  0
ARC
  8
0
 10
-226.566025
 20
24.668999
 40
1.838253
 50
141.274292
 51
180.000061
  0
ARC
  8
0
 10
-227.042511
 20
24.668999
 40
1.838242
 50
0.000000
 51
38.726051
  0
ARC
  8
0
 10
-231.951050
 20
28.118980
 40
6.746778
 50
340.068115
 51
19.931963
  0
ARC
  8
0
 10
-226.566040
 20
31.568993
 40
1.838242
 50
180.000061
 51
218.726059
  0
ARC
  8
0
 10
-227.042542
 20
31.568993
 40
1.838254
 50
321.274231
 51
359.999939
  0
ARC
  8
0
 10
-221.657501
 20
28.119011
 40
6.746766
 50
160.068024
 51
199.931961
  0
ARC
  8
0
 10
-200.641174
 20
24.619621
 40
1.838242
 50
0.000000
 51
38.726051
  0
ARC
  8
0
 10
-200.641190
 20
31.519646
 40
1.838255
 50
321.274200
 51
0.000000
  0
ARC
  8
0
 10
-205.549698
 20
28.069633
 40
6.746778
 50
340.068115
 51
19.931963
  0
ARC
  8
0
 10
-192.056702
 20
28.069664
 40
6.746766
 50
160.068024
 51
199.931961
  0
ARC
  8
0
 10
62.359482
 20
-31.519722
 40
1.838242
 50
0.000000
 51
38.725933
  0
ARC
  8
0
 10
67.744492
 20
-28.069740
 40
6.746776
 50
160.068069
 51
199.931946
  0
ARC
  8
0
 10
62.359482
 20
-24.619759
 40
1.838247
 50
321.274139
 51
0.000000
  0
ARC
  8
0
 10
62.835983
 20
-24.619759
 40
1.838249
 50
180.000000
 51
218.725906
  0
ARC
  8
0
 10
62.835983
 20
-31.519783
 40
1.838252
 50
141.274124
 51
179.999878
  0
CIRCLE
  8
0
 62
     4
 10
64.297165
 20
-8.000034
 40
3.300000
  0
CIRCLE
  8
0
 10
72.197159
 20
-8.000034
 40
2.800000
  0
CIRCLE
  8
0
 62
     4
 10
70.247147
 20
-0.500034
 40
1.700000
  0
CIRCLE
  8
0
 62
     4
 10
70.247147
 20
-0.500034
 40
2.500000
  0
CIRCLE
  8
0
 10
48.197159
 20
-8.000065
 40
2.800000
  0
ARC
  8
0
 10
91.960274
 20
-24.669098
 40
1.838247
 50
321.274139
 51
0.000000
  0
ARC
  8
0
 10
92.436775
 20
-24.669098
 40
1.838249
 50
180.000000
 51
218.725906
  0
ARC
  8
0
 10
97.345314
 20
-28.119080
 40
6.746772
 50
160.068054
 51
199.931961
  0
ARC
  8
0
 10
91.960304
 20
-31.569092
 40
1.838242
 50
0.000000
 51
38.725857
  0
ARC
  8
0
 10
92.436806
 20
-31.569092
 40
1.838249
 50
141.274048
 51
179.999878
  0
ARC
  8
0
 10
87.051765
 20
-28.119110
 40
6.746766
 50
340.067993
 51
19.931946
  0
ARC
  8
0
 10
66.035416
 20
-24.619728
 40
1.838249
 50
180.000000
 51
218.725906
  0
ARC
  8
0
 10
66.035446
 20
-31.519753
 40
1.838249
 50
141.274048
 51
180.000000
  0
ARC
  8
0
 10
70.943954
 20
-28.069733
 40
6.746772
 50
160.068054
 51
199.931961
  0
ARC
  8
0
 10
57.450974
 20
-28.069771
 40
6.746770
 50
340.068024
 51
19.931934
  0
ARC
  8
0
 10
-78.080208
 20
122.128189
 40
1.838249
 50
231.274048
 51
270.000000
  0
ARC
  8
0
 10
-84.980217
 20
121.651688
 40
1.838249
 50
51.274048
 51
90.000000
  0
ARC
  8
0
 10
-84.980217
 20
122.128174
 40
1.838249
 50
270.000000
 51
308.725952
  0
ARC
  8
0
 10
-77.949478
 20
151.647064
 40
1.838242
 50
90.000000
 51
128.725906
  0
ARC
  8
0
 10
-81.399460
 20
146.738541
 40
6.746766
 50
70.068008
 51
109.931931
  0
ARC
  8
0
 10
-77.949463
 20
152.093552
 40
1.838255
 50
231.274200
 51
270.000000
  0
ARC
  8
0
 10
-81.399460
 20
157.002075
 40
6.746778
 50
250.068115
 51
289.931946
  0
ARC
  8
0
 10
-84.849472
 20
152.093552
 40
1.838242
 50
270.000000
 51
308.726105
  0
ARC
  8
0
 10
-84.849472
 20
151.647049
 40
1.838255
 50
51.274197
 51
111.271019
  0
ARC
  8
0
 10
-84.980217
 20
125.327637
 40
1.838249
 50
270.000000
 51
308.725952
  0
ARC
  8
0
 10
-78.080208
 20
125.327637
 40
1.838249
 50
231.274048
 51
270.000000
  0
ARC
  8
0
 10
-81.530205
 20
130.236176
 40
6.746778
 50
250.068115
 51
289.931976
  0
ARC
  8
0
 10
-81.530197
 20
116.743164
 40
6.746766
 50
70.068008
 51
109.931908
  0
ARC
  8
0
 10
-78.080223
 20
121.651688
 40
1.838242
 50
90.000000
 51
128.725769
  0
ARC
  8
0
 10
-81.530205
 20
127.036713
 40
6.746778
 50
250.068115
 51
289.931976
  0
ARC
  8
0
 10
-61.919594
 20
-121.469238
 40
1.838249
 50
51.274048
 51
89.999878
  0
ARC
  8
0
 10
-55.019585
 20
-120.992737
 40
1.838247
 50
231.274139
 51
270.000000
  0
ARC
  8
0
 10
-55.019585
 20
-121.469238
 40
1.838249
 50
90.000000
 51
128.725861
  0
ARC
  8
0
 10
-62.050323
 20
-150.988129
 40
1.838242
 50
270.000000
 51
308.726013
  0
ARC
  8
0
 10
-58.600342
 20
-146.079590
 40
6.746768
 50
250.067978
 51
289.931946
  0
ARC
  8
0
 10
-62.050339
 20
-151.434601
 40
1.838255
 50
51.274197
 51
89.999878
  0
ARC
  8
0
 10
-58.600342
 20
-156.343140
 40
6.746780
 50
70.068054
 51
109.931915
  0
ARC
  8
0
 10
-55.150330
 20
-151.434601
 40
1.838242
 50
90.000000
 51
128.725708
  0
ARC
  8
0
 10
-55.150330
 20
-150.988098
 40
1.838241
 50
231.273987
 51
291.270905
  0
ARC
  8
0
 10
-55.019585
 20
-124.668701
 40
1.838249
 50
90.000000
 51
128.725861
  0
ARC
  8
0
 10
-61.919594
 20
-124.668701
 40
1.838249
 50
51.274048
 51
89.999878
  0
ARC
  8
0
 10
-58.469597
 20
-129.577225
 40
6.746773
 50
70.068031
 51
109.931915
  0
ARC
  8
0
 10
-58.469604
 20
-116.084229
 40
6.746768
 50
250.067978
 51
289.931915
  0
ARC
  8
0
 10
-61.919579
 20
-120.992737
 40
1.838242
 50
270.000000
 51
308.725861
  0
ARC
  8
0
 10
-58.469597
 20
-126.377777
 40
6.746773
 50
70.068031
 51
109.931915
  0
CIRCLE
  8
0
 10
190.060059
 20
31.178030
 40
2.000000
  0
CIRCLE
  8
0
 10
190.060059
 20
23.678030
 40
2.000000
  0
CIRCLE
  8
0
 10
190.060089
 20
-26.321962
 40
2.000000
  0
CIRCLE
  8
0
 10
190.060104
 20
-33.821960
 40
2.000000
  0
CIRCLE
  8
0
 10
215.060074
 20
-1.321958
 40
2.000000
  0
CIRCLE
  8
0
 10
222.560059
 20
31.178045
 40
2.250000
  0
CIRCLE
  8
0
 10
215.060059
 20
23.678041
 40
2.250000
  0
CIRCLE
  8
0
 10
215.060089
 20
-26.321951
 40
2.250000
  0
CIRCLE
  8
0
 10
222.560089
 20
-33.821945
 40
2.250000
  0
CIRCLE
  8
0
 10
165.060089
 20
-26.321989
 40
2.250000
  0
CIRCLE
  8
0
 10
157.560089
 20
-33.821991
 40
2.250000
  0
CIRCLE
  8
0
 10
165.060059
 20
23.678019
 40
2.250000
  0
CIRCLE
  8
0
 10
157.560059
 20
31.178015
 40
2.250000
  0
CIRCLE
  8
0
 10
165.060074
 20
-1.321982
 40
2.000000
  0
CIRCLE
  8
0
  6
DASHED
 62
     2
 10
222.560059
 20
31.178045
 40
4.000000
  0
CIRCLE
  8
0
  6
DASHED
 62
     2
 10
215.060059
 20
23.678041
 40
4.000000
  0
CIRCLE
  8
0
  6
DASHED
 62
     2
 10
165.060059
 20
23.678019
 40
4.000000
  0
CIRCLE
  8
0
  6
DASHED
 62
     2
 10
157.560059
 20
31.178015
 40
4.000000
  0
CIRCLE
  8
0
  6
DASHED
 62
     2
 10
165.060089
 20
-26.321989
 40
4.000000
  0
CIRCLE
  8
0
  6
DASHED
 62
     2
 10
157.560089
 20
-33.821991
 40
4.000000
  0
CIRCLE
  8
0
  6
DASHED
 62
     2
 10
215.060089
 20
-26.321951
 40
4.000000
  0
CIRCLE
  8
0
  6
DASHED
 62
     2
 10
222.560089
 20
-33.821945
 40
4.000000
  0
CIRCLE
  8
0
 10
222.560074
 20
-1.321954
 40
2.000000
  0
CIRCLE
  8
0
 10
157.560074
 20
-1.321985
 40
2.000000
  0
ARC
  8
0
 10
-211.447540
 20
-8.072399
 40
0.598024
 50
348.923218
 51
11.076768
  0
ARC
  8
0
 10
-211.483459
 20
-8.082718
 40
0.635265
 50
11.367691
 51
43.293736
  0
ARC
  8
0
 10
-211.582855
 20
-8.196531
 40
0.785787
 50
44.364143
 51
135.635864
  0
ARC
  8
0
 10
-211.682251
 20
-8.082718
 40
0.635259
 50
136.706268
 51
168.632309
  0
ARC
  8
0
 10
-211.718170
 20
-8.072399
 40
0.598024
 50
168.923233
 51
191.076767
  0
ARC
  8
0
 10
-211.682251
 20
-8.062080
 40
0.635265
 50
191.367691
 51
223.293762
  0
ARC
  8
0
 10
-211.582855
 20
-7.948267
 40
0.785788
 50
224.364166
 51
315.635834
  0
ARC
  8
0
 10
-211.483459
 20
-8.062080
 40
0.635259
 50
316.706238
 51
348.632324
  0
ARC
  8
0
 10
-227.580933
 20
8.070319
 40
0.598008
 50
348.258453
 51
10.412560
  0
ARC
  8
0
 10
-227.616974
 20
8.060417
 40
0.635259
 50
10.703436
 51
42.629356
  0
ARC
  8
0
 10
-227.717682
 20
7.947764
 40
0.785787
 50
43.699776
 51
134.971481
  0
ARC
  8
0
 10
-227.815765
 20
8.062722
 40
0.635249
 50
136.040970
 51
167.967575
  0
ARC
  8
0
 10
-227.851562
 20
8.073457
 40
0.598008
 50
168.258484
 51
190.412567
  0
ARC
  8
0
 10
-227.815521
 20
8.083359
 40
0.635259
 50
190.703430
 51
222.629349
  0
ARC
  8
0
 10
-227.714813
 20
8.196012
 40
0.785787
 50
223.699768
 51
314.971466
  0
ARC
  8
0
 10
-227.616730
 20
8.081054
 40
0.635249
 50
316.040985
 51
347.967529
  0
ARC
  8
0
 10
-226.114197
 20
-8.072491
 40
0.598024
 50
348.923218
 51
11.076768
  0
ARC
  8
0
 10
-226.150116
 20
-8.082809
 40
0.635265
 50
11.367691
 51
43.293736
  0
ARC
  8
0
 10
-226.249512
 20
-8.196623
 40
0.785787
 50
44.364143
 51
135.635864
  0
ARC
  8
0
 10
-226.348907
 20
-8.082809
 40
0.635259
 50
136.706268
 51
168.632309
  0
ARC
  8
0
 10
-226.384827
 20
-8.072491
 40
0.598024
 50
168.923233
 51
191.076767
  0
ARC
  8
0
 10
-226.348907
 20
-8.062172
 40
0.635265
 50
191.367691
 51
223.293762
  0
ARC
  8
0
 10
-226.249512
 20
-7.948359
 40
0.785788
 50
224.364166
 51
315.635834
  0
ARC
  8
0
 10
-226.150116
 20
-8.062172
 40
0.635259
 50
316.706238
 51
348.632324
  0
ARC
  8
0
 10
-212.914276
 20
8.071980
 40
0.598024
 50
348.923218
 51
11.076768
  0
ARC
  8
0
 10
-212.950195
 20
8.061661
 40
0.635265
 50
11.367691
 51
43.293766
  0
ARC
  8
0
 10
-213.049591
 20
7.947847
 40
0.785788
 50
44.364166
 51
135.635834
  0
ARC
  8
0
 10
-213.148987
 20
8.061661
 40
0.635259
 50
136.706238
 51
168.632309
  0
ARC
  8
0
 10
-213.184906
 20
8.071980
 40
0.598024
 50
168.923233
 51
191.076767
  0
ARC
  8
0
 10
-213.148987
 20
8.082298
 40
0.635265
 50
191.367691
 51
223.293732
  0
ARC
  8
0
 10
-213.049591
 20
8.196112
 40
0.785787
 50
224.364136
 51
315.635864
  0
ARC
  8
0
 10
-212.950195
 20
8.082298
 40
0.635259
 50
316.706268
 51
348.632324
  0
ARC
  8
0
 10
-220.247528
 20
-8.072399
 40
0.598024
 50
348.923218
 51
11.076768
  0
ARC
  8
0
 10
-220.283447
 20
-8.082718
 40
0.635265
 50
11.367691
 51
43.293736
  0
ARC
  8
0
 10
-220.382843
 20
-8.196531
 40
0.785787
 50
44.364143
 51
135.635864
  0
ARC
  8
0
 10
-220.482239
 20
-8.082718
 40
0.635259
 50
136.706268
 51
168.632309
  0
ARC
  8
0
 10
-220.518158
 20
-8.072399
 40
0.598024
 50
168.923233
 51
191.076767
  0
ARC
  8
0
 10
-220.482239
 20
-8.062080
 40
0.635265
 50
191.367691
 51
223.293762
  0
ARC
  8
0
 10
-220.382843
 20
-7.948267
 40
0.785788
 50
224.364166
 51
315.635834
  0
ARC
  8
0
 10
-220.283447
 20
-8.062080
 40
0.635259
 50
316.706238
 51
348.632324
  0
ARC
  8
0
 10
-221.714264
 20
8.070411
 40
0.598008
 50
348.258453
 51
10.412560
  0
ARC
  8
0
 10
-221.750305
 20
8.060509
 40
0.635259
 50
10.703436
 51
42.629356
  0
ARC
  8
0
 10
-221.851013
 20
7.947856
 40
0.785787
 50
43.699776
 51
134.971481
  0
ARC
  8
0
 10
-221.949097
 20
8.062814
 40
0.635249
 50
136.040970
 51
167.967575
  0
ARC
  8
0
 10
-221.984894
 20
8.073548
 40
0.598008
 50
168.258484
 51
190.412567
  0
ARC
  8
0
 10
-221.948853
 20
8.083450
 40
0.635259
 50
190.703430
 51
222.629349
  0
ARC
  8
0
 10
-221.848145
 20
8.196103
 40
0.785787
 50
223.699768
 51
314.971466
  0
ARC
  8
0
 10
-221.750061
 20
8.081145
 40
0.635249
 50
316.040985
 51
347.967529
  0
ARC
  8
0
 10
-224.647614
 20
8.071918
 40
0.598024
 50
348.923218
 51
11.076768
  0
ARC
  8
0
 10
-224.683533
 20
8.061600
 40
0.635265
 50
11.367691
 51
43.293766
  0
ARC
  8
0
 10
-224.782928
 20
7.947786
 40
0.785788
 50
44.364166
 51
135.635834
  0
ARC
  8
0
 10
-224.882324
 20
8.061600
 40
0.635259
 50
136.706238
 51
168.632309
  0
ARC
  8
0
 10
-224.918243
 20
8.071918
 40
0.598024
 50
168.923233
 51
191.076767
  0
ARC
  8
0
 10
-224.882324
 20
8.082237
 40
0.635265
 50
191.367691
 51
223.293732
  0
ARC
  8
0
 10
-224.782928
 20
8.196051
 40
0.785787
 50
224.364136
 51
315.635864
  0
ARC
  8
0
 10
-224.683533
 20
8.082237
 40
0.635259
 50
316.706268
 51
348.632324
  0
ARC
  8
0
 10
-223.180878
 20
-8.072460
 40
0.598024
 50
348.923218
 51
11.076768
  0
ARC
  8
0
 10
-223.216797
 20
-8.082779
 40
0.635265
 50
11.367691
 51
43.293736
  0
ARC
  8
0
 10
-223.316193
 20
-8.196592
 40
0.785787
 50
44.364143
 51
135.635864
  0
ARC
  8
0
 10
-223.415588
 20
-8.082779
 40
0.635259
 50
136.706268
 51
168.632309
  0
ARC
  8
0
 10
-223.451508
 20
-8.072460
 40
0.598024
 50
168.923233
 51
191.076767
  0
ARC
  8
0
 10
-223.415588
 20
-8.062141
 40
0.635265
 50
191.367691
 51
223.293762
  0
ARC
  8
0
 10
-223.316193
 20
-7.948328
 40
0.785788
 50
224.364166
 51
315.635834
  0
ARC
  8
0
 10
-223.216797
 20
-8.062141
 40
0.635259
 50
316.706238
 51
348.632324
  0
ARC
  8
0
 10
-215.847595
 20
8.070411
 40
0.598008
 50
348.258453
 51
10.412560
  0
ARC
  8
0
 10
-215.883636
 20
8.060509
 40
0.635259
 50
10.703436
 51
42.629356
  0
ARC
  8
0
 10
-215.984344
 20
7.947856
 40
0.785787
 50
43.699776
 51
134.971481
  0
ARC
  8
0
 10
-216.082428
 20
8.062814
 40
0.635249
 50
136.040970
 51
167.967575
  0
ARC
  8
0
 10
-216.118225
 20
8.073548
 40
0.598008
 50
168.258484
 51
190.412567
  0
ARC
  8
0
 10
-216.082184
 20
8.083450
 40
0.635259
 50
190.703430
 51
222.629349
  0
ARC
  8
0
 10
-215.981476
 20
8.196103
 40
0.785787
 50
223.699768
 51
314.971466
  0
ARC
  8
0
 10
-215.883392
 20
8.081145
 40
0.635249
 50
316.040985
 51
347.967529
  0
ARC
  8
0
 10
-214.380859
 20
-8.072399
 40
0.598024
 50
348.923218
 51
11.076768
  0
ARC
  8
0
 10
-214.416779
 20
-8.082718
 40
0.635265
 50
11.367691
 51
43.293736
  0
ARC
  8
0
 10
-214.516174
 20
-8.196531
 40
0.785787
 50
44.364143
 51
135.635864
  0
ARC
  8
0
 10
-214.615570
 20
-8.082718
 40
0.635259
 50
136.706268
 51
168.632309
  0
ARC
  8
0
 10
-214.651489
 20
-8.072399
 40
0.598024
 50
168.923233
 51
191.076767
  0
ARC
  8
0
 10
-214.615570
 20
-8.062080
 40
0.635265
 50
191.367691
 51
223.293762
  0
ARC
  8
0
 10
-214.516174
 20
-7.948267
 40
0.785788
 50
224.364166
 51
315.635834
  0
ARC
  8
0
 10
-214.416779
 20
-8.062080
 40
0.635259
 50
316.706238
 51
348.632324
  0
ARC
  8
0
 10
-218.780945
 20
8.071980
 40
0.598024
 50
348.923218
 51
11.076768
  0
ARC
  8
0
 10
-218.816864
 20
8.061661
 40
0.635265
 50
11.367691
 51
43.293766
  0
ARC
  8
0
 10
-218.916260
 20
7.947847
 40
0.785788
 50
44.364166
 51
135.635834
  0
ARC
  8
0
 10
-219.015656
 20
8.061661
 40
0.635259
 50
136.706238
 51
168.632309
  0
ARC
  8
0
 10
-219.051575
 20
8.071980
 40
0.598024
 50
168.923233
 51
191.076767
  0
ARC
  8
0
 10
-219.015656
 20
8.082298
 40
0.635265
 50
191.367691
 51
223.293732
  0
ARC
  8
0
 10
-218.916260
 20
8.196112
 40
0.785787
 50
224.364136
 51
315.635864
  0
ARC
  8
0
 10
-218.816864
 20
8.082298
 40
0.635259
 50
316.706268
 51
348.632324
  0
ARC
  8
0
 10
-217.314209
 20
-8.072399
 40
0.598024
 50
348.923218
 51
11.076768
  0
ARC
  8
0
 10
-217.350128
 20
-8.082718
 40
0.635265
 50
11.367691
 51
43.293736
  0
ARC
  8
0
 10
-217.449524
 20
-8.196531
 40
0.785787
 50
44.364143
 51
135.635864
  0
ARC
  8
0
 10
-217.548920
 20
-8.082718
 40
0.635259
 50
136.706268
 51
168.632309
  0
ARC
  8
0
 10
-217.584839
 20
-8.072399
 40
0.598024
 50
168.923233
 51
191.076767
  0
ARC
  8
0
 10
-217.548920
 20
-8.062080
 40
0.635265
 50
191.367691
 51
223.293762
  0
ARC
  8
0
 10
-217.449524
 20
-7.948267
 40
0.785788
 50
224.364166
 51
315.635834
  0
ARC
  8
0
 10
-217.350128
 20
-8.062080
 40
0.635259
 50
316.706238
 51
348.632324
  0
ARC
  8
0
 10
92.975197
 20
-8.071991
 40
0.598017
 50
168.923050
 51
191.076904
  0
ARC
  8
0
 10
93.011108
 20
-8.061672
 40
0.635250
 50
191.367966
 51
223.294174
  0
ARC
  8
0
 10
93.110512
 20
-7.947859
 40
0.785787
 50
224.364120
 51
315.635834
  0
ARC
  8
0
 10
93.209915
 20
-8.061672
 40
0.635254
 50
316.705750
 51
348.632050
  0
ARC
  8
0
 10
93.245827
 20
-8.071991
 40
0.598017
 50
348.923096
 51
11.076908
  0
ARC
  8
0
 10
93.209915
 20
-8.082310
 40
0.635250
 50
11.367962
 51
43.294209
  0
ARC
  8
0
 10
93.110512
 20
-8.196123
 40
0.785787
 50
44.364143
 51
135.635834
  0
ARC
  8
0
 10
93.011108
 20
-8.082310
 40
0.635254
 50
136.705765
 51
168.631989
  0
ARC
  8
0
 10
78.308548
 20
-8.072083
 40
0.598017
 50
168.923050
 51
191.076904
  0
ARC
  8
0
 10
78.344460
 20
-8.061764
 40
0.635250
 50
191.367966
 51
223.294174
  0
ARC
  8
0
 10
78.443863
 20
-7.947950
 40
0.785787
 50
224.364120
 51
315.635834
  0
ARC
  8
0
 10
78.543266
 20
-8.061764
 40
0.635254
 50
316.705750
 51
348.632050
  0
ARC
  8
0
 10
78.579178
 20
-8.072083
 40
0.598017
 50
348.923096
 51
11.076908
  0
ARC
  8
0
 10
78.543266
 20
-8.082401
 40
0.635250
 50
11.367962
 51
43.294209
  0
ARC
  8
0
 10
78.443863
 20
-8.196215
 40
0.785787
 50
44.364143
 51
135.635834
  0
ARC
  8
0
 10
78.344460
 20
-8.082401
 40
0.635254
 50
136.705765
 51
168.631989
  0
ARC
  8
0
 10
87.108528
 20
-8.072083
 40
0.598017
 50
168.923050
 51
191.076904
  0
ARC
  8
0
 10
87.144440
 20
-8.061764
 40
0.635250
 50
191.367966
 51
223.294174
  0
ARC
  8
0
 10
87.243843
 20
-7.947950
 40
0.785787
 50
224.364120
 51
315.635834
  0
ARC
  8
0
 10
87.343246
 20
-8.061764
 40
0.635254
 50
316.705750
 51
348.632050
  0
ARC
  8
0
 10
87.379158
 20
-8.072083
 40
0.598017
 50
348.923096
 51
11.076908
  0
ARC
  8
0
 10
87.343246
 20
-8.082401
 40
0.635250
 50
11.367962
 51
43.294209
  0
ARC
  8
0
 10
87.243843
 20
-8.196215
 40
0.785787
 50
44.364143
 51
135.635834
  0
ARC
  8
0
 10
87.144440
 20
-8.082401
 40
0.635254
 50
136.705765
 51
168.631989
  0
ARC
  8
0
 10
90.041870
 20
-8.070453
 40
0.598015
 50
168.258591
 51
190.412476
  0
ARC
  8
0
 10
90.077904
 20
-8.060551
 40
0.635251
 50
190.703476
 51
222.629822
  0
ARC
  8
0
 10
90.178619
 20
-7.947898
 40
0.785787
 50
223.699768
 51
314.971039
  0
ARC
  8
0
 10
90.276688
 20
-8.062856
 40
0.635255
 50
316.041382
 51
347.967651
  0
ARC
  8
0
 10
90.312485
 20
-8.073590
 40
0.598016
 50
348.258545
 51
10.412516
  0
ARC
  8
0
 10
90.276451
 20
-8.083492
 40
0.635251
 50
10.703522
 51
42.629822
  0
ARC
  8
0
 10
90.175735
 20
-8.196145
 40
0.785787
 50
43.699776
 51
134.971069
  0
ARC
  8
0
 10
90.077667
 20
-8.081187
 40
0.635255
 50
136.041412
 51
167.967682
  0
ARC
  8
0
 10
81.241867
 20
-8.072083
 40
0.598017
 50
168.923050
 51
191.076904
  0
ARC
  8
0
 10
81.277779
 20
-8.061764
 40
0.635250
 50
191.367966
 51
223.294174
  0
ARC
  8
0
 10
81.377182
 20
-7.947950
 40
0.785787
 50
224.364120
 51
315.635834
  0
ARC
  8
0
 10
81.476585
 20
-8.061764
 40
0.635254
 50
316.705750
 51
348.632050
  0
ARC
  8
0
 10
81.512497
 20
-8.072083
 40
0.598017
 50
348.923096
 51
11.076908
  0
ARC
  8
0
 10
81.476585
 20
-8.082401
 40
0.635250
 50
11.367962
 51
43.294209
  0
ARC
  8
0
 10
81.377182
 20
-8.196215
 40
0.785787
 50
44.364143
 51
135.635834
  0
ARC
  8
0
 10
81.277779
 20
-8.082401
 40
0.635254
 50
136.705765
 51
168.631989
  0
ARC
  8
0
 10
84.175201
 20
-8.070514
 40
0.598015
 50
168.258591
 51
190.412476
  0
ARC
  8
0
 10
84.211235
 20
-8.060612
 40
0.635251
 50
190.703476
 51
222.629822
  0
ARC
  8
0
 10
84.311951
 20
-7.947959
 40
0.785787
 50
223.699768
 51
314.971039
  0
ARC
  8
0
 10
84.410019
 20
-8.062917
 40
0.635255
 50
316.041382
 51
347.967651
  0
ARC
  8
0
 10
84.445816
 20
-8.073651
 40
0.598016
 50
348.258545
 51
10.412516
  0
ARC
  8
0
 10
84.409782
 20
-8.083553
 40
0.635251
 50
10.703522
 51
42.629822
  0
ARC
  8
0
 10
84.309067
 20
-8.196206
 40
0.785787
 50
43.699776
 51
134.971069
  0
ARC
  8
0
 10
84.210999
 20
-8.081248
 40
0.635255
 50
136.041412
 51
167.967682
  0
ARC
  8
0
 10
76.841805
 20
8.073865
 40
0.598016
 50
168.258545
 51
190.412521
  0
ARC
  8
0
 10
76.877838
 20
8.083767
 40
0.635251
 50
190.703522
 51
222.629822
  0
ARC
  8
0
 10
76.978554
 20
8.196420
 40
0.785787
 50
223.699768
 51
314.971069
  0
ARC
  8
0
 10
77.076622
 20
8.081462
 40
0.635255
 50
316.041412
 51
347.967682
  0
ARC
  8
0
 10
77.112419
 20
8.070727
 40
0.598015
 50
348.258606
 51
10.412471
  0
ARC
  8
0
 10
77.076385
 20
8.060825
 40
0.635251
 50
10.703479
 51
42.629822
  0
ARC
  8
0
 10
76.975670
 20
7.948173
 40
0.785787
 50
43.699776
 51
134.971039
  0
ARC
  8
0
 10
76.877602
 20
8.063130
 40
0.635255
 50
136.041382
 51
167.967636
  0
ARC
  8
0
 10
91.508461
 20
8.072388
 40
0.598017
 50
168.923096
 51
191.076904
  0
ARC
  8
0
 10
91.544373
 20
8.082706
 40
0.635250
 50
191.367966
 51
223.294205
  0
ARC
  8
0
 10
91.643776
 20
8.196520
 40
0.785787
 50
224.364136
 51
315.635834
  0
ARC
  8
0
 10
91.743179
 20
8.082706
 40
0.635254
 50
316.705750
 51
348.631989
  0
ARC
  8
0
 10
91.779091
 20
8.072388
 40
0.598017
 50
348.923035
 51
11.076908
  0
ARC
  8
0
 10
91.743179
 20
8.062069
 40
0.635250
 50
11.367962
 51
43.294178
  0
ARC
  8
0
 10
91.643776
 20
7.948256
 40
0.785787
 50
44.364117
 51
135.635834
  0
ARC
  8
0
 10
91.544373
 20
8.062069
 40
0.635254
 50
136.705765
 51
168.632034
  0
ARC
  8
0
 10
85.641792
 20
8.072296
 40
0.598017
 50
168.923096
 51
191.076904
  0
ARC
  8
0
 10
85.677704
 20
8.082615
 40
0.635250
 50
191.367966
 51
223.294205
  0
ARC
  8
0
 10
85.777107
 20
8.196428
 40
0.785787
 50
224.364136
 51
315.635834
  0
ARC
  8
0
 10
85.876511
 20
8.082615
 40
0.635254
 50
316.705750
 51
348.631989
  0
ARC
  8
0
 10
85.912422
 20
8.072296
 40
0.598017
 50
348.923035
 51
11.076908
  0
ARC
  8
0
 10
85.876511
 20
8.061977
 40
0.635250
 50
11.367962
 51
43.294178
  0
ARC
  8
0
 10
85.777107
 20
7.948164
 40
0.785787
 50
44.364117
 51
135.635834
  0
ARC
  8
0
 10
85.677704
 20
8.061977
 40
0.635254
 50
136.705765
 51
168.632034
  0
ARC
  8
0
 10
88.575111
 20
8.072357
 40
0.598017
 50
168.923096
 51
191.076904
  0
ARC
  8
0
 10
88.611023
 20
8.082676
 40
0.635250
 50
191.367966
 51
223.294205
  0
ARC
  8
0
 10
88.710426
 20
8.196489
 40
0.785787
 50
224.364136
 51
315.635834
  0
ARC
  8
0
 10
88.809830
 20
8.082676
 40
0.635254
 50
316.705750
 51
348.631989
  0
ARC
  8
0
 10
88.845741
 20
8.072357
 40
0.598017
 50
348.923035
 51
11.076908
  0
ARC
  8
0
 10
88.809830
 20
8.062038
 40
0.635250
 50
11.367962
 51
43.294178
  0
ARC
  8
0
 10
88.710426
 20
7.948225
 40
0.785787
 50
44.364117
 51
135.635834
  0
ARC
  8
0
 10
88.611023
 20
8.062038
 40
0.635254
 50
136.705765
 51
168.632034
  0
ARC
  8
0
 10
79.775131
 20
8.072296
 40
0.598017
 50
168.923096
 51
191.076904
  0
ARC
  8
0
 10
79.811043
 20
8.082615
 40
0.635250
 50
191.367966
 51
223.294205
  0
ARC
  8
0
 10
79.910446
 20
8.196428
 40
0.785787
 50
224.364136
 51
315.635834
  0
ARC
  8
0
 10
80.009850
 20
8.082615
 40
0.635254
 50
316.705750
 51
348.631989
  0
ARC
  8
0
 10
80.045761
 20
8.072296
 40
0.598017
 50
348.923035
 51
11.076908
  0
ARC
  8
0
 10
80.009850
 20
8.061977
 40
0.635250
 50
11.367962
 51
43.294178
  0
ARC
  8
0
 10
79.910446
 20
7.948164
 40
0.785787
 50
44.364117
 51
135.635834
  0
ARC
  8
0
 10
79.811043
 20
8.061977
 40
0.635254
 50
136.705765
 51
168.632034
  0
ARC
  8
0
 10
82.708450
 20
8.072296
 40
0.598017
 50
168.923096
 51
191.076904
  0
ARC
  8
0
 10
82.744362
 20
8.082615
 40
0.635250
 50
191.367966
 51
223.294205
  0
ARC
  8
0
 10
82.843765
 20
8.196428
 40
0.785787
 50
224.364136
 51
315.635834
  0
ARC
  8
0
 10
82.943169
 20
8.082615
 40
0.635254
 50
316.705750
 51
348.631989
  0
ARC
  8
0
 10
82.979080
 20
8.072296
 40
0.598017
 50
348.923035
 51
11.076908
  0
ARC
  8
0
 10
82.943169
 20
8.061977
 40
0.635250
 50
11.367962
 51
43.294178
  0
ARC
  8
0
 10
82.843765
 20
7.948164
 40
0.785787
 50
44.364117
 51
135.635834
  0
ARC
  8
0
 10
82.744362
 20
8.061977
 40
0.635254
 50
136.705765
 51
168.632034
  0
ARC
  8
0
 10
-78.072273
 20
136.134064
 40
0.598024
 50
258.923584
 51
281.077118
  0
ARC
  8
0
 10
-78.082596
 20
136.169983
 40
0.635267
 50
281.368378
 51
313.293823
  0
ARC
  8
0
 10
-78.196404
 20
136.269379
 40
0.785784
 50
314.363922
 51
45.636082
  0
ARC
  8
0
 10
-78.082596
 20
136.368774
 40
0.635260
 50
46.706169
 51
78.632309
  0
ARC
  8
0
 10
-78.072273
 20
136.404694
 40
0.598024
 50
78.923592
 51
101.077126
  0
ARC
  8
0
 10
-78.061951
 20
136.368774
 40
0.635267
 50
101.368362
 51
133.293823
  0
ARC
  8
0
 10
-77.948143
 20
136.269379
 40
0.785784
 50
134.363922
 51
225.636078
  0
ARC
  8
0
 10
-78.061951
 20
136.169983
 40
0.635260
 50
226.706177
 51
258.632324
  0
ARC
  8
0
 10
-78.072273
 20
144.934052
 40
0.598024
 50
258.923584
 51
281.077118
  0
ARC
  8
0
 10
-78.082596
 20
144.969971
 40
0.635267
 50
281.368378
 51
313.293823
  0
ARC
  8
0
 10
-78.196404
 20
145.069366
 40
0.785784
 50
314.363922
 51
45.636082
  0
ARC
  8
0
 10
-78.082596
 20
145.168762
 40
0.635260
 50
46.706169
 51
78.632309
  0
ARC
  8
0
 10
-78.072273
 20
145.204681
 40
0.598024
 50
78.923592
 51
101.077126
  0
ARC
  8
0
 10
-78.061951
 20
145.168762
 40
0.635267
 50
101.368362
 51
133.293823
  0
ARC
  8
0
 10
-77.948143
 20
145.069366
 40
0.785784
 50
134.363922
 51
225.636078
  0
ARC
  8
0
 10
-78.061951
 20
144.969971
 40
0.635260
 50
226.706177
 51
258.632324
  0
ARC
  8
0
 10
-78.072334
 20
147.867386
 40
0.598024
 50
258.923584
 51
281.077118
  0
ARC
  8
0
 10
-78.082657
 20
147.903305
 40
0.635267
 50
281.368378
 51
313.293823
  0
ARC
  8
0
 10
-78.196465
 20
148.002701
 40
0.785784
 50
314.363922
 51
45.636082
  0
ARC
  8
0
 10
-78.082657
 20
148.102097
 40
0.635260
 50
46.706169
 51
78.632309
  0
ARC
  8
0
 10
-78.072334
 20
148.138016
 40
0.598024
 50
78.923592
 51
101.077126
  0
ARC
  8
0
 10
-78.062012
 20
148.102097
 40
0.635267
 50
101.368362
 51
133.293823
  0
ARC
  8
0
 10
-77.948204
 20
148.002701
 40
0.785784
 50
134.363922
 51
225.636078
  0
ARC
  8
0
 10
-78.062012
 20
147.903305
 40
0.635260
 50
226.706177
 51
258.632324
  0
ARC
  8
0
 10
-78.072273
 20
139.067383
 40
0.598024
 50
258.923584
 51
281.077118
  0
ARC
  8
0
 10
-78.082596
 20
139.103302
 40
0.635267
 50
281.368378
 51
313.293823
  0
ARC
  8
0
 10
-78.196404
 20
139.202698
 40
0.785784
 50
314.363922
 51
45.636082
  0
ARC
  8
0
 10
-78.082596
 20
139.302094
 40
0.635260
 50
46.706169
 51
78.632309
  0
ARC
  8
0
 10
-78.072273
 20
139.338013
 40
0.598024
 50
78.923592
 51
101.077126
  0
ARC
  8
0
 10
-78.061951
 20
139.302094
 40
0.635267
 50
101.368362
 51
133.293823
  0
ARC
  8
0
 10
-77.948143
 20
139.202698
 40
0.785784
 50
134.363922
 51
225.636078
  0
ARC
  8
0
 10
-78.061951
 20
139.103302
 40
0.635260
 50
226.706177
 51
258.632324
  0
ARC
  8
0
 10
-78.072273
 20
142.000717
 40
0.598024
 50
258.923584
 51
281.077118
  0
ARC
  8
0
 10
-78.082596
 20
142.036636
 40
0.635267
 50
281.368378
 51
313.293823
  0
ARC
  8
0
 10
-78.196404
 20
142.136032
 40
0.785784
 50
314.363922
 51
45.636082
  0
ARC
  8
0
 10
-78.082596
 20
142.235428
 40
0.635260
 50
46.706169
 51
78.632309
  0
ARC
  8
0
 10
-78.072273
 20
142.271347
 40
0.598024
 50
78.923592
 51
101.077126
  0
ARC
  8
0
 10
-78.061951
 20
142.235428
 40
0.635267
 50
101.368362
 51
133.293823
  0
ARC
  8
0
 10
-77.948143
 20
142.136032
 40
0.785784
 50
134.363922
 51
225.636078
  0
ARC
  8
0
 10
-78.061951
 20
142.036636
 40
0.635260
 50
226.706177
 51
258.632324
  0
ARC
  8
0
 10
-61.929096
 20
-135.475098
 40
0.598013
 50
79.587440
 51
101.741516
  0
ARC
  8
0
 10
-61.918362
 20
-135.510895
 40
0.635249
 50
102.032425
 51
133.959152
  0
ARC
  8
0
 10
-61.803406
 20
-135.608978
 40
0.785787
 50
135.028519
 51
226.300171
  0
ARC
  8
0
 10
-61.916058
 20
-135.709686
 40
0.635260
 50
227.370514
 51
259.296478
  0
ARC
  8
0
 10
-61.925961
 20
-135.745728
 40
0.598013
 50
259.587433
 51
281.741516
  0
ARC
  8
0
 10
-61.936695
 20
-135.709930
 40
0.635249
 50
282.032410
 51
313.959137
  0
ARC
  8
0
 10
-62.051651
 20
-135.611847
 40
0.785787
 50
315.028534
 51
46.300175
  0
ARC
  8
0
 10
-61.938999
 20
-135.511139
 40
0.635260
 50
47.370518
 51
79.296478
  0
ARC
  8
0
 10
-61.927528
 20
-144.275116
 40
0.598024
 50
78.923233
 51
101.076767
  0
ARC
  8
0
 10
-61.917210
 20
-144.311035
 40
0.635265
 50
101.367691
 51
133.293823
  0
ARC
  8
0
 10
-61.803398
 20
-144.410431
 40
0.785787
 50
134.364120
 51
225.635880
  0
ARC
  8
0
 10
-61.917210
 20
-144.509827
 40
0.635260
 50
226.706177
 51
258.632324
  0
ARC
  8
0
 10
-61.927528
 20
-144.545746
 40
0.598024
 50
258.923218
 51
281.076782
  0
ARC
  8
0
 10
-61.937847
 20
-144.509827
 40
0.635265
 50
281.367676
 51
313.293823
  0
ARC
  8
0
 10
-62.051659
 20
-144.410431
 40
0.785787
 50
314.364105
 51
45.635883
  0
ARC
  8
0
 10
-61.937847
 20
-144.311035
 40
0.635260
 50
46.706169
 51
78.632309
  0
ARC
  8
0
 10
-61.927467
 20
-147.208435
 40
0.598024
 50
78.923233
 51
101.076767
  0
ARC
  8
0
 10
-61.917149
 20
-147.244354
 40
0.635265
 50
101.367691
 51
133.293823
  0
ARC
  8
0
 10
-61.803337
 20
-147.343750
 40
0.785787
 50
134.364120
 51
225.635880
  0
ARC
  8
0
 10
-61.917149
 20
-147.443146
 40
0.635260
 50
226.706177
 51
258.632324
  0
ARC
  8
0
 10
-61.927467
 20
-147.479065
 40
0.598024
 50
258.923218
 51
281.076782
  0
ARC
  8
0
 10
-61.937786
 20
-147.443146
 40
0.635265
 50
281.367676
 51
313.293823
  0
ARC
  8
0
 10
-62.051598
 20
-147.343750
 40
0.785787
 50
314.364105
 51
45.635883
  0
ARC
  8
0
 10
-61.937786
 20
-147.244354
 40
0.635260
 50
46.706169
 51
78.632309
  0
ARC
  8
0
 10
-61.927528
 20
-138.408447
 40
0.598024
 50
78.923233
 51
101.076767
  0
ARC
  8
0
 10
-61.917210
 20
-138.444366
 40
0.635265
 50
101.367691
 51
133.293823
  0
ARC
  8
0
 10
-61.803398
 20
-138.543762
 40
0.785787
 50
134.364120
 51
225.635880
  0
ARC
  8
0
 10
-61.917210
 20
-138.643158
 40
0.635260
 50
226.706177
 51
258.632324
  0
ARC
  8
0
 10
-61.927528
 20
-138.679077
 40
0.598024
 50
258.923218
 51
281.076782
  0
ARC
  8
0
 10
-61.937847
 20
-138.643158
 40
0.635265
 50
281.367676
 51
313.293823
  0
ARC
  8
0
 10
-62.051659
 20
-138.543762
 40
0.785787
 50
314.364105
 51
45.635883
  0
ARC
  8
0
 10
-61.937847
 20
-138.444366
 40
0.635260
 50
46.706169
 51
78.632309
  0
ARC
  8
0
 10
-61.927528
 20
-141.341766
 40
0.598024
 50
78.923233
 51
101.076767
  0
ARC
  8
0
 10
-61.917210
 20
-141.377686
 40
0.635265
 50
101.367691
 51
133.293823
  0
ARC
  8
0
 10
-61.803398
 20
-141.477081
 40
0.785787
 50
134.364120
 51
225.635880
  0
ARC
  8
0
 10
-61.917210
 20
-141.576477
 40
0.635260
 50
226.706177
 51
258.632324
  0
ARC
  8
0
 10
-61.927528
 20
-141.612396
 40
0.598024
 50
258.923218
 51
281.076782
  0
ARC
  8
0
 10
-61.937847
 20
-141.576477
 40
0.635265
 50
281.367676
 51
313.293823
  0
ARC
  8
0
 10
-62.051659
 20
-141.477081
 40
0.785787
 50
314.364105
 51
45.635883
  0
ARC
  8
0
 10
-61.937847
 20
-141.377686
 40
0.635260
 50
46.706169
 51
78.632309
  0
TEXT
  8
0
 10
171.050247
 20
180.830002
 40
6.300000
  1
DATE : MAY ,1993
 50
0.000000
 41
1.052632
 51
0.000000
  7
STANDARD
  0
TEXT
  8
0
 10
167.564667
 20
-192.100006
 40
9.000000
  1
KOGANEI CORP.
 50
0.000000
 41
1.052632
 51
0.000000
  7
STANDARD
  0
TEXT
  8
0
 10
-269.149719
 20
180.830002
 40
6.300000
  1
HANDLING MODULE
 50
0.000000
 41
1.052632
 51
0.000000
  7
STANDARD
  0
TEXT
  8
0
 10
-270.049713
 20
155.830002
 40
6.300000
  1
MODEL:SHM51M-MS
 50
0.000000
 41
1.052632
 51
0.000000
  7
STANDARD
  0
ENDSEC
  0
EOF
