  0
SECTION
  2
HEADER
  0
ENDSEC
  0
SECTION
  2
TABLES
  0
TABLE
  2
LTYPE
 70
     4
  0
LTYPE
  2
CONTINUOUS
 70
    64
  3
Solid line
 72
    65
 73
     0
 40
0.000000
  0
LTYPE
  2
DASHED
 70
    64
  3
__ __ __ __ __ __ __ __ __ __ __ __ __ __ __
 72
    65
 73
     2
 40
3.500000
 49
2.000000
 49
-1.500000
  0
LTYPE
  2
CENTER
 70
    64
  3
____ _ ____ _ ____ _ ____ _ ____ _ ____ _ ____
 72
    65
 73
     4
 40
17.500000
 49
13.000000
 49
-1.500000
 49
1.500000
 49
-1.500000
  0
LTYPE
  2
PHANTOM
 70
    64
  3
_____ _ _ _____ _ _ _____ _ _ _____ _ _ ____  
 72
    65
 73
     6
 40
15.500000
 49
8.000000
 49
-1.500000
 49
1.500000
 49
-1.500000
 49
1.500000
 49
-1.500000
  0
LTYPE
  2
DASHED1
 70
    64
  3
__ __ __ __ __ __ __ __ __ __ __ __ __ __ __
 72
    65
 73
     2
 40
1.500000
 49
1.000000
 49
-0.500000
  0
LTYPE
  2
DASHED2
 70
    64
  3
__ __ __ __ __ __ __ __ __ __ __ __ __ __ __
 72
    65
 73
     2
 40
3.500000
 49
2.500000
 49
-1.000000
  0
LTYPE
  2
DASHED3
 70
    64
  3
__ __ __ __ __ __ __ __ __ __ __ __ __ __ __
 72
    65
 73
     2
 40
6.000000
 49
4.000000
 49
-2.000000
  0
LTYPE
  2
DASHED4
 70
    64
  3
__ __ __ __ __ __ __ __ __ __ __ __ __ __ __
 72
    65
 73
     2
 40
12.000000
 49
10.000000
 49
-2.000000
  0
LTYPE
  2
DASHED5
 70
    64
  3
__ __ __ __ __ __ __ __ __ __ __ __ __ __ __
 72
    65
 73
     2
 40
17.000000
 49
15.000000
 49
-2.000000
  0
LTYPE
  2
DASHED6
 70
    64
  3
__ __ __ __ __ __ __ __ __ __ __ __ __ __ __
 72
    65
 73
     2
 40
29.000000
 49
27.000000
 49
-2.000000
  0
LTYPE
  2
PHANTOM1
 70
    64
  3
_____ _ _ _____ _ _ _____ _ _ _____ _ _ ____  
 72
    65
 73
     6
 40
31.000000
 49
25.000000
 49
-1.500000
 49
1.000000
 49
-1.000000
 49
1.000000
 49
-1.500000
  0
LTYPE
  2
PHANTOM2
 70
    64
  3
_____ _ _ _____ _ _ _____ _ _ _____ _ _ ____  
 72
    65
 73
     6
 40
36.000000
 49
27.000000
 49
-1.500000
 49
2.500000
 49
-1.000000
 49
2.500000
 49
-1.500000
  0
LTYPE
  2
PHANTOM3
 70
    64
  3
_____ _ _ _____ _ _ _____ _ _ _____ _ _ ____  
 72
    65
 73
     6
 40
78.000000
 49
64.000000
 49
-2.000000
 49
4.000000
 49
-2.000000
 49
4.000000
 49
-2.000000
  0
LTYPE
  2
CENTER1
 70
    64
  3
____ _ ____ _ ____ _ ____ _ ____ _ ____ _ ____
 72
    65
 73
     4
 40
19.000000
 49
14.000000
 49
-1.000000
 49
3.000000
 49
-1.000000
  0
LTYPE
  2
CENTER2
 70
    64
  3
____ _ ____ _ ____ _ ____ _ ____ _ ____ _ ____
 72
    65
 73
     4
 40
28.500000
 49
25.000000
 49
-1.000000
 49
1.500000
 49
-1.000000
  0
LTYPE
  2
CENTER3
 70
    64
  3
____ _ ____ _ ____ _ ____ _ ____ _ ____ _ ____
 72
    65
 73
     4
 40
31.500000
 49
27.000000
 49
-1.000000
 49
2.500000
 49
-1.000000
  0
LTYPE
  2
CENTER4
 70
    64
  3
____ _ ____ _ ____ _ ____ _ ____ _ ____ _ ____
 72
    65
 73
     4
 40
50.000000
 49
45.000000
 49
-1.000000
 49
3.000000
 49
-1.000000
  0
LTYPE
  2
CENTER5
 70
    64
  3
____ _ ____ _ ____ _ ____ _ ____ _ ____ _ ____
 72
    65
 73
     4
 40
100.000000
 49
92.000000
 49
-2.000000
 49
4.000000
 49
-2.000000
  0
LTYPE
  2
SBK1
 70
    64
  3
______ _ _ _ ______ _ _ _ ______ _ _ _ _____  
 72
    65
 73
     8
 40
60.500000
 49
45.000000
 49
-2.000000
 49
2.500000
 49
-2.000000
 49
2.500000
 49
-2.000000
 49
2.500000
 49
-2.000000
  0
LTYPE
  2
SBK2
 70
    64
  3
______ _ _ _ ______ _ _ _ ______ _ _ _ _____  
 72
    65
 73
     8
 40
84.000000
 49
64.000000
 49
-2.000000
 49
4.000000
 49
-2.000000
 49
4.000000
 49
-2.000000
 49
4.000000
 49
-2.000000
  0
LTYPE
  2
STCH
 70
    64
  3
__ __ __ __ __ __ __ __ __ __ __ __ __ __ __
 72
    65
 73
     2
 40
3.000000
 49
1.000000
 49
-2.000000
  0
LTYPE
  2
MTCH
 70
    64
  3
_____ _ _ _____ _ _ _____ _ _ _____ _ _ ____  
 72
    65
 73
     6
 40
80.000000
 49
66.000000
 49
-2.000000
 49
4.000000
 49
-2.000000
 49
4.000000
 49
-2.000000
  0
ENDTAB
  0
TABLE
  2
LAYER
 70
     1
  0
LAYER
  2
0
 70
     0
 62
     7
  6
CONTINUOUS
  0
ENDTAB
  0
TABLE
  2
STYLE
 70
     1
  0
STYLE
  2
STANDARD
 70
     0
 40
0.000000
 41
1.000000
 50
0.000000
 71
     0
 42
0.200000
  3
txt
  4
BIGFONT
  0
ENDTAB
  0
TABLE
  2
VIEW
 70
     0
  0
ENDTAB
  0
ENDSEC
  0
SECTION
  2
BLOCKS
  0
ENDSEC
  0
SECTION
  2
ENTITIES
  0
LINE
  8
0
 10
-281.250000
 20
195.500000
 11
282.099976
 21
195.500000
  0
LINE
  8
0
 10
-281.250000
 20
195.500000
 11
-281.250000
 21
-195.000000
  0
LINE
  8
0
 10
282.099976
 20
195.500000
 11
282.099976
 21
-195.000000
  0
LINE
  8
0
 10
-281.250000
 20
-195.000000
 11
282.099976
 21
-195.000000
  0
LINE
  8
0
 10
162.099976
 20
-175.000000
 11
162.099976
 21
-195.000000
  0
LINE
  8
0
 10
162.099976
 20
-175.000000
 11
282.099976
 21
-175.000000
  0
LINE
  8
0
 10
162.099976
 20
175.500000
 11
282.099976
 21
175.500000
  0
LINE
  8
0
 10
-281.250000
 20
175.500000
 11
-161.250000
 21
175.500000
  0
LINE
  8
0
 10
162.099976
 20
195.500000
 11
162.099976
 21
175.500000
  0
LINE
  8
0
 10
-161.250000
 20
195.500000
 11
-161.250000
 21
175.500000
  0
LINE
  8
0
 10
-30.000000
 20
40.000008
 11
-30.000000
 21
4.000000
  0
LINE
  8
0
 10
-110.000008
 20
40.000031
 11
-110.000008
 21
12.000023
  0
LINE
  8
0
 10
-110.000000
 20
-39.999992
 11
-30.000000
 21
-39.999992
  0
LINE
  8
0
 10
-109.999954
 20
39.999996
 11
-29.999954
 21
39.999996
  0
LINE
  8
0
 10
-50.000000
 20
4.000008
 11
-50.000000
 21
-11.999992
  0
LINE
  8
0
 10
-90.000008
 20
12.000015
 11
-90.000008
 21
-3.999985
  0
LINE
  8
0
  6
DASHED
 10
-96.499969
 20
-3.999996
 11
-89.999969
 21
-3.999996
  0
LINE
  8
0
  6
DASHED
 10
-49.999969
 20
4.000004
 11
-43.499969
 21
4.000004
  0
LINE
  8
0
 62
     4
 10
-100.999969
 20
-2.999996
 11
-89.999969
 21
-2.999996
  0
LINE
  8
0
 62
     4
 10
-100.999969
 20
4.000004
 11
-94.999992
 21
4.000004
  0
LINE
  8
0
 10
-96.499969
 20
12.000004
 11
-89.999969
 21
12.000004
  0
LINE
  8
0
 10
-95.000008
 20
12.000015
 11
-95.000008
 21
9.500008
  0
LINE
  8
0
 62
     4
 10
-101.000008
 20
4.000015
 11
-101.000008
 21
-2.999985
  0
LINE
  8
0
 10
-49.999969
 20
-11.999996
 11
-43.499969
 21
-11.999996
  0
LINE
  8
0
 10
-49.999969
 20
4.000004
 11
-29.999969
 21
4.000004
  0
LINE
  8
0
 10
-49.999969
 20
-11.999996
 11
-29.999969
 21
-11.999996
  0
LINE
  8
0
 10
-109.999969
 20
12.000004
 11
-89.999969
 21
12.000004
  0
LINE
  8
0
 10
-109.999969
 20
-3.999996
 11
-89.999969
 21
-3.999996
  0
LINE
  8
0
 62
     4
 10
-103.000008
 20
3.000015
 11
-103.000008
 21
-1.999985
  0
LINE
  8
0
 62
     4
 10
-102.999969
 20
-1.999996
 11
-100.999969
 21
-1.999996
  0
LINE
  8
0
 62
     4
 10
-102.999969
 20
3.000004
 11
-100.999969
 21
3.000004
  0
LINE
  8
0
 62
     4
 10
-115.097664
 20
2.200001
 11
-102.999969
 21
2.200001
  0
LINE
  8
0
 62
     4
 10
-117.040512
 20
-1.199993
 11
-102.999985
 21
-1.199993
  0
LINE
  8
0
 62
     4
 10
-100.000008
 20
12.000015
 11
-100.000008
 21
4.000015
  0
LINE
  8
0
 10
-94.999969
 20
9.500004
 11
-93.899994
 21
9.500004
  0
LINE
  8
0
 10
-94.999969
 20
6.500004
 11
-93.899994
 21
6.500004
  0
LINE
  8
0
 10
-93.900009
 20
10.900009
 11
-93.900009
 21
9.500015
  0
LINE
  8
0
 10
-91.100006
 20
10.900009
 11
-91.100006
 21
5.100014
  0
LINE
  8
0
 10
-93.899963
 20
10.899998
 11
-91.099960
 21
10.899998
  0
LINE
  8
0
 10
-93.899971
 20
5.100002
 11
-91.099968
 21
5.100002
  0
LINE
  8
0
 62
     4
 10
-49.999969
 20
3.000004
 11
-38.999969
 21
3.000004
  0
LINE
  8
0
 10
-49.999969
 20
-3.999996
 11
-44.999985
 21
-3.999996
  0
LINE
  8
0
 10
-45.000000
 20
-3.999992
 11
-45.000000
 21
-6.499992
  0
LINE
  8
0
 62
     4
 10
-40.000000
 20
-3.999992
 11
-40.000000
 21
-11.999992
  0
LINE
  8
0
 62
     4
 10
-39.000000
 20
3.000008
 11
-39.000000
 21
-3.999992
  0
LINE
  8
0
 10
-93.900009
 20
6.500015
 11
-93.900009
 21
5.100014
  0
LINE
  8
0
 10
-48.900009
 20
-5.099991
 11
-48.900009
 21
-10.899994
  0
LINE
  8
0
 10
-46.100006
 20
-5.099991
 11
-46.100006
 21
-6.499992
  0
LINE
  8
0
 10
-48.899963
 20
-5.099995
 11
-46.099960
 21
-5.099995
  0
LINE
  8
0
 10
-48.899979
 20
-10.899998
 11
-46.099976
 21
-10.899998
  0
LINE
  8
0
 10
-46.100006
 20
-9.499992
 11
-46.100006
 21
-10.899994
  0
LINE
  8
0
 10
-46.099991
 20
-6.499996
 11
-44.999969
 21
-6.499996
  0
LINE
  8
0
 10
-46.099991
 20
-9.499996
 11
-44.999969
 21
-9.499996
  0
LINE
  8
0
 62
     4
 10
-103.799988
 20
5.200001
 11
-99.999969
 21
5.200001
  0
LINE
  8
0
 62
     4
 10
-103.799988
 20
10.800007
 11
-99.999969
 21
10.800007
  0
LINE
  8
0
 62
     4
 10
-39.999969
 20
-5.199993
 11
-36.199982
 21
-5.199993
  0
LINE
  8
0
 62
     4
 10
-39.999969
 20
-10.799999
 11
-36.199982
 21
-10.799999
  0
LINE
  8
0
 10
-45.000000
 20
-9.499992
 11
-45.000000
 21
-11.999992
  0
LINE
  8
0
 62
     4
 10
-48.200012
 20
-5.099991
 11
-48.200012
 21
-10.899994
  0
LINE
  8
0
 62
     4
 10
-48.899979
 20
-10.799999
 11
-47.199982
 21
-10.799999
  0
LINE
  8
0
 62
     4
 10
-48.899963
 20
-5.199993
 11
-47.199966
 21
-5.199993
  0
LINE
  8
0
 62
     4
 10
-91.800003
 20
10.900009
 11
-91.800003
 21
5.100014
  0
LINE
  8
0
 62
     4
 10
-38.999969
 20
-2.999996
 11
-36.999969
 21
-2.999996
  0
LINE
  8
0
 62
     4
 10
-38.999969
 20
2.000004
 11
-36.999969
 21
2.000004
  0
LINE
  8
0
 62
     4
 10
-36.999985
 20
1.200001
 11
-23.205811
 21
1.200001
  0
LINE
  8
0
 62
     4
 10
-36.999985
 20
-2.199993
 11
-24.656281
 21
-2.199993
  0
LINE
  8
0
 62
     4
 10
-37.000000
 20
2.000008
 11
-37.000000
 21
-2.999992
  0
LINE
  8
0
  6
CENTER
 62
     2
 10
-105.847488
 20
32.499996
 11
-99.072136
 21
32.499996
  0
LINE
  8
0
  6
CENTER
 62
     2
 10
-105.592934
 20
-32.499992
 11
-99.164040
 21
-32.499992
  0
LINE
  8
0
  6
CENTER
 62
     2
 10
-37.500000
 20
35.787415
 11
-37.500000
 21
29.055786
  0
LINE
  8
0
  6
CENTER
 62
     2
 10
-102.500008
 20
36.191315
 11
-102.500008
 21
29.382858
  0
LINE
  8
0
  6
CENTER
 62
     2
 10
-41.002640
 20
32.499996
 11
-34.136383
 21
32.499996
  0
LINE
  8
0
  6
CENTER
 62
     2
 10
-102.500008
 20
-28.836334
 11
-102.500008
 21
-36.335297
  0
LINE
  8
0
  6
CENTER
 62
     2
 10
-40.464142
 20
-32.499992
 11
-34.540298
 21
-32.499992
  0
LINE
  8
0
  6
CENTER
 62
     2
 10
-37.500000
 20
-29.240234
 11
-37.500000
 21
-36.335297
  0
LINE
  8
0
  6
CENTER
 62
     2
 10
-73.853081
 20
-32.499992
 11
-66.313644
 21
-32.499992
  0
LINE
  8
0
  6
CENTER
 62
     2
 10
-70.000008
 20
42.216904
 11
-70.000008
 21
-41.541138
  0
LINE
  8
0
  6
CENTER
 62
     2
 10
-124.458534
 20
0.000004
 11
-15.436493
 21
0.000004
  0
LINE
  8
0
 10
-110.000008
 20
-3.999977
 11
-110.000008
 21
-39.999985
  0
LINE
  8
0
 10
-30.000000
 20
-12.000000
 11
-30.000000
 21
-39.999985
  0
LINE
  8
0
 62
     4
 10
-36.200012
 20
-5.199997
 11
-36.200012
 21
-10.800003
  0
LINE
  8
0
 62
     4
 10
-103.800003
 20
10.800011
 11
-103.800003
 21
5.200005
  0
LINE
  8
0
 62
     4
 10
-39.199997
 20
-5.199997
 11
-39.199997
 21
-10.800003
  0
LINE
  8
0
 62
     4
 10
-100.800003
 20
10.800011
 11
-100.800003
 21
5.200005
  0
LINE
  8
0
 10
-67.000008
 20
40.000000
 11
-67.000008
 21
31.500023
  0
LINE
  8
0
 10
-73.000008
 20
40.000000
 11
-73.000008
 21
31.500008
  0
LINE
  8
0
 62
     1
 10
-22.012186
 20
2.857776
 11
-25.816458
 21
-3.799709
  0
LINE
  8
0
 62
     1
 10
-117.987823
 20
-2.857782
 11
-114.183556
 21
3.799697
  0
LINE
  8
0
 62
     4
 10
-44.999985
 20
-3.999996
 11
-38.999969
 21
-3.999996
  0
LINE
  8
0
 10
-95.000008
 20
6.500008
 11
-95.000008
 21
4.000015
  0
LINE
  8
0
 10
-94.999992
 20
4.000004
 11
-89.999969
 21
4.000004
  0
LINE
  8
0
 10
-172.717056
 20
39.999985
 11
-172.717056
 21
-40.000008
  0
LINE
  8
0
 10
-217.717056
 20
39.999916
 11
-217.717056
 21
-40.000069
  0
LINE
  8
0
 10
-172.716995
 20
-40.000023
 11
-200.716995
 21
-40.000023
  0
LINE
  8
0
  6
CENTER
 62
     2
 10
-169.999969
 20
-0.000004
 11
-221.390533
 21
-0.000004
  0
LINE
  8
0
 10
-172.717148
 20
40.000004
 11
-200.717148
 21
40.000004
  0
LINE
  8
0
 10
-211.717010
 20
-40.000023
 11
-217.717010
 21
-40.000023
  0
LINE
  8
0
 10
-211.717148
 20
40.000004
 11
-217.717148
 21
40.000004
  0
LINE
  8
0
 10
-194.717041
 20
39.999954
 11
-194.717041
 21
11.999962
  0
LINE
  8
0
 62
     4
 10
-195.717041
 20
3.999962
 11
-195.717041
 21
-3.000038
  0
LINE
  8
0
 62
     4
 10
-173.717041
 20
3.999992
 11
-173.717041
 21
-3.000008
  0
LINE
  8
0
 62
     4
 10
-180.217056
 20
12.499977
 11
-180.217056
 21
3.999977
  0
LINE
  8
0
 62
     4
 10
-180.217102
 20
12.500011
 11
-189.217102
 21
12.500011
  0
LINE
  8
0
 10
-198.979263
 20
9.649975
 11
-200.717072
 21
9.649975
  0
LINE
  8
0
 10
-198.979263
 20
6.350002
 11
-200.717072
 21
6.350002
  0
LINE
  8
0
 62
     4
 10
-189.217041
 20
12.499977
 11
-189.217041
 21
3.999977
  0
LINE
  8
0
 10
-200.717056
 20
25.484478
 11
-208.517120
 21
25.484478
  0
LINE
  8
0
 62
     2
 10
-200.717056
 20
25.984501
 11
-208.518387
 21
25.984501
  0
LINE
  8
0
 62
     2
 10
-200.717056
 20
29.984478
 11
-208.517136
 21
29.984478
  0
LINE
  8
0
 10
-200.717056
 20
30.484501
 11
-208.518478
 21
30.484501
  0
LINE
  8
0
 10
-211.717056
 20
39.999954
 11
-211.717056
 21
-40.000053
  0
LINE
  8
0
 10
-200.717056
 20
40.000004
 11
-200.717056
 21
-40.000038
  0
LINE
  8
0
 10
-172.717102
 20
11.999996
 11
-180.217072
 21
11.999996
  0
LINE
  8
0
 10
-172.717072
 20
9.649975
 11
-173.454895
 21
9.649975
  0
LINE
  8
0
 10
-172.717072
 20
6.350002
 11
-173.454895
 21
6.350002
  0
LINE
  8
0
 10
-172.717072
 20
-3.999989
 11
-200.717041
 21
-3.999989
  0
LINE
  8
0
 10
-172.717072
 20
3.999996
 11
-173.717041
 21
3.999996
  0
LINE
  8
0
 62
     4
 10
-173.717072
 20
-3.000004
 11
-195.717072
 21
-3.000004
  0
LINE
  8
0
 10
-178.717056
 20
-4.000008
 11
-178.717056
 21
-40.000008
  0
LINE
  8
0
 10
-189.217041
 20
9.649975
 11
-194.454880
 21
9.649975
  0
LINE
  8
0
 10
-189.217041
 20
6.350002
 11
-194.454880
 21
6.350002
  0
LINE
  8
0
 10
-177.979279
 20
9.649975
 11
-180.217056
 21
9.649975
  0
LINE
  8
0
 10
-177.979279
 20
6.350002
 11
-180.217072
 21
6.350002
  0
LINE
  8
0
 10
-208.922623
 20
32.719105
 11
-211.310547
 21
32.719105
  0
LINE
  8
0
 10
-211.310562
 20
32.719154
 11
-211.714706
 21
32.019154
  0
LINE
  8
0
 10
-208.922623
 20
30.419086
 11
-211.310318
 21
30.419086
  0
LINE
  8
0
 10
-208.922623
 20
32.719093
 11
-208.518478
 21
32.019096
  0
LINE
  8
0
 10
-208.518387
 20
32.019188
 11
-208.518387
 21
24.219124
  0
LINE
  8
0
 10
-208.922623
 20
25.819088
 11
-211.310287
 21
25.819088
  0
LINE
  8
0
 10
-208.922592
 20
23.519108
 11
-211.310196
 21
23.519108
  0
LINE
  8
0
 10
-208.518631
 20
24.219076
 11
-208.922775
 21
23.519077
  0
LINE
  8
0
 10
-211.714508
 20
24.219059
 11
-211.310364
 21
23.519062
  0
LINE
  8
0
 10
-178.717056
 20
39.999977
 11
-178.717056
 21
11.999992
  0
LINE
  8
0
 10
-208.717056
 20
-15.000053
 11
-208.717056
 21
-35.000053
  0
LINE
  8
0
 10
-200.717041
 20
-28.999992
 11
-208.717010
 21
-28.999992
  0
LINE
  8
0
 10
-200.717041
 20
-21.000027
 11
-208.717041
 21
-21.000027
  0
LINE
  8
0
 10
-208.717010
 20
-35.000023
 11
-211.717010
 21
-35.000023
  0
LINE
  8
0
 10
-208.718445
 20
14.999996
 11
-211.717102
 21
14.999996
  0
LINE
  8
0
 10
-208.718491
 20
34.999996
 11
-211.717148
 21
34.999996
  0
LINE
  8
0
 10
-192.717102
 20
22.484501
 11
-194.770401
 21
22.484501
  0
LINE
  8
0
 10
-192.717148
 20
33.484478
 11
-194.770447
 21
33.484478
  0
LINE
  8
0
 10
-184.517624
 20
25.569698
 11
-185.517654
 21
25.569698
  0
LINE
  8
0
 62
     2
 10
-184.517654
 20
26.069706
 11
-185.517654
 21
26.069706
  0
LINE
  8
0
 62
     2
 10
-184.517685
 20
30.069698
 11
-185.517685
 21
30.069698
  0
LINE
  8
0
 10
-184.517624
 20
30.569698
 11
-185.517685
 21
30.569698
  0
LINE
  8
0
 10
-189.121292
 20
32.669712
 11
-192.717133
 21
32.669712
  0
LINE
  8
0
 10
-189.121277
 20
30.369686
 11
-192.717133
 21
30.369686
  0
LINE
  8
0
 10
-189.121277
 20
32.669674
 11
-188.717133
 21
31.969677
  0
LINE
  8
0
 10
-189.121262
 20
25.769695
 11
-192.717117
 21
25.769695
  0
LINE
  8
0
 10
-189.121246
 20
23.469715
 11
-192.717102
 21
23.469715
  0
LINE
  8
0
 10
-188.717194
 20
24.169748
 11
-189.121338
 21
23.469751
  0
LINE
  8
0
 10
-184.517578
 20
30.569710
 11
-184.517578
 21
25.569710
  0
LINE
  8
0
 10
-192.717041
 20
33.484444
 11
-192.717041
 21
22.484444
  0
LINE
  8
0
 10
-188.717667
 20
24.169607
 11
-188.313522
 21
23.469608
  0
LINE
  8
0
 10
-185.921829
 20
32.669712
 11
-188.313553
 21
32.669712
  0
LINE
  8
0
 10
-188.313629
 20
32.669662
 11
-188.717773
 21
31.969666
  0
LINE
  8
0
 10
-185.921829
 20
30.369686
 11
-188.313538
 21
30.369686
  0
LINE
  8
0
 10
-185.921783
 20
32.669682
 11
-185.517639
 21
31.969685
  0
LINE
  8
0
 10
-185.517593
 20
31.969673
 11
-185.517593
 21
24.169670
  0
LINE
  8
0
 10
-185.921814
 20
25.769695
 11
-188.313522
 21
25.769695
  0
LINE
  8
0
 10
-185.921783
 20
23.469715
 11
-188.313507
 21
23.469715
  0
LINE
  8
0
 10
-185.517746
 20
24.169712
 11
-185.921890
 21
23.469713
  0
LINE
  8
0
 10
-188.717590
 20
31.969688
 11
-188.717590
 21
24.169716
  0
LINE
  8
0
 62
     4
 10
-184.038788
 20
9.249996
 11
-185.495392
 21
9.249996
  0
LINE
  8
0
 62
     4
 10
-184.038788
 20
6.749996
 11
-185.495392
 21
6.749996
  0
LINE
  8
0
 62
     4
 10
-184.038864
 20
9.249951
 11
-183.317184
 21
7.999965
  0
LINE
  8
0
 62
     4
 10
-186.217163
 20
7.999970
 11
-185.495468
 21
6.749958
  0
LINE
  8
0
 62
     4
 10
-185.495438
 20
9.250010
 11
-186.217133
 21
7.999999
  0
LINE
  8
0
 62
     4
 10
-183.317108
 20
7.999994
 11
-184.038788
 21
6.749994
  0
LINE
  8
0
 10
-189.217056
 20
11.999996
 11
-200.717087
 21
11.999996
  0
LINE
  8
0
 10
-200.717056
 20
20.999996
 11
-208.718460
 21
20.999996
  0
LINE
  8
0
 10
-208.717041
 20
-15.000004
 11
-211.717041
 21
-15.000004
  0
LINE
  8
0
 10
-178.717026
 20
-35.000023
 11
-200.717010
 21
-35.000023
  0
LINE
  8
0
 10
-208.718399
 20
34.999931
 11
-208.718399
 21
32.365562
  0
LINE
  8
0
 10
-208.718399
 20
23.872688
 11
-208.718399
 21
14.999931
  0
LINE
  8
0
  6
CENTER
 62
     2
 10
-209.117065
 20
-32.499992
 11
-220.717056
 21
-32.499992
  0
LINE
  8
0
  6
CENTER
 62
     2
 10
-209.517075
 20
32.499996
 11
-220.717072
 21
32.499996
  0
LINE
  8
0
  6
CENTER
 62
     2
 10
-169.717056
 20
-32.499992
 11
-180.517059
 21
-32.499992
  0
LINE
  8
0
  6
CENTER
 62
     2
 10
-170.917068
 20
32.499996
 11
-180.917068
 21
32.499996
  0
LINE
  8
0
  6
CENTER
 62
     2
 10
-209.117050
 20
-24.999992
 11
-220.717041
 21
-24.999992
  0
LINE
  8
0
  6
CENTER
 62
     2
 10
-209.517059
 20
24.999996
 11
-220.717056
 21
24.999996
  0
LINE
  8
0
 10
-177.131287
 20
6.585758
 11
-174.302856
 21
9.414186
  0
LINE
  8
0
 10
-177.131378
 20
9.414176
 11
-174.302948
 21
6.585754
  0
LINE
  8
0
 10
-198.131409
 20
9.414098
 11
-195.302979
 21
6.585671
  0
LINE
  8
0
 10
-198.131317
 20
6.585731
 11
-195.302887
 21
9.414158
  0
LINE
  8
0
 62
     4
 10
-173.717072
 20
3.999996
 11
-195.717041
 21
3.999996
  0
LINE
  8
0
 10
-195.717041
 20
3.999996
 11
-200.717072
 21
3.999996
  0
LINE
  8
0
  6
CENTER
 62
     2
 10
-212.923187
 20
8.071987
 11
-198.602631
 21
8.071987
  0
LINE
  8
0
  6
CENTER
 62
     2
 10
-212.966461
 20
-8.072392
 11
-198.559387
 21
-8.072392
  0
LINE
  8
0
 10
-200.117035
 20
2.499996
 11
-211.717041
 21
2.499996
  0
LINE
  8
0
 10
-200.117050
 20
-2.500004
 11
-211.717056
 21
-2.500004
  0
LINE
  8
0
 62
     2
 10
-200.717041
 20
-29.984489
 11
-208.717056
 21
-29.984489
  0
LINE
  8
0
 10
-200.717041
 20
-30.484489
 11
-208.518448
 21
-30.484489
  0
LINE
  8
0
 10
-207.326828
 20
-8.138697
 11
-207.839111
 21
-2.499995
  0
LINE
  8
0
 10
-204.493881
 20
-8.134191
 11
-204.970856
 21
-2.499987
  0
LINE
  8
0
 10
-201.661026
 20
-8.129716
 11
-202.102753
 21
-2.500015
  0
LINE
  8
0
 10
-210.672455
 20
-2.499991
 11
-210.160172
 21
-8.138679
  0
LINE
  8
0
 10
-209.200806
 20
-2.499988
 11
-208.700577
 21
-8.006072
  0
LINE
  8
0
 10
-206.367477
 20
-2.499982
 11
-205.867233
 21
-8.006067
  0
LINE
  8
0
 10
-203.500031
 20
-2.499968
 11
-203.033524
 21
-8.010530
  0
LINE
  8
0
 10
-210.167313
 20
8.138311
 11
-209.655075
 21
2.500018
  0
LINE
  8
0
 10
-211.626907
 20
8.005707
 11
-211.126709
 21
2.500016
  0
LINE
  8
0
 10
-207.333984
 20
8.138317
 11
-206.821732
 21
2.500025
  0
LINE
  8
0
 10
-204.400269
 20
8.133868
 11
-203.923309
 21
2.500046
  0
LINE
  8
0
 10
-201.024963
 20
2.499988
 11
-201.466660
 21
8.129325
  0
LINE
  8
0
 10
-208.293365
 20
2.499997
 11
-208.793579
 21
8.005688
  0
LINE
  8
0
 10
-205.394150
 20
2.500012
 11
-205.860626
 21
8.010209
  0
LINE
  8
0
 10
-202.495071
 20
2.499998
 11
-202.927780
 21
8.014696
  0
LINE
  8
0
 10
32.717087
 20
-39.999992
 11
32.717087
 21
40.000008
  0
LINE
  8
0
 10
77.717072
 20
-39.999931
 11
77.717072
 21
40.000076
  0
LINE
  8
0
 10
32.717041
 20
40.000011
 11
60.717041
 21
40.000011
  0
LINE
  8
0
  6
CENTER
 62
     2
 10
30.000031
 20
0.000011
 11
81.390594
 21
0.000011
  0
LINE
  8
0
 10
32.717194
 20
-39.999992
 11
60.717194
 21
-39.999992
  0
LINE
  8
0
 10
71.717041
 20
40.000011
 11
77.717041
 21
40.000011
  0
LINE
  8
0
 10
71.717194
 20
-39.999992
 11
77.717194
 21
-39.999992
  0
LINE
  8
0
 10
54.717072
 20
-39.999962
 11
54.717072
 21
-11.999962
  0
LINE
  8
0
 62
     4
 10
59.767075
 20
-3.999954
 11
59.767075
 21
3.000046
  0
LINE
  8
0
 62
     4
 10
37.767090
 20
-3.999985
 11
37.767090
 21
3.000015
  0
LINE
  8
0
 62
     4
 10
44.267090
 20
-12.499977
 11
44.267090
 21
-3.999977
  0
LINE
  8
0
 62
     4
 10
44.267151
 20
-12.499989
 11
53.267151
 21
-12.499989
  0
LINE
  8
0
 10
58.979324
 20
-9.649982
 11
60.717133
 21
-9.649982
  0
LINE
  8
0
 10
58.979324
 20
-6.349995
 11
60.717133
 21
-6.349995
  0
LINE
  8
0
 62
     4
 10
53.267090
 20
-12.499962
 11
53.267090
 21
-3.999962
  0
LINE
  8
0
 10
60.717072
 20
-25.484459
 11
68.517151
 21
-25.484459
  0
LINE
  8
0
 62
     2
 10
60.717072
 20
-25.984459
 11
68.517166
 21
-25.984459
  0
LINE
  8
0
 62
     2
 10
60.717072
 20
-29.984459
 11
68.517181
 21
-29.984459
  0
LINE
  8
0
 10
60.717072
 20
-30.484459
 11
68.518524
 21
-30.484459
  0
LINE
  8
0
 10
71.717087
 20
-39.999931
 11
71.717087
 21
40.000069
  0
LINE
  8
0
 10
60.717072
 20
-39.999947
 11
60.717072
 21
40.000053
  0
LINE
  8
0
 10
32.717148
 20
-11.999989
 11
44.267151
 21
-11.999989
  0
LINE
  8
0
 10
32.717133
 20
-9.649982
 11
33.454956
 21
-9.649982
  0
LINE
  8
0
 10
32.717133
 20
-6.349995
 11
33.454941
 21
-6.349995
  0
LINE
  8
0
 10
32.717117
 20
4.000011
 11
60.717102
 21
4.000011
  0
LINE
  8
0
 10
32.717133
 20
-3.999989
 11
37.767105
 21
-3.999989
  0
LINE
  8
0
 62
     4
 10
37.767120
 20
3.000011
 11
59.767120
 21
3.000011
  0
LINE
  8
0
 10
38.717087
 20
4.000015
 11
38.717087
 21
40.000015
  0
LINE
  8
0
 10
53.267136
 20
-9.649982
 11
54.454941
 21
-9.649982
  0
LINE
  8
0
 10
53.267120
 20
-6.349995
 11
54.454941
 21
-6.349995
  0
LINE
  8
0
 10
37.979340
 20
-9.649982
 11
44.317139
 21
-9.649982
  0
LINE
  8
0
 10
37.979340
 20
-6.349995
 11
44.317139
 21
-6.349995
  0
LINE
  8
0
 10
68.922668
 20
-32.719078
 11
71.310593
 21
-32.719078
  0
LINE
  8
0
 10
71.310722
 20
-32.719208
 11
71.714867
 21
-32.019207
  0
LINE
  8
0
 10
68.922668
 20
-30.419090
 11
71.310364
 21
-30.419090
  0
LINE
  8
0
 10
68.922516
 20
-32.719139
 11
68.518372
 21
-32.019142
  0
LINE
  8
0
 10
68.518417
 20
-32.019157
 11
68.518417
 21
-24.219109
  0
LINE
  8
0
 10
68.922668
 20
-25.819084
 11
71.310333
 21
-25.819084
  0
LINE
  8
0
 10
68.922653
 20
-23.519100
 11
71.310257
 21
-23.519100
  0
LINE
  8
0
 10
68.518791
 20
-24.219139
 11
68.922935
 21
-23.519140
  0
LINE
  8
0
 10
71.714394
 20
-24.219101
 11
71.310249
 21
-23.519102
  0
LINE
  8
0
 10
38.717087
 20
-39.999992
 11
38.717087
 21
-11.999985
  0
LINE
  8
0
 10
68.717087
 20
15.000061
 11
68.717087
 21
35.000061
  0
LINE
  8
0
 10
60.717072
 20
29.000011
 11
68.717072
 21
29.000011
  0
LINE
  8
0
 10
60.717072
 20
21.000011
 11
68.717087
 21
21.000011
  0
LINE
  8
0
 10
68.717041
 20
35.000011
 11
71.717056
 21
35.000011
  0
LINE
  8
0
 10
68.718506
 20
-14.999989
 11
71.717148
 21
-14.999989
  0
LINE
  8
0
 10
68.718536
 20
-34.999992
 11
71.717194
 21
-34.999992
  0
LINE
  8
0
 10
52.717163
 20
-22.484463
 11
54.770462
 21
-22.484463
  0
LINE
  8
0
 10
52.717178
 20
-33.484459
 11
54.770477
 21
-33.484459
  0
LINE
  8
0
 10
44.517654
 20
-25.569695
 11
45.517700
 21
-25.569695
  0
LINE
  8
0
 62
     2
 10
44.517700
 20
-26.069695
 11
45.517700
 21
-26.069695
  0
LINE
  8
0
 62
     2
 10
44.517715
 20
-30.069695
 11
45.517715
 21
-30.069695
  0
LINE
  8
0
 10
44.517654
 20
-30.569695
 11
45.517715
 21
-30.569695
  0
LINE
  8
0
 10
49.121323
 20
-32.669670
 11
52.717163
 21
-32.669670
  0
LINE
  8
0
 10
49.121307
 20
-30.369682
 11
52.717163
 21
-30.369682
  0
LINE
  8
0
 10
49.121174
 20
-32.669743
 11
48.717030
 21
-31.969744
  0
LINE
  8
0
 10
49.121307
 20
-25.769676
 11
52.717163
 21
-25.769676
  0
LINE
  8
0
 10
49.121307
 20
-23.469692
 11
52.717163
 21
-23.469692
  0
LINE
  8
0
 10
48.717346
 20
-24.169779
 11
49.121490
 21
-23.469780
  0
LINE
  8
0
 10
44.517624
 20
-30.569695
 11
44.517624
 21
-25.569695
  0
LINE
  8
0
 10
52.717072
 20
-33.484444
 11
52.717072
 21
-22.484444
  0
LINE
  8
0
 10
48.717571
 20
-24.169687
 11
48.313427
 21
-23.469688
  0
LINE
  8
0
 10
45.921860
 20
-32.669670
 11
48.313583
 21
-32.669670
  0
LINE
  8
0
 10
48.313801
 20
-32.669743
 11
48.717941
 21
-31.969744
  0
LINE
  8
0
 10
45.921860
 20
-30.369682
 11
48.313568
 21
-30.369682
  0
LINE
  8
0
 10
45.921715
 20
-32.669712
 11
45.517570
 21
-31.969715
  0
LINE
  8
0
 10
45.517624
 20
-31.969658
 11
45.517624
 21
-24.169670
  0
LINE
  8
0
 10
45.921844
 20
-25.769676
 11
48.313568
 21
-25.769676
  0
LINE
  8
0
 10
45.921844
 20
-23.469692
 11
48.313568
 21
-23.469692
  0
LINE
  8
0
 10
45.517941
 20
-24.169739
 11
45.922085
 21
-23.469740
  0
LINE
  8
0
 10
48.717621
 20
-31.969688
 11
48.717621
 21
-24.169731
  0
LINE
  8
0
 62
     4
 10
48.088837
 20
-9.249989
 11
49.545456
 21
-9.249989
  0
LINE
  8
0
 62
     4
 10
48.088821
 20
-6.749989
 11
49.545441
 21
-6.749989
  0
LINE
  8
0
 62
     4
 10
48.088764
 20
-9.250027
 11
47.367069
 21
-8.000014
  0
LINE
  8
0
 62
     4
 10
50.267056
 20
-8.000001
 11
49.545361
 21
-6.749989
  0
LINE
  8
0
 62
     4
 10
49.545639
 20
-9.250046
 11
50.267326
 21
-8.000047
  0
LINE
  8
0
 62
     4
 10
47.367332
 20
-8.000060
 11
48.089020
 21
-6.750061
  0
LINE
  8
0
 10
53.267136
 20
-11.999989
 11
60.717133
 21
-11.999989
  0
LINE
  8
0
 10
60.717072
 20
-20.999996
 11
68.718506
 21
-20.999996
  0
LINE
  8
0
 10
68.717102
 20
15.000011
 11
71.717102
 21
15.000011
  0
LINE
  8
0
 10
38.717056
 20
35.000011
 11
60.717056
 21
35.000011
  0
LINE
  8
0
 10
68.718430
 20
-34.999931
 11
68.718430
 21
-32.365562
  0
LINE
  8
0
 10
68.718430
 20
-23.872704
 11
68.718430
 21
-14.999939
  0
LINE
  8
0
  6
CENTER
 62
     2
 10
69.117096
 20
32.500011
 11
80.717102
 21
32.500011
  0
LINE
  8
0
  6
CENTER
 62
     2
 10
69.517120
 20
-32.499992
 11
80.717102
 21
-32.499992
  0
LINE
  8
0
  6
CENTER
 62
     2
 10
29.717102
 20
32.500011
 11
40.517090
 21
32.500011
  0
LINE
  8
0
  6
CENTER
 62
     2
 10
30.917114
 20
-32.499992
 11
40.917114
 21
-32.499992
  0
LINE
  8
0
  6
CENTER
 62
     2
 10
69.117111
 20
25.000011
 11
80.717102
 21
25.000011
  0
LINE
  8
0
  6
CENTER
 62
     2
 10
69.517120
 20
-24.999992
 11
80.717102
 21
-24.999992
  0
LINE
  8
0
 10
37.131382
 20
-6.585819
 11
34.302956
 21
-9.414247
  0
LINE
  8
0
 10
37.131336
 20
-9.414193
 11
34.302910
 21
-6.585766
  0
LINE
  8
0
 10
58.131359
 20
-9.414172
 11
55.302933
 21
-6.585746
  0
LINE
  8
0
 10
58.131359
 20
-6.585758
 11
55.302933
 21
-9.414186
  0
LINE
  8
0
 62
     4
 10
37.767105
 20
-3.999989
 11
59.767105
 21
-3.999989
  0
LINE
  8
0
 10
59.767105
 20
-3.999989
 11
60.717133
 21
-3.999989
  0
LINE
  8
0
 10
60.717072
 20
-2.499989
 11
71.717102
 21
-2.499989
  0
LINE
  8
0
 10
60.717072
 20
2.500011
 11
71.717102
 21
2.500011
  0
LINE
  8
0
 62
     2
 10
60.717072
 20
29.984493
 11
68.517151
 21
29.984493
  0
LINE
  8
0
 10
60.717072
 20
30.484493
 11
68.518494
 21
30.484493
  0
LINE
  8
0
  6
CENTER
 62
     2
 10
72.966507
 20
8.072399
 11
58.559433
 21
8.072399
  0
LINE
  8
0
  6
CENTER
 62
     2
 10
72.923248
 20
-8.071980
 11
58.602692
 21
-8.071980
  0
LINE
  8
0
 10
68.900635
 20
8.006063
 11
69.400864
 21
2.500012
  0
LINE
  8
0
 10
70.360207
 20
8.138668
 11
70.872482
 21
2.500011
  0
LINE
  8
0
 10
71.326744
 20
-2.499988
 11
71.717087
 21
-6.796485
  0
LINE
  8
0
 10
69.855118
 20
-2.499988
 11
70.367371
 21
-8.138314
  0
LINE
  8
0
 10
61.560211
 20
8.138668
 11
62.072491
 21
2.500012
  0
LINE
  8
0
 10
62.526745
 20
-2.499989
 11
63.026947
 21
-8.005710
  0
LINE
  8
0
 10
61.055111
 20
-2.499988
 11
61.567360
 21
-8.138314
  0
LINE
  8
0
 10
63.033958
 20
8.006063
 11
63.534191
 21
2.500012
  0
LINE
  8
0
 10
64.493546
 20
8.138668
 11
65.005821
 21
2.500012
  0
LINE
  8
0
 10
65.460083
 20
-2.499989
 11
65.960281
 21
-8.005711
  0
LINE
  8
0
 10
63.988445
 20
-2.499988
 11
64.500694
 21
-8.138314
  0
LINE
  8
0
 10
65.967293
 20
8.006063
 11
66.467522
 21
2.500012
  0
LINE
  8
0
 10
67.426880
 20
8.138668
 11
67.939156
 21
2.500012
  0
LINE
  8
0
 10
68.393417
 20
-2.499989
 11
68.893616
 21
-8.005710
  0
LINE
  8
0
 10
66.921776
 20
-2.499988
 11
67.434029
 21
-8.138314
  0
LINE
  8
0
 10
-30.000000
 20
96.159927
 11
-30.000000
 21
102.159927
  0
LINE
  8
0
 10
-109.999992
 20
96.159981
 11
-109.999992
 21
102.159981
  0
LINE
  8
0
 10
-30.000000
 20
96.159950
 11
-109.999992
 21
96.159950
  0
LINE
  8
0
 10
-29.999985
 20
102.159950
 11
-54.999985
 21
102.159950
  0
LINE
  8
0
 10
-49.999985
 20
102.159943
 11
-49.999985
 21
124.159943
  0
LINE
  8
0
 10
-74.499977
 20
118.159950
 11
-89.999977
 21
118.159950
  0
LINE
  8
0
 10
-74.499992
 20
102.159958
 11
-74.499992
 21
118.159958
  0
LINE
  8
0
 62
     4
 10
-39.000000
 20
102.159950
 11
-39.000000
 21
123.159935
  0
LINE
  8
0
  6
CENTER
 62
     2
 10
-69.999992
 20
93.629097
 11
-69.999992
 21
143.944260
  0
LINE
  8
0
 10
-75.999977
 20
118.159950
 11
-86.999977
 21
118.159950
  0
LINE
  8
0
 62
     4
 10
-38.999985
 20
123.159950
 11
-49.999969
 21
123.159950
  0
LINE
  8
0
 62
     4
 10
-36.999985
 20
120.659950
 11
-38.999985
 21
120.659950
  0
LINE
  8
0
 62
     4
 10
-37.000000
 20
115.659950
 11
-38.999985
 21
115.659950
  0
LINE
  8
0
 62
     4
 10
-22.837006
 20
116.459953
 11
-37.000000
 21
116.459953
  0
LINE
  8
0
 62
     4
 10
-21.514786
 20
119.859947
 11
-36.999985
 21
119.859947
  0
LINE
  8
0
 62
     4
 10
-37.000000
 20
115.659935
 11
-37.000000
 21
120.659935
  0
LINE
  8
0
 10
-89.999992
 20
102.159966
 11
-89.999992
 21
124.159966
  0
LINE
  8
0
 10
-44.999969
 20
124.159950
 11
-94.999969
 21
124.159950
  0
LINE
  8
0
 10
-67.999962
 20
135.159943
 11
-71.999962
 21
135.159943
  0
LINE
  8
0
 10
-76.799545
 20
132.330017
 11
-76.799545
 21
134.721741
  0
LINE
  8
0
 10
-76.799500
 20
134.721786
 11
-77.499496
 21
135.125931
  0
LINE
  8
0
 10
-79.099548
 20
132.330017
 11
-79.099548
 21
134.721741
  0
LINE
  8
0
 10
-76.799507
 20
132.329987
 11
-77.499512
 21
131.925842
  0
LINE
  8
0
 10
-77.499512
 20
131.925873
 11
-85.299515
 21
131.925873
  0
LINE
  8
0
 10
-83.699539
 20
132.330017
 11
-83.699539
 21
134.721741
  0
LINE
  8
0
 10
-85.999542
 20
132.330017
 11
-85.999542
 21
134.721741
  0
LINE
  8
0
 10
-85.299515
 20
131.925964
 11
-85.999527
 21
132.330109
  0
LINE
  8
0
 10
-85.299522
 20
135.125824
 11
-85.999527
 21
134.721680
  0
LINE
  8
0
 62
     2
 10
-79.399536
 20
124.159966
 11
-79.399536
 21
131.925873
  0
LINE
  8
0
 10
-78.899536
 20
124.159966
 11
-78.899536
 21
131.925873
  0
LINE
  8
0
 62
     2
 10
-83.399536
 20
124.159966
 11
-83.399536
 21
131.925873
  0
LINE
  8
0
 10
-83.899536
 20
124.159966
 11
-83.899536
 21
131.925873
  0
LINE
  8
0
 10
-74.499985
 20
102.159950
 11
-109.999985
 21
102.159950
  0
LINE
  8
0
 10
-50.499969
 20
132.159943
 11
-70.499969
 21
132.159943
  0
LINE
  8
0
 10
-56.499992
 20
124.159950
 11
-56.499992
 21
132.159943
  0
LINE
  8
0
 10
-64.499992
 20
124.159950
 11
-64.499992
 21
132.159943
  0
LINE
  8
0
 10
-67.999962
 20
135.159943
 11
-71.999962
 21
135.159943
  0
LINE
  8
0
 10
-50.499985
 20
132.159943
 11
-50.499985
 21
135.159943
  0
LINE
  8
0
 10
-70.499992
 20
132.159958
 11
-70.499992
 21
135.159958
  0
LINE
  8
0
 10
-87.115509
 20
116.159966
 11
-87.115509
 21
118.159966
  0
LINE
  8
0
 10
-76.115509
 20
116.159958
 11
-76.115509
 21
118.159958
  0
LINE
  8
0
 10
-84.030289
 20
107.960510
 11
-84.030289
 21
108.960510
  0
LINE
  8
0
 62
     2
 10
-83.530289
 20
107.960510
 11
-83.530289
 21
108.960510
  0
LINE
  8
0
 62
     2
 10
-79.530289
 20
107.960510
 11
-79.530289
 21
108.960510
  0
LINE
  8
0
 10
-79.030289
 20
107.960503
 11
-79.030289
 21
108.960510
  0
LINE
  8
0
 10
-76.930298
 20
112.564102
 11
-76.930298
 21
116.159966
  0
LINE
  8
0
 10
-79.230301
 20
112.564110
 11
-79.230301
 21
116.159966
  0
LINE
  8
0
 10
-76.930229
 20
112.564064
 11
-77.630226
 21
112.159920
  0
LINE
  8
0
 10
-83.830292
 20
112.564110
 11
-83.830292
 21
116.159966
  0
LINE
  8
0
 10
-86.130295
 20
112.564110
 11
-86.130295
 21
116.159966
  0
LINE
  8
0
 10
-85.430298
 20
112.160011
 11
-86.130295
 21
112.564156
  0
LINE
  8
0
 10
-79.030281
 20
107.960495
 11
-84.030281
 21
107.960495
  0
LINE
  8
0
 10
-76.115494
 20
116.159950
 11
-87.115494
 21
116.159950
  0
LINE
  8
0
 10
-85.430298
 20
112.160454
 11
-86.130295
 21
111.756310
  0
LINE
  8
0
 10
-76.930298
 20
109.364655
 11
-76.930298
 21
111.756363
  0
LINE
  8
0
 10
-76.930290
 20
111.756409
 11
-77.630287
 21
112.160553
  0
LINE
  8
0
 10
-79.230301
 20
109.364655
 11
-79.230301
 21
111.756371
  0
LINE
  8
0
 10
-76.930267
 20
109.364616
 11
-77.630264
 21
108.960472
  0
LINE
  8
0
 10
-77.630280
 20
108.960495
 11
-85.430283
 21
108.960495
  0
LINE
  8
0
 10
-83.830292
 20
109.364655
 11
-83.830292
 21
111.756371
  0
LINE
  8
0
 10
-86.130295
 20
109.364655
 11
-86.130295
 21
111.756371
  0
LINE
  8
0
 10
-85.430305
 20
108.960548
 11
-86.130310
 21
109.364693
  0
LINE
  8
0
 10
-77.630249
 20
112.160492
 11
-85.430222
 21
112.160492
  0
LINE
  8
0
 10
-30.000000
 20
135.159927
 11
-30.000000
 21
141.159927
  0
LINE
  8
0
 10
-29.999954
 20
141.159943
 11
-109.999954
 21
141.159943
  0
LINE
  8
0
 10
-109.999992
 20
135.159973
 11
-109.999992
 21
141.159973
  0
LINE
  8
0
 10
-29.999969
 20
135.159943
 11
-109.999962
 21
135.159943
  0
LINE
  8
0
 10
-54.999992
 20
102.159943
 11
-54.999992
 21
124.159943
  0
LINE
  8
0
 10
-72.999992
 20
96.159958
 11
-72.999992
 21
100.159958
  0
LINE
  8
0
 10
-66.999992
 20
96.159950
 11
-66.999992
 21
100.159950
  0
LINE
  8
0
 10
-66.999985
 20
100.159950
 11
-72.999985
 21
100.159950
  0
LINE
  8
0
 10
-44.999985
 20
123.159950
 11
-44.999985
 21
124.159935
  0
LINE
  8
0
 62
     4
 10
-36.000000
 20
109.209953
 11
-39.000000
 21
109.209953
  0
LINE
  8
0
 62
     4
 10
-36.000000
 20
114.809952
 11
-38.999985
 21
114.809952
  0
LINE
  8
0
 62
     4
 10
-36.000000
 20
109.209930
 11
-36.000000
 21
114.809929
  0
LINE
  8
0
 10
-94.999992
 20
102.159973
 11
-94.999992
 21
124.159973
  0
LINE
  8
0
 62
     4
 10
-94.999985
 20
112.659950
 11
-99.999985
 21
112.659950
  0
LINE
  8
0
 62
     4
 10
-94.999985
 20
103.659950
 11
-99.999985
 21
103.659950
  0
LINE
  8
0
 62
     4
 10
-99.999992
 20
103.659973
 11
-99.999992
 21
112.659973
  0
LINE
  8
0
 62
     4
 10
-103.799988
 20
105.359978
 11
-103.799988
 21
110.959976
  0
LINE
  8
0
 62
     4
 10
-100.799988
 20
105.359978
 11
-100.799988
 21
110.959976
  0
LINE
  8
0
 62
     4
 10
-99.999985
 20
110.959953
 11
-103.799973
 21
110.959953
  0
LINE
  8
0
 62
     4
 10
-99.999977
 20
105.359955
 11
-103.799980
 21
105.359955
  0
LINE
  8
0
 62
     4
 10
-100.999992
 20
102.159973
 11
-100.999992
 21
105.359978
  0
LINE
  8
0
 62
     4
 10
-100.999992
 20
110.959976
 11
-100.999992
 21
119.159973
  0
LINE
  8
0
 62
     4
 10
-94.999969
 20
119.159950
 11
-100.999969
 21
119.159950
  0
LINE
  8
0
 62
     4
 10
-100.999977
 20
116.659950
 11
-102.999977
 21
116.659950
  0
LINE
  8
0
 62
     4
 10
-100.999985
 20
111.659950
 11
-102.999985
 21
111.659950
  0
LINE
  8
0
 62
     4
 10
-102.999992
 20
111.659981
 11
-102.999992
 21
116.659981
  0
LINE
  8
0
 62
     4
 10
-102.999977
 20
115.659950
 11
-115.587936
 21
115.659950
  0
LINE
  8
0
 62
     4
 10
-102.999985
 20
112.659950
 11
-116.754608
 21
112.659950
  0
LINE
  8
0
 62
     1
 10
-20.633362
 20
122.126595
 11
-23.900030
 21
113.726601
  0
LINE
  8
0
 62
     1
 10
-117.769554
 20
110.049995
 11
-114.459091
 21
118.562599
  0
LINE
  8
0
  6
CENTER
 62
     2
 10
-102.499992
 20
133.576645
 11
-102.499992
 21
142.443298
  0
LINE
  8
0
  6
CENTER
 62
     2
 10
-37.500000
 20
133.576599
 11
-37.500000
 21
142.676605
  0
LINE
  8
0
  6
CENTER
 62
     2
 10
-37.500000
 20
94.843262
 11
-37.500000
 21
104.176590
  0
LINE
  8
0
  6
CENTER
 62
     2
 10
-102.499992
 20
93.443306
 11
-102.499992
 21
103.709976
  0
LINE
  8
0
  6
CENTER
 62
     2
 10
-94.999992
 20
133.576630
 11
-94.999992
 21
142.443298
  0
LINE
  8
0
  6
CENTER
 62
     2
 10
-45.000000
 20
133.576599
 11
-45.000000
 21
142.676605
  0
LINE
  8
0
  6
CENTER
 62
     2
 10
-61.928001
 20
136.966095
 11
-61.928001
 21
122.645531
  0
LINE
  8
0
  6
CENTER
 62
     2
 10
-78.072380
 20
137.009338
 11
-78.072380
 21
122.602272
  0
LINE
  8
0
 10
-70.499985
 20
132.825333
 11
-76.799538
 21
132.253006
  0
LINE
  8
0
 10
-70.499992
 20
134.296982
 11
-76.799538
 21
133.724655
  0
LINE
  8
0
 10
-64.500000
 20
130.537125
 11
-78.006073
 21
129.310074
  0
LINE
  8
0
 10
-64.499977
 20
127.620110
 11
-78.010544
 21
126.476334
  0
LINE
  8
0
 10
-71.422897
 20
124.159973
 11
-64.500000
 21
124.703171
  0
LINE
  8
0
 10
-77.883354
 20
130.792862
 11
-64.499985
 21
132.008774
  0
LINE
  8
0
 10
-78.134178
 20
127.936707
 11
-64.499985
 21
129.090942
  0
LINE
  8
0
 10
-78.129715
 20
125.103844
 11
-64.500000
 21
126.173286
  0
LINE
  8
0
 10
-109.999992
 20
-106.159927
 11
-109.999992
 21
-112.159920
  0
LINE
  8
0
 10
-30.000000
 20
-106.159973
 11
-30.000000
 21
-112.159981
  0
LINE
  8
0
 10
-109.999977
 20
-106.159943
 11
-29.999969
 21
-106.159943
  0
LINE
  8
0
 10
-109.999985
 20
-112.159950
 11
-84.999977
 21
-112.159950
  0
LINE
  8
0
 10
-89.999992
 20
-112.159950
 11
-89.999992
 21
-134.159943
  0
LINE
  8
0
 10
-65.499992
 20
-128.159943
 11
-50.000000
 21
-128.159943
  0
LINE
  8
0
 10
-65.499992
 20
-112.159950
 11
-65.499992
 21
-128.159943
  0
LINE
  8
0
 62
     4
 10
-100.999985
 20
-112.159950
 11
-100.999985
 21
-129.159943
  0
LINE
  8
0
  6
CENTER
 62
     2
 10
-69.999992
 20
-103.629089
 11
-69.999992
 21
-153.944244
  0
LINE
  8
0
 10
-63.999992
 20
-128.159943
 11
-52.999992
 21
-128.159943
  0
LINE
  8
0
 62
     4
 10
-100.999985
 20
-129.159943
 11
-89.999992
 21
-129.159943
  0
LINE
  8
0
 62
     4
 10
-102.999985
 20
-126.659950
 11
-100.999985
 21
-126.659950
  0
LINE
  8
0
 62
     4
 10
-102.999977
 20
-121.659950
 11
-100.999985
 21
-121.659950
  0
LINE
  8
0
 62
     4
 10
-117.162956
 20
-122.459969
 11
-102.999977
 21
-122.459969
  0
LINE
  8
0
 62
     4
 10
-118.485184
 20
-125.859962
 11
-102.999985
 21
-125.859962
  0
LINE
  8
0
 62
     4
 10
-102.999977
 20
-121.659950
 11
-102.999977
 21
-126.659950
  0
LINE
  8
0
 10
-50.000000
 20
-112.159981
 11
-50.000000
 21
-134.159973
  0
LINE
  8
0
 10
-95.000000
 20
-134.159943
 11
-45.000000
 21
-134.159943
  0
LINE
  8
0
 10
-72.000008
 20
-145.159943
 11
-68.000008
 21
-145.159943
  0
LINE
  8
0
 10
-63.200447
 20
-142.330017
 11
-63.200447
 21
-144.721741
  0
LINE
  8
0
 10
-63.200481
 20
-144.721848
 11
-62.500484
 21
-145.125992
  0
LINE
  8
0
 10
-60.900444
 20
-142.330017
 11
-60.900444
 21
-144.721741
  0
LINE
  8
0
 10
-63.200432
 20
-142.330063
 11
-62.500435
 21
-141.925919
  0
LINE
  8
0
 10
-62.500450
 20
-141.925873
 11
-54.700447
 21
-141.925873
  0
LINE
  8
0
 10
-56.300453
 20
-142.330017
 11
-56.300453
 21
-144.721741
  0
LINE
  8
0
 10
-54.000450
 20
-142.330017
 11
-54.000450
 21
-144.721741
  0
LINE
  8
0
 10
-54.700447
 20
-141.925980
 11
-54.000443
 21
-142.330109
  0
LINE
  8
0
 10
-54.700424
 20
-145.125946
 11
-54.000427
 21
-144.721802
  0
LINE
  8
0
 62
     2
 10
-60.600456
 20
-134.159973
 11
-60.600456
 21
-141.925873
  0
LINE
  8
0
 10
-61.100456
 20
-134.159973
 11
-61.100456
 21
-141.925873
  0
LINE
  8
0
 62
     2
 10
-56.600456
 20
-134.159973
 11
-56.600456
 21
-141.925873
  0
LINE
  8
0
 10
-56.100456
 20
-134.159973
 11
-56.100456
 21
-141.925873
  0
LINE
  8
0
 10
-65.499992
 20
-112.159950
 11
-30.000000
 21
-112.159950
  0
LINE
  8
0
 10
-89.500008
 20
-142.159943
 11
-69.500008
 21
-142.159943
  0
LINE
  8
0
 10
-83.499992
 20
-134.159943
 11
-83.499992
 21
-142.159943
  0
LINE
  8
0
 10
-75.499992
 20
-134.159943
 11
-75.499992
 21
-142.159943
  0
LINE
  8
0
  6
PHANTOM
 62
     2
 10
-110.000000
 20
-137.159943
 11
-30.000000
 21
-137.159943
  0
LINE
  8
0
  6
PHANTOM
 62
     2
 10
-109.999992
 20
-137.159912
 11
-109.999992
 21
-143.159912
  0
LINE
  8
0
  6
PHANTOM
 62
     2
 10
-110.000000
 20
-143.159943
 11
-30.000000
 21
-143.159943
  0
LINE
  8
0
  6
PHANTOM
 62
     2
 10
-30.000000
 20
-137.159973
 11
-30.000000
 21
-143.159973
  0
LINE
  8
0
 10
-72.000008
 20
-145.159943
 11
-68.000008
 21
-145.159943
  0
LINE
  8
0
 10
-89.499992
 20
-142.159943
 11
-89.499992
 21
-145.159943
  0
LINE
  8
0
 10
-69.499992
 20
-142.159943
 11
-69.499992
 21
-145.159943
  0
LINE
  8
0
 10
-52.884483
 20
-126.159981
 11
-52.884483
 21
-128.159973
  0
LINE
  8
0
 10
-63.884483
 20
-126.159950
 11
-63.884483
 21
-128.159943
  0
LINE
  8
0
 10
-55.969704
 20
-117.960518
 11
-55.969704
 21
-118.960518
  0
LINE
  8
0
 62
     2
 10
-56.469704
 20
-117.960518
 11
-56.469704
 21
-118.960518
  0
LINE
  8
0
 62
     2
 10
-60.469704
 20
-117.960518
 11
-60.469704
 21
-118.960518
  0
LINE
  8
0
 10
-60.969704
 20
-117.960518
 11
-60.969704
 21
-118.960518
  0
LINE
  8
0
 10
-63.069695
 20
-122.564095
 11
-63.069695
 21
-126.159950
  0
LINE
  8
0
 10
-60.769691
 20
-122.564125
 11
-60.769691
 21
-126.159981
  0
LINE
  8
0
 10
-63.069698
 20
-122.564072
 11
-62.369701
 21
-122.159920
  0
LINE
  8
0
 10
-56.169701
 20
-122.564125
 11
-56.169701
 21
-126.159981
  0
LINE
  8
0
 10
-53.869698
 20
-122.564125
 11
-53.869698
 21
-126.159981
  0
LINE
  8
0
 10
-54.569607
 20
-122.159981
 11
-53.869633
 21
-122.564110
  0
LINE
  8
0
 10
-60.969688
 20
-117.960487
 11
-55.969688
 21
-117.960487
  0
LINE
  8
0
 10
-63.884483
 20
-126.159950
 11
-52.884483
 21
-126.159950
  0
LINE
  8
0
 10
-54.569626
 20
-122.160553
 11
-53.869625
 21
-121.756409
  0
LINE
  8
0
 10
-63.069695
 20
-119.364662
 11
-63.069695
 21
-121.756355
  0
LINE
  8
0
 10
-63.069717
 20
-121.756409
 11
-62.369720
 21
-122.160553
  0
LINE
  8
0
 10
-60.769691
 20
-119.364662
 11
-60.769691
 21
-121.756386
  0
LINE
  8
0
 10
-63.069683
 20
-119.364716
 11
-62.369686
 21
-118.960571
  0
LINE
  8
0
 10
-62.369682
 20
-118.960487
 11
-54.569679
 21
-118.960487
  0
LINE
  8
0
 10
-56.169701
 20
-119.364662
 11
-56.169701
 21
-121.756386
  0
LINE
  8
0
 10
-53.869698
 20
-119.364662
 11
-53.869698
 21
-121.756386
  0
LINE
  8
0
 10
-54.569698
 20
-118.960548
 11
-53.869720
 21
-119.364670
  0
LINE
  8
0
 10
-62.369713
 20
-122.160500
 11
-54.569740
 21
-122.160500
  0
LINE
  8
0
 10
-109.999992
 20
-145.159912
 11
-109.999992
 21
-151.159912
  0
LINE
  8
0
 10
-110.000015
 20
-151.159943
 11
-30.000031
 21
-151.159943
  0
LINE
  8
0
 10
-30.000000
 20
-145.159973
 11
-30.000000
 21
-151.159973
  0
LINE
  8
0
 10
-110.000008
 20
-145.159943
 11
-30.000000
 21
-145.159943
  0
LINE
  8
0
 10
-84.999992
 20
-112.159950
 11
-84.999992
 21
-134.159943
  0
LINE
  8
0
 10
-95.000000
 20
-129.159943
 11
-95.000000
 21
-134.159943
  0
LINE
  8
0
 62
     4
 10
-103.999969
 20
-115.209969
 11
-100.999969
 21
-115.209969
  0
LINE
  8
0
 62
     4
 10
-103.999977
 20
-120.809944
 11
-100.999985
 21
-120.809944
  0
LINE
  8
0
 62
     4
 10
-103.999977
 20
-115.209938
 11
-103.999977
 21
-120.809944
  0
LINE
  8
0
 10
-45.000000
 20
-112.159981
 11
-45.000000
 21
-134.159973
  0
LINE
  8
0
 62
     4
 10
-45.000000
 20
-126.659950
 11
-40.000000
 21
-126.659950
  0
LINE
  8
0
 62
     4
 10
-45.000000
 20
-117.659950
 11
-40.000000
 21
-117.659950
  0
LINE
  8
0
 62
     4
 10
-40.000000
 20
-117.659981
 11
-40.000000
 21
-126.659981
  0
LINE
  8
0
 62
     4
 10
-36.200012
 20
-119.359993
 11
-36.200012
 21
-124.959969
  0
LINE
  8
0
 62
     4
 10
-39.200012
 20
-119.359993
 11
-39.200012
 21
-124.959969
  0
LINE
  8
0
 62
     4
 10
-40.000000
 20
-124.959969
 11
-36.200012
 21
-124.959969
  0
LINE
  8
0
 62
     4
 10
-40.000000
 20
-119.359962
 11
-36.199982
 21
-119.359962
  0
LINE
  8
0
 62
     4
 10
-39.000000
 20
-112.159950
 11
-39.000000
 21
-119.359993
  0
LINE
  8
0
 62
     4
 10
-39.000000
 20
-124.959969
 11
-39.000000
 21
-133.159973
  0
LINE
  8
0
 62
     4
 10
-45.000000
 20
-133.159943
 11
-39.000000
 21
-133.159943
  0
LINE
  8
0
 62
     4
 10
-39.000000
 20
-130.659943
 11
-37.000000
 21
-130.659943
  0
LINE
  8
0
 62
     4
 10
-39.000000
 20
-125.659950
 11
-37.000000
 21
-125.659950
  0
LINE
  8
0
 62
     4
 10
-37.000000
 20
-125.659981
 11
-37.000000
 21
-130.659973
  0
LINE
  8
0
 62
     4
 10
-37.000000
 20
-129.659943
 11
-24.412048
 21
-129.659943
  0
LINE
  8
0
 62
     4
 10
-37.000000
 20
-126.659950
 11
-23.245361
 21
-126.659950
  0
LINE
  8
0
 62
     1
 10
-119.366631
 20
-128.126572
 11
-116.099960
 21
-119.726578
  0
LINE
  8
0
 62
     1
 10
-22.230452
 20
-124.049957
 11
-25.540926
 21
-132.562576
  0
LINE
  8
0
  6
CENTER
 62
     2
 10
-37.500000
 20
-143.576630
 11
-37.500000
 21
-152.443298
  0
LINE
  8
0
  6
CENTER
 62
     2
 10
-102.499992
 20
-143.576599
 11
-102.499992
 21
-152.676575
  0
LINE
  8
0
  6
CENTER
 62
     2
 10
-102.499992
 20
-104.843262
 11
-102.499992
 21
-114.176582
  0
LINE
  8
0
  6
CENTER
 62
     2
 10
-37.500000
 20
-103.443298
 11
-37.500000
 21
-113.709969
  0
LINE
  8
0
  6
CENTER
 62
     2
 10
-45.000000
 20
-143.576630
 11
-45.000000
 21
-152.443298
  0
LINE
  8
0
  6
CENTER
 62
     2
 10
-94.999992
 20
-143.576599
 11
-94.999992
 21
-152.676605
  0
LINE
  8
0
  6
CENTER
 62
     2
 10
-61.927605
 20
-147.009338
 11
-61.927605
 21
-132.602264
  0
LINE
  8
0
 10
-69.499962
 20
-142.825348
 11
-63.200417
 21
-142.253021
  0
LINE
  8
0
 10
-69.499985
 20
-144.297043
 11
-63.200436
 21
-143.724731
  0
LINE
  8
0
 10
-75.499977
 20
-140.537216
 11
-61.993904
 21
-139.310165
  0
LINE
  8
0
 10
-75.499977
 20
-137.620300
 11
-61.989399
 21
-136.476532
  0
LINE
  8
0
 10
-68.577072
 20
-134.159943
 11
-75.499962
 21
-134.703156
  0
LINE
  8
0
 10
-62.116589
 20
-140.792938
 11
-75.499977
 21
-142.008865
  0
LINE
  8
0
 10
-61.865776
 20
-137.936844
 11
-75.499969
 21
-139.091095
  0
LINE
  8
0
 10
-61.870255
 20
-135.103760
 11
-75.499969
 21
-136.173187
  0
LINE
  8
0
 10
217.717041
 20
40.000004
 11
137.717010
 21
40.000004
  0
LINE
  8
0
 10
217.717072
 20
-39.999996
 11
137.717056
 21
-39.999996
  0
LINE
  8
0
 10
217.717056
 20
40.000004
 11
217.717056
 21
-39.999996
  0
LINE
  8
0
 10
137.717041
 20
39.999989
 11
137.717041
 21
-40.000011
  0
LINE
  8
0
  6
CENTER
 62
     2
 10
177.717056
 20
43.575001
 11
177.717056
 21
-44.908787
  0
LINE
  8
0
  6
CENTER
 62
     2
 10
221.526474
 20
0.000004
 11
134.468018
 21
0.000004
  0
LINE
  8
0
  6
CENTER
 62
     2
 10
215.281387
 20
32.500004
 11
205.126419
 21
32.500004
  0
LINE
  8
0
  6
CENTER
 62
     2
 10
215.013275
 20
-32.499996
 11
205.129166
 21
-32.499996
  0
LINE
  8
0
  6
CENTER
 62
     2
 10
210.217056
 20
37.912655
 11
210.217056
 21
26.990810
  0
LINE
  8
0
  6
CENTER
 62
     2
 10
145.217041
 20
37.436398
 11
145.217041
 21
27.176880
  0
LINE
  8
0
  6
CENTER
 62
     2
 10
152.717041
 20
30.489792
 11
152.717041
 21
20.095573
  0
LINE
  8
0
  6
CENTER
 62
     2
 10
202.717056
 20
30.089695
 11
202.717056
 21
19.937481
  0
LINE
  8
0
  6
CENTER
 62
     2
 10
207.807953
 20
-24.999996
 11
196.966095
 21
-24.999996
  0
LINE
  8
0
  6
CENTER
 62
     2
 10
207.949234
 20
25.000006
 11
198.003479
 21
25.000006
  0
LINE
  8
0
  6
CENTER
 62
     2
 10
157.522690
 20
25.000006
 11
147.740967
 21
25.000006
  0
LINE
  8
0
  6
CENTER
 62
     2
 10
181.225006
 20
25.000006
 11
174.249527
 21
25.000006
  0
LINE
  8
0
  6
CENTER
 62
     2
 10
210.217056
 20
-27.619459
 11
210.217056
 21
-38.047672
  0
LINE
  8
0
  6
CENTER
 62
     2
 10
202.717056
 20
-19.713524
 11
202.717056
 21
-30.864883
  0
LINE
  8
0
  6
CENTER
 62
     2
 10
150.349640
 20
-32.499996
 11
140.386673
 21
-32.499996
  0
LINE
  8
0
  6
CENTER
 62
     2
 10
158.254227
 20
-24.999996
 11
146.940552
 21
-24.999996
  0
LINE
  8
0
  6
CENTER
 62
     2
 10
152.717041
 20
-19.543360
 11
152.717041
 21
-30.682596
  0
LINE
  8
0
  6
CENTER
 62
     2
 10
145.217041
 20
-26.801630
 11
145.217041
 21
-38.155754
  0
LINE
  8
0
  6
CENTER
 62
     2
 10
152.717041
 20
3.158119
 11
152.717041
 21
-2.905009
  0
LINE
  8
0
  6
CENTER
 62
     2
 10
181.158661
 20
-25.000004
 11
174.390518
 21
-25.000004
  0
LINE
  8
0
  6
CENTER
 62
     2
 10
181.440674
 20
-32.500004
 11
173.967514
 21
-32.500004
  0
LINE
  8
0
  6
CENTER
 62
     2
 10
210.217072
 20
3.564250
 11
210.217072
 21
-3.113164
  0
LINE
  8
0
  6
CENTER
 62
     2
 10
145.217041
 20
3.440124
 11
145.217041
 21
-2.905010
  0
LINE
  8
0
  6
CENTER
 62
     2
 10
181.225006
 20
32.500004
 11
174.531525
 21
32.500004
  0
LINE
  8
0
  6
CENTER
 62
     2
 10
202.717072
 20
3.581137
 11
202.717072
 21
-3.469011
  0
LINE
  8
0
  6
CENTER
 62
     2
 10
149.905334
 20
32.500004
 11
140.267807
 21
32.500004
  0
CIRCLE
  8
0
 10
-69.999977
 20
0.000015
 40
9.000000
  0
ARC
  8
0
 62
     4
 10
-50.619995
 20
-7.999992
 40
4.420009
 50
320.692413
 51
39.307362
  0
ARC
  8
0
 62
     4
 10
-89.094978
 20
8.000015
 40
4.704990
 50
141.948822
 51
218.051392
  0
CIRCLE
  8
0
 10
-102.499969
 20
32.500011
 40
1.500000
  0
CIRCLE
  8
0
 62
     2
 10
-102.499969
 20
32.500011
 40
2.000000
  0
CIRCLE
  8
0
 10
-37.499969
 20
32.500019
 40
1.500000
  0
CIRCLE
  8
0
 62
     2
 10
-37.499969
 20
32.500019
 40
2.000000
  0
CIRCLE
  8
0
 10
-102.499985
 20
-32.500008
 40
1.500000
  0
CIRCLE
  8
0
 62
     2
 10
-102.499985
 20
-32.500008
 40
2.000000
  0
CIRCLE
  8
0
 10
-37.499985
 20
-32.499992
 40
1.500000
  0
CIRCLE
  8
0
 62
     2
 10
-37.499985
 20
-32.499992
 40
2.000000
  0
ARC
  8
0
 10
-69.999962
 20
31.500023
 40
3.000000
 50
180.000000
 51
359.999969
  0
CIRCLE
  8
0
 10
-69.999992
 20
-32.500000
 40
3.000000
  0
ARC
  8
0
 10
-69.999977
 20
-0.499985
 40
7.500000
 50
0.000014
 51
211.051971
  0
ARC
  8
0
 10
-75.656830
 20
-5.656845
 40
1.500000
 50
277.078552
 51
120.814674
  0
ARC
  8
0
 10
-64.343124
 20
-5.656837
 40
1.500000
 50
59.185143
 51
262.921753
  0
ARC
  8
0
 10
-75.656830
 20
-5.656845
 40
0.600000
 50
259.727814
 51
190.272095
  0
ARC
  8
0
 10
-64.343124
 20
-5.656837
 40
0.600001
 50
349.726410
 51
280.273651
  0
ARC
  8
0
 10
-69.999977
 20
-0.499985
 40
7.500000
 50
328.948059
 51
0.000014
  0
ARC
  8
0
 10
-192.264435
 20
28.069662
 40
6.746779
 50
340.068085
 51
19.931932
  0
ARC
  8
0
 10
-186.879395
 20
24.619665
 40
1.838253
 50
141.274292
 51
180.000000
  0
CIRCLE
  8
0
 62
     4
 10
-184.767090
 20
7.999962
 40
3.300000
  0
ARC
  8
0
 10
-187.355896
 20
24.619665
 40
1.838242
 50
0.000000
 51
38.726051
  0
ARC
  8
0
 10
-187.355927
 20
31.519667
 40
1.838255
 50
321.274200
 51
359.999878
  0
CIRCLE
  8
0
 10
-196.717072
 20
7.999962
 40
2.800000
  0
CIRCLE
  8
0
 62
     4
 10
-190.717072
 20
0.499962
 40
1.700000
  0
CIRCLE
  8
0
 62
     4
 10
-190.717072
 20
0.499962
 40
2.500000
  0
CIRCLE
  8
0
 10
-175.717072
 20
7.999992
 40
2.800000
  0
ARC
  8
0
 10
-209.876221
 20
24.669025
 40
1.838253
 50
141.274292
 51
180.000000
  0
ARC
  8
0
 10
-210.356689
 20
24.669025
 40
1.838242
 50
0.000000
 51
38.726051
  0
ARC
  8
0
 10
-215.265228
 20
28.119038
 40
6.746779
 50
340.068085
 51
19.931932
  0
ARC
  8
0
 10
-209.876221
 20
31.569019
 40
1.838242
 50
180.000000
 51
218.726013
  0
ARC
  8
0
 10
-210.356720
 20
31.569019
 40
1.838255
 50
321.274200
 51
359.999878
  0
ARC
  8
0
 10
-204.967682
 20
28.119055
 40
6.746766
 50
160.068008
 51
199.931931
  0
ARC
  8
0
 10
-190.555359
 20
24.619650
 40
1.838242
 50
0.000000
 51
38.726051
  0
ARC
  8
0
 10
-190.555389
 20
31.519659
 40
1.838255
 50
321.274200
 51
359.999878
  0
ARC
  8
0
 10
-195.463898
 20
28.069662
 40
6.746779
 50
340.068085
 51
19.931932
  0
ARC
  8
0
 10
-181.970886
 20
28.069679
 40
6.746766
 50
160.068008
 51
199.931931
  0
ARC
  8
0
 10
-186.879425
 20
31.519651
 40
1.838242
 50
180.000000
 51
218.726013
  0
CIRCLE
  8
0
 10
-210.897125
 20
8.071980
 40
0.732800
  0
CIRCLE
  8
0
 10
-208.063782
 20
8.071980
 40
0.732800
  0
CIRCLE
  8
0
 10
-205.130432
 20
8.072010
 40
0.732800
  0
CIRCLE
  8
0
 10
-202.197113
 20
8.072014
 40
0.732800
  0
ARC
  8
0
 10
-200.930359
 20
-8.072395
 40
0.732801
 50
73.076218
 51
286.923798
  0
CIRCLE
  8
0
 10
-206.597046
 20
-8.072399
 40
0.732800
  0
CIRCLE
  8
0
 10
-203.763702
 20
-8.072399
 40
0.732800
  0
CIRCLE
  8
0
 10
-209.430389
 20
-8.072399
 40
0.732800
  0
ARC
  8
0
 10
52.264481
 20
-28.069664
 40
6.746776
 50
160.068069
 51
199.931946
  0
ARC
  8
0
 10
46.879456
 20
-24.619652
 40
1.838247
 50
321.274139
 51
0.000000
  0
CIRCLE
  8
0
 62
     4
 10
48.817139
 20
-7.999969
 40
3.300000
  0
ARC
  8
0
 10
47.355942
 20
-24.619652
 40
1.838249
 50
180.000000
 51
218.725906
  0
ARC
  8
0
 10
47.355957
 20
-31.519661
 40
1.838252
 50
141.274124
 51
179.999878
  0
CIRCLE
  8
0
 10
56.717133
 20
-7.999954
 40
2.800000
  0
CIRCLE
  8
0
 62
     4
 10
54.767120
 20
-0.499962
 40
1.700000
  0
CIRCLE
  8
0
 62
     4
 10
54.767120
 20
-0.499962
 40
2.500000
  0
CIRCLE
  8
0
 10
35.717133
 20
-7.999985
 40
2.800000
  0
ARC
  8
0
 10
69.876251
 20
-24.669029
 40
1.838247
 50
321.274139
 51
0.000000
  0
ARC
  8
0
 10
70.356750
 20
-24.669029
 40
1.838249
 50
180.000000
 51
218.725906
  0
ARC
  8
0
 10
75.265289
 20
-28.119026
 40
6.746772
 50
160.068054
 51
199.931961
  0
ARC
  8
0
 10
69.876282
 20
-31.569023
 40
1.838242
 50
0.000000
 51
38.725857
  0
ARC
  8
0
 10
70.356781
 20
-31.569023
 40
1.838249
 50
141.274048
 51
179.999878
  0
ARC
  8
0
 10
64.967743
 20
-28.119057
 40
6.746766
 50
340.067993
 51
19.931946
  0
ARC
  8
0
 10
50.555389
 20
-24.619652
 40
1.838249
 50
180.000000
 51
218.725906
  0
ARC
  8
0
 10
50.555420
 20
-31.519661
 40
1.838252
 50
141.274124
 51
179.999878
  0
ARC
  8
0
 10
55.463928
 20
-28.069664
 40
6.746776
 50
160.068069
 51
199.931946
  0
ARC
  8
0
 10
41.970932
 20
-28.069679
 40
6.746770
 50
340.068024
 51
19.931934
  0
ARC
  8
0
 10
46.879456
 20
-31.519646
 40
1.838245
 50
0.000000
 51
38.725933
  0
CIRCLE
  8
0
 10
69.630417
 20
8.072365
 40
0.732800
  0
ARC
  8
0
 10
71.097153
 20
-8.072012
 40
0.732800
 50
32.222931
 51
327.777100
  0
ARC
  8
0
 10
60.830414
 20
8.072365
 40
0.732800
 50
261.102325
 51
98.897667
  0
CIRCLE
  8
0
 10
62.297150
 20
-8.072012
 40
0.732800
  0
CIRCLE
  8
0
 10
63.763748
 20
8.072365
 40
0.732800
  0
CIRCLE
  8
0
 10
65.230484
 20
-8.072012
 40
0.732800
  0
CIRCLE
  8
0
 10
66.697083
 20
8.072365
 40
0.732800
  0
CIRCLE
  8
0
 10
68.163818
 20
-8.072012
 40
0.732800
  0
ARC
  8
0
 10
-77.949532
 20
133.287628
 40
1.838242
 50
90.000000
 51
128.725906
  0
ARC
  8
0
 10
-81.399513
 20
128.379120
 40
6.746766
 50
70.068008
 51
109.931931
  0
ARC
  8
0
 10
-77.949509
 20
133.764130
 40
1.838255
 50
231.274200
 51
270.000000
  0
ARC
  8
0
 10
-81.399506
 20
138.672668
 40
6.746778
 50
250.068115
 51
289.931946
  0
ARC
  8
0
 10
-84.849518
 20
133.764130
 40
1.838242
 50
270.000000
 51
308.726105
  0
ARC
  8
0
 10
-84.849518
 20
133.287643
 40
1.838255
 50
51.274197
 51
90.000000
  0
ARC
  8
0
 10
-84.980286
 20
113.998215
 40
1.838249
 50
270.000000
 51
308.725952
  0
ARC
  8
0
 10
-78.080276
 20
113.998215
 40
1.838249
 50
231.274048
 51
270.000000
  0
ARC
  8
0
 10
-81.530273
 20
118.906746
 40
6.746778
 50
250.068115
 51
289.931976
  0
ARC
  8
0
 10
-81.530281
 20
105.413742
 40
6.746766
 50
70.068008
 51
109.931908
  0
ARC
  8
0
 10
-78.080292
 20
110.322266
 40
1.838242
 50
90.000000
 51
128.725769
  0
ARC
  8
0
 10
-81.530273
 20
115.707291
 40
6.746778
 50
250.068115
 51
289.931976
  0
ARC
  8
0
 10
-84.980286
 20
110.322266
 40
1.838249
 50
51.274048
 51
90.000000
  0
ARC
  8
0
 10
-84.980286
 20
110.798759
 40
1.838249
 50
270.000000
 51
308.725952
  0
ARC
  8
0
 10
-78.080276
 20
110.798767
 40
1.838249
 50
231.274048
 51
270.000000
  0
ARC
  8
0
 10
-78.072380
 20
124.373260
 40
0.732801
 50
343.076202
 51
196.923798
  0
CIRCLE
  8
0
 10
-78.072380
 20
130.039932
 40
0.732800
  0
CIRCLE
  8
0
 10
-78.072380
 20
127.206596
 40
0.732800
  0
ARC
  8
0
 10
-62.050438
 20
-143.287628
 40
1.838242
 50
269.999878
 51
308.726013
  0
ARC
  8
0
 10
-58.600456
 20
-138.379120
 40
6.746769
 50
250.067947
 51
289.931885
  0
ARC
  8
0
 10
-62.050468
 20
-143.764130
 40
1.838258
 50
51.274105
 51
89.999763
  0
ARC
  8
0
 10
-58.600471
 20
-148.672668
 40
6.746782
 50
70.068024
 51
109.931854
  0
ARC
  8
0
 10
-55.150459
 20
-143.764130
 40
1.838242
 50
89.999878
 51
128.725708
  0
ARC
  8
0
 10
-55.150459
 20
-143.287628
 40
1.838243
 50
231.273895
 51
270.000000
  0
ARC
  8
0
 10
-55.019691
 20
-123.998207
 40
1.838249
 50
89.999878
 51
128.725861
  0
ARC
  8
0
 10
-61.919701
 20
-123.998207
 40
1.838252
 50
51.273956
 51
89.999763
  0
ARC
  8
0
 10
-58.469704
 20
-128.906738
 40
6.746775
 50
70.068001
 51
109.931854
  0
ARC
  8
0
 10
-58.469688
 20
-115.413734
 40
6.746769
 50
250.067947
 51
289.931854
  0
ARC
  8
0
 10
-61.919670
 20
-120.322273
 40
1.838242
 50
269.999878
 51
308.725861
  0
ARC
  8
0
 10
-58.469704
 20
-125.707283
 40
6.746775
 50
70.068001
 51
109.931854
  0
ARC
  8
0
 10
-55.019676
 20
-120.322273
 40
1.838249
 50
231.274048
 51
270.000000
  0
ARC
  8
0
 10
-55.019676
 20
-120.798775
 40
1.838249
 50
89.999878
 51
128.725861
  0
ARC
  8
0
 10
-61.919685
 20
-120.798775
 40
1.838252
 50
51.273956
 51
89.999763
  0
ARC
  8
0
 10
-61.927589
 20
-134.373260
 40
0.732801
 50
163.076202
 51
16.923792
  0
CIRCLE
  8
0
 10
-61.927589
 20
-140.039917
 40
0.732800
  0
CIRCLE
  8
0
 10
-61.927589
 20
-137.206604
 40
0.732800
  0
CIRCLE
  8
0
 10
177.717041
 20
32.499996
 40
2.000000
  0
CIRCLE
  8
0
 10
177.717041
 20
24.999998
 40
2.000000
  0
CIRCLE
  8
0
 10
177.717056
 20
-25.000004
 40
2.000000
  0
CIRCLE
  8
0
 10
177.717056
 20
-32.500004
 40
2.000000
  0
CIRCLE
  8
0
 10
202.717041
 20
0.000001
 40
2.000000
  0
CIRCLE
  8
0
 10
210.217041
 20
32.500004
 40
2.250000
  0
CIRCLE
  8
0
 10
202.717041
 20
25.000002
 40
2.250000
  0
CIRCLE
  8
0
 10
202.717056
 20
-25.000000
 40
2.250000
  0
CIRCLE
  8
0
 10
210.217072
 20
-32.499996
 40
2.250000
  0
CIRCLE
  8
0
 10
152.717041
 20
-25.000010
 40
2.250000
  0
CIRCLE
  8
0
 10
145.217041
 20
-32.500011
 40
2.250000
  0
CIRCLE
  8
0
 10
152.717041
 20
24.999992
 40
2.250000
  0
CIRCLE
  8
0
 10
145.217041
 20
32.499989
 40
2.250000
  0
CIRCLE
  8
0
 10
152.717041
 20
-0.000009
 40
2.000000
  0
CIRCLE
  8
0
  6
DASHED
 62
     2
 10
210.217041
 20
32.500004
 40
4.000000
  0
CIRCLE
  8
0
  6
DASHED
 62
     2
 10
202.717041
 20
25.000002
 40
4.000000
  0
CIRCLE
  8
0
  6
DASHED
 62
     2
 10
152.717041
 20
24.999992
 40
4.000000
  0
CIRCLE
  8
0
  6
DASHED
 62
     2
 10
145.217041
 20
32.499989
 40
4.000000
  0
CIRCLE
  8
0
  6
DASHED
 62
     2
 10
152.717041
 20
-25.000010
 40
4.000000
  0
CIRCLE
  8
0
  6
DASHED
 62
     2
 10
145.217041
 20
-32.500011
 40
4.000000
  0
CIRCLE
  8
0
  6
DASHED
 62
     2
 10
202.717056
 20
-25.000000
 40
4.000000
  0
CIRCLE
  8
0
  6
DASHED
 62
     2
 10
210.217072
 20
-32.499996
 40
4.000000
  0
CIRCLE
  8
0
 10
210.217041
 20
0.000002
 40
2.000000
  0
CIRCLE
  8
0
 10
145.217041
 20
-0.000010
 40
2.000000
  0
TEXT
  8
0
 10
171.050247
 20
180.830002
 40
6.300000
  1
DATE : MAY ,1993
 50
0.000000
 41
1.052632
 51
0.000000
  7
STANDARD
  0
TEXT
  8
0
 10
167.564667
 20
-192.100006
 40
9.000000
  1
KOGANEI CORP.
 50
0.000000
 41
1.052632
 51
0.000000
  7
STANDARD
  0
TEXT
  8
0
 10
-269.149719
 20
180.830002
 40
6.300000
  1
HANDLING MODULE
 50
0.000000
 41
1.052632
 51
0.000000
  7
STANDARD
  0
TEXT
  8
0
 10
-270.049713
 20
155.830002
 40
6.300000
  1
MODEL:SHM51M-SS
 50
0.000000
 41
1.052632
 51
0.000000
  7
STANDARD
  0
ENDSEC
  0
EOF
