  0
SECTION
  2
HEADER
  0
ENDSEC
  0
SECTION
  2
TABLES
  0
TABLE
  2
LTYPE
 70
     4
  0
LTYPE
  2
CONTINUOUS
 70
    64
  3
Solid line
 72
    65
 73
     0
 40
0.000000
  0
LTYPE
  2
DASHED
 70
    64
  3
__ __ __ __ __ __ __ __ __ __ __ __ __ __ __
 72
    65
 73
     2
 40
3.500000
 49
2.000000
 49
-1.500000
  0
LTYPE
  2
CENTER
 70
    64
  3
____ _ ____ _ ____ _ ____ _ ____ _ ____ _ ____
 72
    65
 73
     4
 40
17.500000
 49
13.000000
 49
-1.500000
 49
1.500000
 49
-1.500000
  0
LTYPE
  2
PHANTOM
 70
    64
  3
_____ _ _ _____ _ _ _____ _ _ _____ _ _ ____  
 72
    65
 73
     6
 40
15.500000
 49
8.000000
 49
-1.500000
 49
1.500000
 49
-1.500000
 49
1.500000
 49
-1.500000
  0
LTYPE
  2
DASHED1
 70
    64
  3
__ __ __ __ __ __ __ __ __ __ __ __ __ __ __
 72
    65
 73
     2
 40
1.500000
 49
1.000000
 49
-0.500000
  0
LTYPE
  2
DASHED2
 70
    64
  3
__ __ __ __ __ __ __ __ __ __ __ __ __ __ __
 72
    65
 73
     2
 40
3.500000
 49
2.500000
 49
-1.000000
  0
LTYPE
  2
DASHED3
 70
    64
  3
__ __ __ __ __ __ __ __ __ __ __ __ __ __ __
 72
    65
 73
     2
 40
6.000000
 49
4.000000
 49
-2.000000
  0
LTYPE
  2
DASHED4
 70
    64
  3
__ __ __ __ __ __ __ __ __ __ __ __ __ __ __
 72
    65
 73
     2
 40
12.000000
 49
10.000000
 49
-2.000000
  0
LTYPE
  2
DASHED5
 70
    64
  3
__ __ __ __ __ __ __ __ __ __ __ __ __ __ __
 72
    65
 73
     2
 40
17.000000
 49
15.000000
 49
-2.000000
  0
LTYPE
  2
DASHED6
 70
    64
  3
__ __ __ __ __ __ __ __ __ __ __ __ __ __ __
 72
    65
 73
     2
 40
29.000000
 49
27.000000
 49
-2.000000
  0
LTYPE
  2
PHANTOM1
 70
    64
  3
_____ _ _ _____ _ _ _____ _ _ _____ _ _ ____  
 72
    65
 73
     6
 40
31.000000
 49
25.000000
 49
-1.500000
 49
1.000000
 49
-1.000000
 49
1.000000
 49
-1.500000
  0
LTYPE
  2
PHANTOM2
 70
    64
  3
_____ _ _ _____ _ _ _____ _ _ _____ _ _ ____  
 72
    65
 73
     6
 40
36.000000
 49
27.000000
 49
-1.500000
 49
2.500000
 49
-1.000000
 49
2.500000
 49
-1.500000
  0
LTYPE
  2
PHANTOM3
 70
    64
  3
_____ _ _ _____ _ _ _____ _ _ _____ _ _ ____  
 72
    65
 73
     6
 40
78.000000
 49
64.000000
 49
-2.000000
 49
4.000000
 49
-2.000000
 49
4.000000
 49
-2.000000
  0
LTYPE
  2
CENTER1
 70
    64
  3
____ _ ____ _ ____ _ ____ _ ____ _ ____ _ ____
 72
    65
 73
     4
 40
19.000000
 49
14.000000
 49
-1.000000
 49
3.000000
 49
-1.000000
  0
LTYPE
  2
CENTER2
 70
    64
  3
____ _ ____ _ ____ _ ____ _ ____ _ ____ _ ____
 72
    65
 73
     4
 40
28.500000
 49
25.000000
 49
-1.000000
 49
1.500000
 49
-1.000000
  0
LTYPE
  2
CENTER3
 70
    64
  3
____ _ ____ _ ____ _ ____ _ ____ _ ____ _ ____
 72
    65
 73
     4
 40
31.500000
 49
27.000000
 49
-1.000000
 49
2.500000
 49
-1.000000
  0
LTYPE
  2
CENTER4
 70
    64
  3
____ _ ____ _ ____ _ ____ _ ____ _ ____ _ ____
 72
    65
 73
     4
 40
50.000000
 49
45.000000
 49
-1.000000
 49
3.000000
 49
-1.000000
  0
LTYPE
  2
CENTER5
 70
    64
  3
____ _ ____ _ ____ _ ____ _ ____ _ ____ _ ____
 72
    65
 73
     4
 40
100.000000
 49
92.000000
 49
-2.000000
 49
4.000000
 49
-2.000000
  0
LTYPE
  2
SBK1
 70
    64
  3
______ _ _ _ ______ _ _ _ ______ _ _ _ _____  
 72
    65
 73
     8
 40
60.500000
 49
45.000000
 49
-2.000000
 49
2.500000
 49
-2.000000
 49
2.500000
 49
-2.000000
 49
2.500000
 49
-2.000000
  0
LTYPE
  2
SBK2
 70
    64
  3
______ _ _ _ ______ _ _ _ ______ _ _ _ _____  
 72
    65
 73
     8
 40
84.000000
 49
64.000000
 49
-2.000000
 49
4.000000
 49
-2.000000
 49
4.000000
 49
-2.000000
 49
4.000000
 49
-2.000000
  0
LTYPE
  2
STCH
 70
    64
  3
__ __ __ __ __ __ __ __ __ __ __ __ __ __ __
 72
    65
 73
     2
 40
3.000000
 49
1.000000
 49
-2.000000
  0
LTYPE
  2
MTCH
 70
    64
  3
_____ _ _ _____ _ _ _____ _ _ _____ _ _ ____  
 72
    65
 73
     6
 40
80.000000
 49
66.000000
 49
-2.000000
 49
4.000000
 49
-2.000000
 49
4.000000
 49
-2.000000
  0
ENDTAB
  0
TABLE
  2
LAYER
 70
     1
  0
LAYER
  2
0
 70
     0
 62
     7
  6
CONTINUOUS
  0
ENDTAB
  0
TABLE
  2
STYLE
 70
     1
  0
STYLE
  2
STANDARD
 70
     0
 40
0.000000
 41
1.000000
 50
0.000000
 71
     0
 42
0.200000
  3
txt
  4
BIGFONT
  0
ENDTAB
  0
TABLE
  2
VIEW
 70
     0
  0
ENDTAB
  0
ENDSEC
  0
SECTION
  2
BLOCKS
  0
ENDSEC
  0
SECTION
  2
ENTITIES
  0
LINE
  8
0
 10
-194.250000
 20
132.600006
 11
194.800003
 21
132.600006
  0
LINE
  8
0
 10
194.800003
 20
132.600006
 11
194.800003
 21
-133.500000
  0
LINE
  8
0
 10
-194.250000
 20
132.600006
 11
-194.250000
 21
-133.500000
  0
LINE
  8
0
 10
-194.250000
 20
-133.500000
 11
194.800003
 21
-133.500000
  0
LINE
  8
0
 10
109.800003
 20
-118.500000
 11
109.800003
 21
-133.500000
  0
LINE
  8
0
 10
109.800003
 20
-118.500000
 11
194.800003
 21
-118.500000
  0
LINE
  8
0
 10
109.800003
 20
132.600006
 11
109.800003
 21
117.600006
  0
LINE
  8
0
 10
109.800003
 20
117.600006
 11
194.800003
 21
117.600006
  0
LINE
  8
0
 10
-194.250000
 20
117.600006
 11
-109.250000
 21
117.600006
  0
LINE
  8
0
 10
-109.250000
 20
132.600006
 11
-109.250000
 21
117.600006
  0
LINE
  8
0
  6
CENTER
 62
     2
 10
-60.000000
 20
-35.971558
 11
-60.000000
 21
34.449966
  0
LINE
  8
0
 10
-30.000006
 20
30.000000
 11
-90.000008
 21
30.000000
  0
LINE
  8
0
 10
-29.999981
 20
-30.000000
 11
-89.999985
 21
-30.000000
  0
LINE
  8
0
 10
-30.000000
 20
-29.999998
 11
-30.000000
 21
-12.999990
  0
LINE
  8
0
 10
-90.000000
 20
-30.000002
 11
-90.000000
 21
-3.000025
  0
LINE
  8
0
 10
-63.000000
 20
24.000000
 11
-63.000000
 21
30.000000
  0
LINE
  8
0
 10
-57.000000
 20
24.000000
 11
-57.000000
 21
30.000000
  0
LINE
  8
0
 10
-90.000000
 20
12.999985
 11
-76.000000
 21
12.999985
  0
LINE
  8
0
 10
-90.000000
 20
-3.000015
 11
-76.000000
 21
-3.000015
  0
LINE
  8
0
 10
-76.000015
 20
12.999991
 11
-76.000015
 21
-3.000009
  0
LINE
  8
0
 10
-30.000000
 20
3.000010
 11
-30.000000
 21
30.000010
  0
LINE
  8
0
 10
-90.000000
 20
12.999975
 11
-90.000000
 21
29.999983
  0
LINE
  8
0
 10
-29.999987
 20
-13.000000
 11
-43.999985
 21
-13.000000
  0
LINE
  8
0
 10
-44.000000
 20
-12.999991
 11
-44.000000
 21
3.000009
  0
LINE
  8
0
 62
     4
 10
-87.000000
 20
4.999985
 11
-81.000015
 21
4.999985
  0
LINE
  8
0
 62
     4
 10
-87.000000
 20
-2.000015
 11
-76.000000
 21
-2.000015
  0
LINE
  8
0
 10
-81.000015
 20
12.999990
 11
-81.000015
 21
10.999975
  0
LINE
  8
0
 62
     4
 10
-87.000015
 20
4.999990
 11
-87.000015
 21
-2.000010
  0
LINE
  8
0
 62
     4
 10
-89.000000
 20
3.999985
 11
-87.000000
 21
3.999985
  0
LINE
  8
0
 62
     4
 10
-89.000000
 20
-1.000015
 11
-87.000000
 21
-1.000015
  0
LINE
  8
0
 62
     4
 10
-89.000015
 20
3.999975
 11
-89.000015
 21
-1.000010
  0
LINE
  8
0
 62
     4
 10
-98.888275
 20
-0.000015
 11
-89.000000
 21
-0.000015
  0
LINE
  8
0
 10
-77.100021
 20
11.899985
 11
-77.100021
 21
6.099982
  0
LINE
  8
0
 10
-79.899994
 20
11.899979
 11
-77.099991
 21
11.899979
  0
LINE
  8
0
 10
-79.899994
 20
6.099991
 11
-77.099991
 21
6.099991
  0
LINE
  8
0
 10
-79.900024
 20
11.899984
 11
-79.900024
 21
10.999975
  0
LINE
  8
0
 62
     4
 10
-77.800018
 20
11.799994
 11
-77.800018
 21
6.199988
  0
LINE
  8
0
 62
     4
 10
-89.700012
 20
11.799988
 11
-86.000000
 21
11.799988
  0
LINE
  8
0
 62
     4
 10
-86.700012
 20
11.799994
 11
-86.700012
 21
6.199987
  0
LINE
  8
0
 62
     4
 10
-89.700012
 20
6.199982
 11
-86.000000
 21
6.199982
  0
LINE
  8
0
 10
-81.000000
 20
6.999985
 11
-79.900009
 21
6.999985
  0
LINE
  8
0
 10
-81.000000
 20
10.999985
 11
-79.900009
 21
10.999985
  0
LINE
  8
0
 62
     4
 10
-86.000015
 20
12.999990
 11
-86.000015
 21
4.999990
  0
LINE
  8
0
 10
-29.999994
 20
3.000000
 11
-43.999996
 21
3.000000
  0
LINE
  8
0
 62
     4
 10
-32.999992
 20
2.000000
 11
-43.999996
 21
2.000000
  0
LINE
  8
0
 62
     4
 10
-32.999992
 20
-5.000000
 11
-39.000000
 21
-5.000000
  0
LINE
  8
0
 10
-39.000000
 20
-12.999990
 11
-39.000000
 21
-10.999990
  0
LINE
  8
0
 62
     4
 10
-33.000000
 20
-4.999990
 11
-33.000000
 21
2.000010
  0
LINE
  8
0
 62
     4
 10
-30.999992
 20
-4.000000
 11
-32.999992
 21
-4.000000
  0
LINE
  8
0
 62
     4
 10
-30.999992
 20
1.000000
 11
-32.999992
 21
1.000000
  0
LINE
  8
0
 62
     4
 10
-31.000000
 20
-3.999990
 11
-31.000000
 21
1.000010
  0
LINE
  8
0
 62
     4
 10
-21.916767
 20
0.000000
 11
-30.999992
 21
0.000000
  0
LINE
  8
0
 10
-42.900002
 20
-11.899985
 11
-42.900002
 21
-6.099997
  0
LINE
  8
0
 10
-40.099987
 20
-11.899994
 11
-42.899990
 21
-11.899994
  0
LINE
  8
0
 10
-40.099991
 20
-6.100006
 11
-42.899994
 21
-6.100006
  0
LINE
  8
0
 10
-40.099998
 20
-11.899984
 11
-40.099998
 21
-10.999990
  0
LINE
  8
0
 62
     4
 10
-42.200005
 20
-11.799994
 11
-42.200005
 21
-6.199988
  0
LINE
  8
0
 62
     4
 10
-30.299992
 20
-11.800003
 11
-33.999989
 21
-11.800003
  0
LINE
  8
0
 62
     4
 10
-33.300003
 20
-11.799994
 11
-33.300003
 21
-6.199987
  0
LINE
  8
0
 62
     4
 10
-30.299995
 20
-6.199997
 11
-33.999992
 21
-6.199997
  0
LINE
  8
0
 10
-38.999992
 20
-7.000000
 11
-40.099991
 21
-7.000000
  0
LINE
  8
0
 10
-38.999989
 20
-11.000000
 11
-40.099987
 21
-11.000000
  0
LINE
  8
0
 62
     4
 10
-34.000000
 20
-12.999990
 11
-34.000000
 21
-4.999990
  0
LINE
  8
0
 62
     4
 10
-89.700012
 20
11.799994
 11
-89.700012
 21
6.199987
  0
LINE
  8
0
 62
     4
 10
-30.300003
 20
-11.799994
 11
-30.300003
 21
-6.199987
  0
LINE
  8
0
  6
CENTER
 62
     2
 10
-18.702152
 20
0.000000
 11
-103.404297
 21
0.000000
  0
LINE
  8
0
 10
-39.000000
 20
-6.999991
 11
-39.000000
 21
-4.999991
  0
LINE
  8
0
 10
-81.000015
 20
6.999976
 11
-81.000015
 21
4.999991
  0
LINE
  8
0
 10
-40.099998
 20
-6.953635
 11
-40.099998
 21
-6.099997
  0
LINE
  8
0
 10
-79.900024
 20
6.999976
 11
-79.900024
 21
6.099982
  0
LINE
  8
0
  6
CENTER
 62
     2
 10
-85.000000
 20
28.499990
 11
-85.000000
 21
21.499990
  0
LINE
  8
0
  6
CENTER
 62
     2
 10
-85.000000
 20
-21.500010
 11
-85.000000
 21
-28.500002
  0
LINE
  8
0
  6
CENTER
 62
     2
 10
-34.999992
 20
-21.499990
 11
-34.999992
 21
-28.499998
  0
LINE
  8
0
  6
CENTER
 62
     2
 10
-34.999992
 20
28.500010
 11
-34.999992
 21
21.500010
  0
LINE
  8
0
  6
CENTER
 62
     2
 10
-81.500008
 20
25.000000
 11
-88.500008
 21
25.000000
  0
LINE
  8
0
  6
CENTER
 62
     2
 10
-81.499985
 20
-25.000000
 11
-88.499985
 21
-25.000000
  0
LINE
  8
0
  6
CENTER
 62
     2
 10
-55.499977
 20
-25.000000
 11
-64.499977
 21
-25.000000
  0
LINE
  8
0
  6
CENTER
 62
     2
 10
-31.499981
 20
-25.000000
 11
-38.499981
 21
-25.000000
  0
LINE
  8
0
  6
CENTER
 62
     2
 10
-31.500004
 20
25.000000
 11
-38.500004
 21
25.000000
  0
LINE
  8
0
 62
     1
 10
-23.504496
 20
2.750021
 11
-19.275221
 21
-4.575297
  0
LINE
  8
0
 62
     1
 10
-101.164680
 20
3.942801
 11
-98.126869
 21
-1.318843
  0
LINE
  8
0
 10
-39.000000
 20
-5.000000
 11
-43.999992
 21
-5.000000
  0
LINE
  8
0
 10
-81.000015
 20
4.999985
 11
-76.000000
 21
4.999985
  0
LINE
  8
0
 62
     4
 10
-20.184719
 20
-3.000000
 11
-30.999992
 21
-3.000000
  0
LINE
  8
0
 62
     4
 10
-100.620316
 20
2.999985
 11
-89.000000
 21
2.999985
  0
LINE
  8
0
 10
-142.925049
 20
30.199991
 11
-142.925049
 21
-29.800009
  0
LINE
  8
0
  6
CENTER
 62
     2
 10
-140.000000
 20
0.000008
 11
-185.383942
 21
0.000008
  0
LINE
  8
0
 10
-169.925049
 20
30.199951
 11
-169.925049
 21
-29.800056
  0
LINE
  8
0
 10
-176.925049
 20
30.199934
 11
-176.925049
 21
-29.800074
  0
LINE
  8
0
 10
-182.925064
 20
30.199926
 11
-182.925064
 21
-29.800074
  0
LINE
  8
0
 10
-142.925125
 20
30.200005
 11
-169.925125
 21
30.200005
  0
LINE
  8
0
 10
-142.925018
 20
-29.799988
 11
-169.925018
 21
-29.799988
  0
LINE
  8
0
 10
-176.925125
 20
30.200005
 11
-182.925125
 21
30.200005
  0
LINE
  8
0
 10
-163.925049
 20
30.199959
 11
-163.925049
 21
12.999962
  0
LINE
  8
0
 10
-142.925079
 20
-2.999992
 11
-169.925079
 21
-2.999992
  0
LINE
  8
0
 10
-148.925049
 20
30.199982
 11
-148.925049
 21
12.999986
  0
LINE
  8
0
 10
-148.925049
 20
-3.000007
 11
-148.925049
 21
-30.000023
  0
LINE
  8
0
 10
-176.925034
 20
-29.799988
 11
-182.925034
 21
-29.799988
  0
LINE
  8
0
 10
-174.425049
 20
28.199942
 11
-174.425049
 21
25.199942
  0
LINE
  8
0
 10
-169.925049
 20
-12.799995
 11
-174.425049
 21
-12.799995
  0
LINE
  8
0
 10
-169.925049
 20
-20.799995
 11
-174.425049
 21
-20.799995
  0
LINE
  8
0
 10
-174.514877
 20
26.740065
 11
-174.803543
 21
27.240047
  0
LINE
  8
0
 10
-174.514893
 20
19.639990
 11
-174.514893
 21
26.739996
  0
LINE
  8
0
 10
-174.803619
 20
25.240059
 11
-176.626282
 21
25.240059
  0
LINE
  8
0
 10
-174.803619
 20
21.140053
 11
-176.626266
 21
21.140053
  0
LINE
  8
0
 10
-174.803757
 20
19.140078
 11
-174.515091
 21
19.640062
  0
LINE
  8
0
 10
-174.803619
 20
19.140053
 11
-176.626251
 21
19.140053
  0
LINE
  8
0
 10
-176.626175
 20
19.140038
 11
-176.914841
 21
19.640020
  0
LINE
  8
0
 10
-176.915146
 20
26.740084
 11
-176.626465
 21
27.240093
  0
LINE
  8
0
 10
-174.803619
 20
27.240059
 11
-176.626282
 21
27.240059
  0
LINE
  8
0
 10
-169.925110
 20
25.200005
 11
-174.514954
 21
25.200005
  0
LINE
  8
0
 62
     2
 10
-169.925110
 20
24.700005
 11
-174.514954
 21
24.700005
  0
LINE
  8
0
 62
     2
 10
-169.925110
 20
21.700005
 11
-174.514938
 21
21.700005
  0
LINE
  8
0
 10
-169.925110
 20
21.200005
 11
-174.514938
 21
21.200005
  0
LINE
  8
0
 10
-169.925095
 20
14.200005
 11
-174.425095
 21
14.200005
  0
LINE
  8
0
 10
-174.425049
 20
21.199942
 11
-174.425049
 21
8.199943
  0
LINE
  8
0
 10
-174.425034
 20
-26.799988
 11
-176.925034
 21
-26.799988
  0
LINE
  8
0
 10
-174.425064
 20
-6.799995
 11
-176.925064
 21
-6.799995
  0
LINE
  8
0
 10
-174.425049
 20
-6.800057
 11
-174.425049
 21
-26.800058
  0
LINE
  8
0
 10
-174.425079
 20
8.200005
 11
-176.925079
 21
8.200005
  0
LINE
  8
0
 10
-174.425125
 20
28.200005
 11
-176.925125
 21
28.200005
  0
LINE
  8
0
 10
-161.925110
 20
19.200005
 11
-163.925110
 21
19.200005
  0
LINE
  8
0
 10
-161.925125
 20
27.200005
 11
-163.925110
 21
27.200005
  0
LINE
  8
0
 10
-158.724304
 20
26.708576
 11
-159.012970
 21
27.208561
  0
LINE
  8
0
 10
-158.724380
 20
19.608521
 11
-158.724380
 21
26.708527
  0
LINE
  8
0
 10
-159.013123
 20
25.208565
 11
-161.925110
 21
25.208565
  0
LINE
  8
0
 10
-159.013107
 20
21.108559
 11
-161.925110
 21
21.108559
  0
LINE
  8
0
 10
-159.013260
 20
19.108612
 11
-158.724579
 21
19.608622
  0
LINE
  8
0
 10
-159.013123
 20
19.108559
 11
-161.925110
 21
19.108559
  0
LINE
  8
0
 10
-159.013123
 20
27.208565
 11
-161.925125
 21
27.208565
  0
LINE
  8
0
 10
-152.925049
 20
21.199974
 11
-152.925049
 21
25.199974
  0
LINE
  8
0
 62
     2
 10
-152.925110
 20
21.700005
 11
-156.324432
 21
21.700005
  0
LINE
  8
0
 62
     2
 10
-152.925110
 20
24.700005
 11
-156.324432
 21
24.700005
  0
LINE
  8
0
 10
-152.925110
 20
21.200005
 11
-156.324432
 21
21.200005
  0
LINE
  8
0
 10
-152.925110
 20
25.200005
 11
-156.324432
 21
25.200005
  0
LINE
  8
0
 10
-156.324310
 20
26.708559
 11
-156.612976
 21
27.208542
  0
LINE
  8
0
 10
-156.324387
 20
19.608521
 11
-156.324387
 21
26.708527
  0
LINE
  8
0
 10
-156.613113
 20
25.208565
 11
-158.435760
 21
25.208565
  0
LINE
  8
0
 10
-156.613113
 20
21.108559
 11
-158.435760
 21
21.108559
  0
LINE
  8
0
 10
-156.613220
 20
19.108601
 11
-156.324539
 21
19.608612
  0
LINE
  8
0
 10
-156.613113
 20
19.108559
 11
-158.435760
 21
19.108559
  0
LINE
  8
0
 10
-158.435623
 20
19.108503
 11
-158.724304
 21
19.608513
  0
LINE
  8
0
 10
-158.724609
 20
26.708647
 11
-158.435928
 21
27.208658
  0
LINE
  8
0
 10
-156.613129
 20
27.208565
 11
-158.435776
 21
27.208565
  0
LINE
  8
0
 10
-161.925049
 20
27.208519
 11
-161.925049
 21
19.108513
  0
LINE
  8
0
 62
     4
 10
-155.153488
 20
10.250011
 11
-155.875168
 21
9.000011
  0
LINE
  8
0
 62
     4
 10
-143.425049
 20
-1.999992
 11
-165.425049
 21
-1.999992
  0
LINE
  8
0
 62
     4
 10
-143.425034
 20
4.999986
 11
-143.425034
 21
-2.000014
  0
LINE
  8
0
 62
     4
 10
-149.925034
 20
13.499978
 11
-149.925034
 21
4.999978
  0
LINE
  8
0
 62
     4
 10
-158.925034
 20
13.499962
 11
-158.925034
 21
4.999962
  0
LINE
  8
0
 62
     4
 10
-149.925079
 20
13.500008
 11
-158.925079
 21
13.500008
  0
LINE
  8
0
 10
-142.925079
 20
7.300011
 11
-144.000229
 21
7.300011
  0
LINE
  8
0
 10
-142.925095
 20
10.700005
 11
-144.000229
 21
10.700005
  0
LINE
  8
0
 10
-158.925049
 20
10.700005
 11
-164.400238
 21
10.700005
  0
LINE
  8
0
 10
-158.925049
 20
7.300011
 11
-164.400223
 21
7.300011
  0
LINE
  8
0
 10
-168.849960
 20
10.700005
 11
-169.925095
 21
10.700005
  0
LINE
  8
0
 10
-168.849945
 20
7.300011
 11
-169.925079
 21
7.300011
  0
LINE
  8
0
 10
-148.487289
 20
10.650002
 11
-149.925049
 21
10.650002
  0
LINE
  8
0
 10
-148.487274
 20
7.350014
 11
-149.925049
 21
7.350014
  0
LINE
  8
0
 10
-142.925064
 20
5.000008
 11
-143.425049
 21
5.000008
  0
LINE
  8
0
 62
     4
 10
-152.975113
 20
8.999985
 11
-153.696808
 21
7.749973
  0
LINE
  8
0
 62
     4
 10
-155.875076
 20
8.999963
 11
-155.153397
 21
7.749964
  0
LINE
  8
0
 10
-142.925095
 20
13.000008
 11
-149.925049
 21
13.000008
  0
LINE
  8
0
 10
-158.925049
 20
13.000008
 11
-169.925095
 21
13.000008
  0
LINE
  8
0
 62
     4
 10
-153.696747
 20
10.250008
 11
-155.153381
 21
10.250008
  0
LINE
  8
0
 62
     4
 10
-153.696762
 20
7.750008
 11
-155.153381
 21
7.750008
  0
LINE
  8
0
 62
     4
 10
-153.696732
 20
10.249961
 11
-152.975037
 21
8.999962
  0
LINE
  8
0
 10
-148.925034
 20
-25.799988
 11
-169.925034
 21
-25.799988
  0
LINE
  8
0
 62
     4
 10
-143.425064
 20
5.000008
 11
-165.425064
 21
5.000008
  0
LINE
  8
0
 10
-147.497864
 20
10.272777
 11
-144.952286
 21
7.727199
  0
LINE
  8
0
 10
-144.952332
 20
10.272748
 11
-147.497910
 21
7.727170
  0
LINE
  8
0
 10
-167.897858
 20
10.272727
 11
-165.352280
 21
7.727149
  0
LINE
  8
0
 10
-165.352325
 20
10.272810
 11
-167.897919
 21
7.727221
  0
LINE
  8
0
  6
CENTER
 62
     2
 10
-140.000031
 20
25.000008
 11
-150.875366
 21
25.000008
  0
LINE
  8
0
  6
CENTER
 62
     2
 10
-139.999954
 20
-25.000000
 11
-151.979980
 21
-25.000000
  0
LINE
  8
0
  6
CENTER
 62
     2
 10
-175.301270
 20
25.000008
 11
-185.383987
 21
25.000008
  0
LINE
  8
0
  6
CENTER
 62
     2
 10
-175.178452
 20
-25.000000
 11
-185.383911
 21
-25.000000
  0
LINE
  8
0
 10
-169.925064
 20
-2.499992
 11
-176.925064
 21
-2.499992
  0
LINE
  8
0
 10
-169.925064
 20
2.500008
 11
-176.925064
 21
2.500008
  0
LINE
  8
0
 10
-175.928818
 20
-6.039056
 11
-176.363953
 21
-2.500017
  0
LINE
  8
0
 10
-176.921356
 20
-6.161107
 11
-176.925095
 21
-6.130696
  0
LINE
  8
0
 10
-175.221878
 20
-2.500009
 11
-174.923447
 21
-6.140905
  0
LINE
  8
0
 10
-174.218521
 20
-2.500026
 11
-173.926773
 21
-6.059226
  0
LINE
  8
0
 10
-173.221893
 20
-2.500014
 11
-172.923462
 21
-6.140926
  0
LINE
  8
0
 10
-172.218536
 20
-2.500015
 11
-171.926788
 21
-6.059246
  0
LINE
  8
0
 10
-171.221909
 20
-2.500012
 11
-170.923477
 21
-6.140939
  0
LINE
  8
0
 10
-170.218521
 20
-2.500013
 11
-169.926788
 21
-6.059243
  0
LINE
  8
0
  6
CENTER
 62
     2
 10
-177.932022
 20
6.099968
 11
-169.204803
 21
6.099968
  0
LINE
  8
0
 10
-172.926788
 20
6.140791
 11
-172.628357
 21
2.499971
  0
LINE
  8
0
 10
-173.923462
 20
6.059110
 11
-173.631729
 21
2.499986
  0
LINE
  8
0
 10
-174.926773
 20
6.140795
 11
-174.628357
 21
2.499977
  0
LINE
  8
0
 10
-175.923447
 20
6.059116
 11
-175.631729
 21
2.499994
  0
LINE
  8
0
 10
-170.926788
 20
6.140785
 11
-170.628357
 21
2.499987
  0
LINE
  8
0
 10
-171.923477
 20
6.059097
 11
-171.631744
 21
2.499988
  0
LINE
  8
0
  6
CENTER
 62
     2
 10
-177.932022
 20
-6.100044
 11
-169.204803
 21
-6.100044
  0
LINE
  8
0
 62
     4
 10
-165.425049
 20
4.999992
 11
-165.425049
 21
-2.000008
  0
LINE
  8
0
 10
-165.425064
 20
5.000008
 11
-169.925064
 21
5.000008
  0
LINE
  8
0
 10
8.667725
 20
-30.199991
 11
8.667725
 21
29.800009
  0
LINE
  8
0
  6
CENTER
 62
     2
 10
5.742661
 20
0.000008
 11
51.126602
 21
0.000008
  0
LINE
  8
0
 10
35.667725
 20
-30.199944
 11
35.667725
 21
29.800056
  0
LINE
  8
0
 10
42.667725
 20
-30.199928
 11
42.667725
 21
29.800072
  0
LINE
  8
0
 10
48.667725
 20
-30.199928
 11
48.667725
 21
29.800072
  0
LINE
  8
0
 10
8.667786
 20
-30.199982
 11
35.667786
 21
-30.199982
  0
LINE
  8
0
 10
8.667694
 20
29.800011
 11
35.667694
 21
29.800011
  0
LINE
  8
0
 10
42.667786
 20
-30.199982
 11
48.667786
 21
-30.199982
  0
LINE
  8
0
 10
29.667725
 20
-30.199959
 11
29.667725
 21
-12.999963
  0
LINE
  8
0
 10
8.667740
 20
3.000008
 11
35.667740
 21
3.000008
  0
LINE
  8
0
 10
14.667725
 20
-30.199976
 11
14.667725
 21
-12.999979
  0
LINE
  8
0
 10
14.667725
 20
3.000006
 11
14.667725
 21
30.000021
  0
LINE
  8
0
 10
42.667694
 20
29.800011
 11
48.667694
 21
29.800011
  0
LINE
  8
0
 10
40.167725
 20
-28.199944
 11
40.167725
 21
-25.199944
  0
LINE
  8
0
 10
35.667725
 20
12.800011
 11
40.167725
 21
12.800011
  0
LINE
  8
0
 10
35.667709
 20
20.800011
 11
40.167709
 21
20.800011
  0
LINE
  8
0
 10
40.257484
 20
-26.740091
 11
40.546150
 21
-27.240074
  0
LINE
  8
0
 10
40.257561
 20
-19.639992
 11
40.257561
 21
-26.739998
  0
LINE
  8
0
 10
40.546280
 20
-25.240051
 11
42.368942
 21
-25.240051
  0
LINE
  8
0
 10
40.546280
 20
-21.140038
 11
42.368927
 21
-21.140038
  0
LINE
  8
0
 10
40.546471
 20
-19.140102
 11
40.257805
 21
-19.640087
  0
LINE
  8
0
 10
40.546280
 20
-19.140038
 11
42.368927
 21
-19.140038
  0
LINE
  8
0
 10
42.368793
 20
-19.140038
 11
42.657459
 21
-19.640022
  0
LINE
  8
0
 10
42.657845
 20
-26.740108
 11
42.369164
 21
-27.240118
  0
LINE
  8
0
 10
40.546295
 20
-27.240051
 11
42.368942
 21
-27.240051
  0
LINE
  8
0
 10
35.667770
 20
-25.199982
 11
40.257614
 21
-25.199982
  0
LINE
  8
0
 62
     2
 10
35.667770
 20
-24.699982
 11
40.257614
 21
-24.699982
  0
LINE
  8
0
 62
     2
 10
35.667770
 20
-21.699989
 11
40.257599
 21
-21.699989
  0
LINE
  8
0
 10
35.667770
 20
-21.199989
 11
40.257599
 21
-21.199989
  0
LINE
  8
0
 10
35.667755
 20
-14.199989
 11
40.167755
 21
-14.199989
  0
LINE
  8
0
 10
40.167725
 20
-21.199944
 11
40.167725
 21
-8.199944
  0
LINE
  8
0
 10
40.167694
 20
26.800011
 11
42.667694
 21
26.800011
  0
LINE
  8
0
 10
40.167725
 20
6.800011
 11
42.667725
 21
6.800011
  0
LINE
  8
0
 10
40.167725
 20
6.800056
 11
40.167725
 21
26.800056
  0
LINE
  8
0
 10
40.167755
 20
-8.199989
 11
42.667755
 21
-8.199989
  0
LINE
  8
0
 10
40.167786
 20
-28.199982
 11
42.667786
 21
-28.199982
  0
LINE
  8
0
 10
27.667770
 20
-19.199989
 11
29.667770
 21
-19.199989
  0
LINE
  8
0
 10
27.667786
 20
-27.199982
 11
29.667786
 21
-27.199982
  0
LINE
  8
0
 10
24.466963
 20
-26.708607
 11
24.755629
 21
-27.208590
  0
LINE
  8
0
 10
24.467056
 20
-19.608515
 11
24.467056
 21
-26.708521
  0
LINE
  8
0
 10
24.755783
 20
-25.208557
 11
27.667786
 21
-25.208557
  0
LINE
  8
0
 10
24.755768
 20
-21.108543
 11
27.667770
 21
-21.108543
  0
LINE
  8
0
 10
24.755951
 20
-19.108618
 11
24.467270
 21
-19.608627
  0
LINE
  8
0
 10
24.755783
 20
-19.108543
 11
27.667770
 21
-19.108543
  0
LINE
  8
0
 10
24.755783
 20
-27.208557
 11
27.667786
 21
-27.208557
  0
LINE
  8
0
 10
18.667725
 20
-21.199976
 11
18.667725
 21
-25.199976
  0
LINE
  8
0
 62
     2
 10
18.667770
 20
-21.699989
 11
22.067093
 21
-21.699989
  0
LINE
  8
0
 62
     2
 10
18.667786
 20
-24.699982
 11
22.067108
 21
-24.699982
  0
LINE
  8
0
 10
18.667770
 20
-21.199989
 11
22.067093
 21
-21.199989
  0
LINE
  8
0
 10
18.667786
 20
-25.199982
 11
22.067108
 21
-25.199982
  0
LINE
  8
0
 10
22.066935
 20
-26.708574
 11
22.355600
 21
-27.208557
  0
LINE
  8
0
 10
22.067047
 20
-19.608515
 11
22.067047
 21
-26.708521
  0
LINE
  8
0
 10
22.355774
 20
-25.208557
 11
24.178436
 21
-25.208557
  0
LINE
  8
0
 10
22.355774
 20
-21.108543
 11
24.178421
 21
-21.108543
  0
LINE
  8
0
 10
22.355942
 20
-19.108643
 11
22.067261
 21
-19.608654
  0
LINE
  8
0
 10
22.355774
 20
-19.108543
 11
24.178421
 21
-19.108543
  0
LINE
  8
0
 10
24.178234
 20
-19.108534
 11
24.466908
 21
-19.608530
  0
LINE
  8
0
 10
24.467319
 20
-26.708651
 11
24.178640
 21
-27.208662
  0
LINE
  8
0
 10
22.355789
 20
-27.208557
 11
24.178436
 21
-27.208557
  0
LINE
  8
0
 10
27.667725
 20
-27.208521
 11
27.667725
 21
-19.108515
  0
LINE
  8
0
 62
     4
 10
24.896189
 20
-10.250046
 11
25.617876
 21
-9.000046
  0
LINE
  8
0
 62
     4
 10
13.167740
 20
2.000008
 11
35.167740
 21
2.000008
  0
LINE
  8
0
 62
     4
 10
13.167725
 20
-4.999979
 11
13.167725
 21
2.000021
  0
LINE
  8
0
 62
     4
 10
19.667725
 20
-13.499979
 11
19.667725
 21
-4.999979
  0
LINE
  8
0
 62
     4
 10
28.667725
 20
-13.499963
 11
28.667725
 21
-4.999963
  0
LINE
  8
0
 62
     4
 10
19.667755
 20
-13.499992
 11
28.667755
 21
-13.499992
  0
LINE
  8
0
 10
8.667755
 20
-7.299995
 11
9.742889
 21
-7.299995
  0
LINE
  8
0
 10
8.667755
 20
-10.699989
 11
9.742889
 21
-10.699989
  0
LINE
  8
0
 10
28.667725
 20
-10.699989
 11
30.142899
 21
-10.699989
  0
LINE
  8
0
 10
28.667725
 20
-7.299995
 11
30.142883
 21
-7.299995
  0
LINE
  8
0
 10
34.592621
 20
-10.699989
 11
35.667755
 21
-10.699989
  0
LINE
  8
0
 10
34.592621
 20
-7.299995
 11
35.667755
 21
-7.299995
  0
LINE
  8
0
 10
14.229950
 20
-10.649986
 11
19.667725
 21
-10.649986
  0
LINE
  8
0
 10
14.229950
 20
-7.349998
 11
19.667725
 21
-7.349998
  0
LINE
  8
0
 10
8.667755
 20
-4.999992
 11
13.167725
 21
-4.999992
  0
LINE
  8
0
 62
     4
 10
22.717836
 20
-9.000008
 11
23.439524
 21
-7.750008
  0
LINE
  8
0
 62
     4
 10
25.617683
 20
-8.999987
 11
24.895996
 21
-7.749986
  0
LINE
  8
0
 10
8.667755
 20
-12.999992
 11
19.667725
 21
-12.999992
  0
LINE
  8
0
 10
28.667725
 20
-12.999992
 11
35.667755
 21
-12.999992
  0
LINE
  8
0
 62
     4
 10
23.439438
 20
-10.249992
 11
24.896072
 21
-10.249992
  0
LINE
  8
0
 62
     4
 10
23.439438
 20
-7.749992
 11
24.896057
 21
-7.749992
  0
LINE
  8
0
 62
     4
 10
23.439402
 20
-10.249991
 11
22.717714
 21
-8.999991
  0
LINE
  8
0
 10
14.667694
 20
25.800011
 11
35.667694
 21
25.800011
  0
LINE
  8
0
 62
     4
 10
13.167740
 20
-4.999992
 11
35.167740
 21
-4.999992
  0
LINE
  8
0
 10
13.240510
 20
-10.272811
 11
10.694931
 21
-7.727233
  0
LINE
  8
0
 10
10.694967
 20
-10.272768
 11
13.240544
 21
-7.727189
  0
LINE
  8
0
 10
33.640503
 20
-10.272743
 11
31.094919
 21
-7.727160
  0
LINE
  8
0
 10
31.095018
 20
-10.272814
 11
33.640606
 21
-7.727224
  0
LINE
  8
0
  6
CENTER
 62
     2
 10
5.742706
 20
-25.000000
 11
16.618027
 21
-25.000000
  0
LINE
  8
0
  6
CENTER
 62
     2
 10
5.742630
 20
25.000008
 11
17.722641
 21
25.000008
  0
LINE
  8
0
  6
CENTER
 62
     2
 10
41.043930
 20
-25.000000
 11
51.126648
 21
-25.000000
  0
LINE
  8
0
  6
CENTER
 62
     2
 10
40.921112
 20
25.000008
 11
51.126572
 21
25.000008
  0
LINE
  8
0
 10
35.667725
 20
2.500008
 11
42.667725
 21
2.500008
  0
LINE
  8
0
 10
35.667725
 20
-2.499992
 11
42.667725
 21
-2.499992
  0
LINE
  8
0
 10
42.664024
 20
6.161094
 11
42.667763
 21
6.130683
  0
LINE
  8
0
 10
40.964558
 20
2.500014
 11
40.666122
 21
6.140911
  0
LINE
  8
0
 10
39.961182
 20
2.500031
 11
39.669441
 21
6.059231
  0
LINE
  8
0
 10
38.964561
 20
2.500020
 11
38.666126
 21
6.140932
  0
LINE
  8
0
 10
37.961170
 20
2.500035
 11
37.669430
 21
6.059250
  0
LINE
  8
0
 10
36.964554
 20
2.500024
 11
36.666119
 21
6.140951
  0
LINE
  8
0
 10
35.961170
 20
2.500025
 11
35.669430
 21
6.059247
  0
LINE
  8
0
  6
CENTER
 62
     2
 10
43.674683
 20
-6.099953
 11
34.947464
 21
-6.099953
  0
LINE
  8
0
 10
38.669437
 20
-6.140786
 11
38.371006
 21
-2.499966
  0
LINE
  8
0
 10
39.666130
 20
-6.059105
 11
39.374397
 21
-2.499980
  0
LINE
  8
0
 10
40.669445
 20
-6.140790
 11
40.371017
 21
-2.499971
  0
LINE
  8
0
 10
41.666126
 20
-6.059112
 11
41.374397
 21
-2.499987
  0
LINE
  8
0
 10
36.669434
 20
-6.140782
 11
36.371006
 21
-2.499977
  0
LINE
  8
0
 10
37.666122
 20
-6.059086
 11
37.374390
 21
-2.499977
  0
LINE
  8
0
  6
CENTER
 62
     2
 10
43.674683
 20
6.100060
 11
34.947464
 21
6.100060
  0
LINE
  8
0
 62
     4
 10
35.167740
 20
-4.999992
 11
35.167740
 21
2.000008
  0
LINE
  8
0
 10
35.167740
 20
-4.999992
 11
35.667725
 21
-4.999992
  0
LINE
  8
0
 10
41.961140
 20
2.500008
 11
41.656052
 21
6.222052
  0
LINE
  8
0
 10
42.667728
 20
-6.120397
 11
42.370975
 21
-2.499992
  0
LINE
  8
0
 10
-30.000004
 20
73.000000
 11
-90.000000
 21
73.000000
  0
LINE
  8
0
  6
CENTER
 62
     2
 10
-60.000000
 20
68.991486
 11
-60.000000
 21
115.890274
  0
LINE
  8
0
 62
     4
 10
-32.999989
 20
100.000000
 11
-39.999989
 21
100.000000
  0
LINE
  8
0
 10
-30.000000
 20
72.999977
 11
-30.000000
 21
78.999977
  0
LINE
  8
0
 10
-90.000000
 20
73.000015
 11
-90.000000
 21
79.000015
  0
LINE
  8
0
 10
-63.500000
 20
79.000000
 11
-63.500000
 21
94.000000
  0
LINE
  8
0
 10
-63.500004
 20
79.000000
 11
-90.000000
 21
79.000000
  0
LINE
  8
0
 10
-40.000000
 20
78.999985
 11
-40.000000
 21
99.999985
  0
LINE
  8
0
 10
-63.499992
 20
94.000000
 11
-79.999985
 21
94.000000
  0
LINE
  8
0
 10
-80.000000
 20
79.000008
 11
-80.000000
 21
100.000008
  0
LINE
  8
0
 10
-75.000000
 20
79.000008
 11
-75.000000
 21
94.000008
  0
LINE
  8
0
 10
-56.500000
 20
99.999992
 11
-56.500000
 21
104.499992
  0
LINE
  8
0
 10
-48.500000
 20
99.999985
 11
-48.500000
 21
104.499985
  0
LINE
  8
0
 10
-67.500000
 20
100.000000
 11
-67.500000
 21
104.599503
  0
LINE
  8
0
 62
     2
 10
-68.000000
 20
100.000000
 11
-68.000000
 21
104.599503
  0
LINE
  8
0
 62
     2
 10
-71.000000
 20
100.000000
 11
-71.000000
 21
104.599510
  0
LINE
  8
0
 10
-71.500000
 20
100.000008
 11
-71.500000
 21
104.599510
  0
LINE
  8
0
 10
-65.920128
 20
104.599510
 11
-65.420143
 21
104.888176
  0
LINE
  8
0
 10
-73.020157
 20
104.599503
 11
-65.920143
 21
104.599503
  0
LINE
  8
0
 10
-67.420158
 20
104.888184
 11
-67.420158
 21
106.710831
  0
LINE
  8
0
 10
-71.520172
 20
104.888184
 11
-71.520172
 21
106.710838
  0
LINE
  8
0
 10
-73.520149
 20
104.888222
 11
-73.020157
 21
104.599548
  0
LINE
  8
0
 10
-73.520172
 20
104.888191
 11
-73.520172
 21
106.710838
  0
LINE
  8
0
 10
-73.520142
 20
106.710846
 11
-73.020149
 21
106.999519
  0
LINE
  8
0
 10
-65.920135
 20
106.999596
 11
-65.420120
 21
106.710915
  0
LINE
  8
0
 10
-65.420158
 20
104.888176
 11
-65.420158
 21
106.710831
  0
LINE
  8
0
 62
     4
 10
-33.000000
 20
78.999977
 11
-33.000000
 21
99.999977
  0
LINE
  8
0
 62
     4
 10
-30.999992
 20
92.500000
 11
-32.999992
 21
92.500000
  0
LINE
  8
0
 62
     4
 10
-20.184715
 20
93.500000
 11
-31.000008
 21
93.500000
  0
LINE
  8
0
 62
     4
 10
-31.000000
 20
92.499977
 11
-31.000000
 21
97.499977
  0
LINE
  8
0
 62
     4
 10
-21.916763
 20
96.500000
 11
-30.999989
 21
96.500000
  0
LINE
  8
0
 62
     4
 10
-30.999989
 20
97.500000
 11
-32.999989
 21
97.500000
  0
LINE
  8
0
 10
-73.500000
 20
92.000008
 11
-73.500000
 21
94.000000
  0
LINE
  8
0
 10
-65.499992
 20
92.000000
 11
-65.499992
 21
94.000000
  0
LINE
  8
0
 10
-65.991402
 20
88.799240
 11
-65.491417
 21
89.087906
  0
LINE
  8
0
 10
-73.091438
 20
88.799324
 11
-65.991425
 21
88.799324
  0
LINE
  8
0
 10
-67.491432
 20
89.088005
 11
-67.491432
 21
92.000000
  0
LINE
  8
0
 10
-71.591446
 20
89.088005
 11
-71.591446
 21
92.000008
  0
LINE
  8
0
 10
-73.591415
 20
89.088074
 11
-73.091400
 21
88.799393
  0
LINE
  8
0
 10
-73.591446
 20
89.088013
 11
-73.591446
 21
92.000008
  0
LINE
  8
0
 10
-65.491432
 20
89.087997
 11
-65.491432
 21
92.000000
  0
LINE
  8
0
 10
-71.499992
 20
83.000000
 11
-67.499992
 21
83.000000
  0
LINE
  8
0
 62
     2
 10
-71.000000
 20
83.000000
 11
-71.000000
 21
86.399330
  0
LINE
  8
0
 62
     2
 10
-67.999992
 20
83.000000
 11
-67.999992
 21
86.399330
  0
LINE
  8
0
 10
-71.500000
 20
83.000008
 11
-71.500000
 21
86.399330
  0
LINE
  8
0
 10
-67.499992
 20
83.000000
 11
-67.499992
 21
86.399330
  0
LINE
  8
0
 10
-65.991394
 20
86.399246
 11
-65.491409
 21
86.687912
  0
LINE
  8
0
 10
-73.091438
 20
86.399323
 11
-65.991425
 21
86.399323
  0
LINE
  8
0
 10
-67.491432
 20
86.688004
 11
-67.491432
 21
88.510658
  0
LINE
  8
0
 10
-71.591446
 20
86.688004
 11
-71.591446
 21
88.510658
  0
LINE
  8
0
 10
-73.591408
 20
86.688072
 11
-73.091400
 21
86.399391
  0
LINE
  8
0
 10
-73.591446
 20
86.688011
 11
-73.591446
 21
88.510658
  0
LINE
  8
0
 10
-73.591454
 20
88.510521
 11
-73.091461
 21
88.799194
  0
LINE
  8
0
 10
-65.991379
 20
88.799423
 11
-65.491371
 21
88.510742
  0
LINE
  8
0
 10
-65.491432
 20
86.688004
 11
-65.491432
 21
88.510651
  0
LINE
  8
0
 10
-65.491425
 20
92.000000
 11
-73.591431
 21
92.000000
  0
LINE
  8
0
 10
-42.500000
 20
104.499985
 11
-42.500000
 21
107.499985
  0
LINE
  8
0
 10
-62.500000
 20
104.500000
 11
-62.500000
 21
107.500000
  0
LINE
  8
0
 10
-44.000000
 20
78.999985
 11
-44.000000
 21
99.999985
  0
LINE
  8
0
 10
-29.999981
 20
113.000000
 11
-89.999977
 21
113.000000
  0
LINE
  8
0
 10
-30.000000
 20
106.999969
 11
-30.000000
 21
112.999969
  0
LINE
  8
0
 10
-90.000000
 20
107.000015
 11
-90.000000
 21
113.000015
  0
LINE
  8
0
 10
-29.999985
 20
107.000000
 11
-42.499985
 21
107.000000
  0
LINE
  8
0
 10
-42.499985
 20
104.500000
 11
-62.499985
 21
104.500000
  0
LINE
  8
0
 10
-41.500000
 20
106.999985
 11
-41.500000
 21
107.499985
  0
LINE
  8
0
 10
-63.500000
 20
107.000000
 11
-63.500000
 21
107.500000
  0
LINE
  8
0
 10
-41.499985
 20
107.500000
 11
-63.499981
 21
107.500000
  0
LINE
  8
0
 10
-62.499981
 20
107.000000
 11
-89.999977
 21
107.000000
  0
LINE
  8
0
 10
-63.000000
 20
73.000000
 11
-63.000000
 21
77.000000
  0
LINE
  8
0
 10
-57.000000
 20
72.999992
 11
-57.000000
 21
76.999992
  0
LINE
  8
0
 10
-57.000000
 20
77.000000
 11
-63.000004
 21
77.000000
  0
LINE
  8
0
 10
-39.999989
 20
100.000000
 11
-79.999985
 21
100.000000
  0
LINE
  8
0
 62
     1
 10
-22.669228
 20
97.803299
 11
-19.553440
 21
92.406593
  0
LINE
  8
0
  6
CENTER
 62
     2
 10
-85.000000
 20
68.991508
 11
-85.000000
 21
83.977646
  0
LINE
  8
0
  6
CENTER
 62
     2
 10
-35.000000
 20
68.991470
 11
-35.000000
 21
83.308365
  0
LINE
  8
0
  6
CENTER
 62
     2
 10
-85.000000
 20
103.385689
 11
-85.000000
 21
115.890297
  0
LINE
  8
0
  6
CENTER
 62
     2
 10
-35.000000
 20
103.117950
 11
-35.000000
 21
115.890259
  0
LINE
  8
0
  6
CENTER
 62
     2
 10
-66.100052
 20
108.006950
 11
-66.100052
 21
99.279732
  0
LINE
  8
0
 10
-56.500019
 20
102.785255
 11
-66.059219
 21
102.001709
  0
LINE
  8
0
 10
-56.500015
 20
103.788620
 11
-66.140907
 21
102.998383
  0
LINE
  8
0
 10
-62.500015
 20
106.293449
 11
-65.420174
 21
106.054092
  0
LINE
  8
0
 10
-56.500015
 20
100.785248
 11
-66.059212
 21
100.001701
  0
LINE
  8
0
 10
-56.500019
 20
101.788620
 11
-66.140915
 21
100.998383
  0
LINE
  8
0
 10
-44.000008
 20
78.999985
 11
-30.000008
 21
78.999985
  0
LINE
  8
0
 10
-62.500015
 20
105.296837
 11
-65.420174
 21
105.057480
  0
LINE
  8
0
 10
-59.979736
 20
104.500031
 11
-66.059212
 21
104.001717
  0
LINE
  8
0
 62
     4
 10
-87.000000
 20
92.999992
 11
-89.000000
 21
92.999992
  0
LINE
  8
0
 62
     1
 10
-101.069901
 20
94.609962
 11
-97.759422
 21
86.097351
  0
LINE
  8
0
 62
     4
 10
-80.000000
 20
95.499992
 11
-87.000000
 21
95.499992
  0
LINE
  8
0
 62
     4
 10
-87.000000
 20
87.300018
 11
-87.000000
 21
95.500031
  0
LINE
  8
0
 62
     4
 10
-87.000000
 20
79.000000
 11
-87.000000
 21
81.700043
  0
LINE
  8
0
 62
     4
 10
-86.000000
 20
81.700005
 11
-89.800018
 21
81.700005
  0
LINE
  8
0
 62
     4
 10
-86.000000
 20
87.300011
 11
-89.799988
 21
87.300011
  0
LINE
  8
0
 62
     4
 10
-86.799988
 20
81.700043
 11
-86.799988
 21
87.300018
  0
LINE
  8
0
 62
     4
 10
-89.799988
 20
81.700043
 11
-89.799988
 21
87.300018
  0
LINE
  8
0
 62
     4
 10
-86.000000
 20
80.000031
 11
-86.000000
 21
89.000031
  0
LINE
  8
0
 62
     4
 10
-80.000000
 20
79.999992
 11
-86.000000
 21
79.999992
  0
LINE
  8
0
 62
     4
 10
-80.000000
 20
88.999992
 11
-86.000000
 21
88.999992
  0
LINE
  8
0
 62
     4
 10
-89.000000
 20
88.999992
 11
-98.888336
 21
88.999992
  0
LINE
  8
0
 62
     4
 10
-87.000000
 20
87.999992
 11
-89.000000
 21
87.999992
  0
LINE
  8
0
 62
     4
 10
-89.000000
 20
88.000031
 11
-89.000000
 21
93.000031
  0
LINE
  8
0
 62
     4
 10
-89.000000
 20
91.999992
 11
-100.055023
 21
91.999992
  0
LINE
  8
0
 62
     4
 10
-86.999985
 20
-93.000000
 11
-88.999985
 21
-93.000000
  0
LINE
  8
0
 62
     1
 10
-101.996964
 20
-86.390022
 11
-98.686485
 21
-94.902649
  0
LINE
  8
0
 62
     4
 10
-88.999985
 20
-89.000000
 11
-100.982010
 21
-89.000000
  0
LINE
  8
0
 62
     4
 10
-88.999969
 20
-88.000046
 11
-88.999969
 21
-93.000046
  0
LINE
  8
0
 62
     4
 10
-86.999985
 20
-88.000000
 11
-88.999985
 21
-88.000000
  0
LINE
  8
0
 62
     4
 10
-88.999985
 20
-92.000000
 11
-99.815323
 21
-92.000000
  0
LINE
  8
0
 62
     4
 10
-89.799957
 20
-81.700058
 11
-89.799957
 21
-87.300034
  0
LINE
  8
0
 62
     4
 10
-86.999969
 20
-87.300018
 11
-89.799988
 21
-87.300018
  0
LINE
  8
0
 62
     4
 10
-86.999969
 20
-81.700012
 11
-89.800018
 21
-81.700012
  0
LINE
  8
0
 62
     4
 10
-86.999969
 20
-78.999985
 11
-86.999969
 21
-95.500046
  0
LINE
  8
0
 62
     4
 10
-79.999985
 20
-95.500000
 11
-86.999985
 21
-95.500000
  0
LINE
  8
0
 10
-90.000000
 20
-73.000000
 11
-29.999998
 21
-73.000000
  0
LINE
  8
0
  6
CENTER
 62
     2
 10
-60.000000
 20
-68.991486
 11
-60.000000
 21
-115.890274
  0
LINE
  8
0
 10
-90.000000
 20
-72.999969
 11
-90.000000
 21
-78.999969
  0
LINE
  8
0
 10
-30.000004
 20
-73.000015
 11
-30.000004
 21
-79.000015
  0
LINE
  8
0
 10
-56.500000
 20
-79.000000
 11
-56.500000
 21
-94.000000
  0
LINE
  8
0
 10
-56.499996
 20
-79.000000
 11
-29.999996
 21
-79.000000
  0
LINE
  8
0
 10
-80.000000
 20
-78.999985
 11
-80.000000
 21
-99.999985
  0
LINE
  8
0
 10
-56.500008
 20
-94.000000
 11
-40.000011
 21
-94.000000
  0
LINE
  8
0
 10
-40.000004
 20
-79.000000
 11
-40.000004
 21
-100.000000
  0
LINE
  8
0
 10
-45.000004
 20
-79.000000
 11
-45.000004
 21
-94.000000
  0
LINE
  8
0
 10
-63.500000
 20
-100.000000
 11
-63.500000
 21
-104.500000
  0
LINE
  8
0
 10
-71.500000
 20
-99.999985
 11
-71.500000
 21
-104.499985
  0
LINE
  8
0
 10
-52.500000
 20
-100.000000
 11
-52.500000
 21
-104.599503
  0
LINE
  8
0
 62
     2
 10
-52.000000
 20
-100.000000
 11
-52.000000
 21
-104.599503
  0
LINE
  8
0
 62
     2
 10
-49.000004
 20
-100.000000
 11
-49.000004
 21
-104.599518
  0
LINE
  8
0
 10
-48.500004
 20
-100.000000
 11
-48.500004
 21
-104.599518
  0
LINE
  8
0
 10
-54.079891
 20
-104.599449
 11
-54.579861
 21
-104.888115
  0
LINE
  8
0
 10
-46.979847
 20
-104.599503
 11
-54.079857
 21
-104.599503
  0
LINE
  8
0
 10
-52.579842
 20
-104.888184
 11
-52.579842
 21
-106.710831
  0
LINE
  8
0
 10
-48.479832
 20
-104.888184
 11
-48.479832
 21
-106.710846
  0
LINE
  8
0
 10
-46.479836
 20
-104.888176
 11
-46.979813
 21
-104.599533
  0
LINE
  8
0
 10
-46.479832
 20
-104.888184
 11
-46.479832
 21
-106.710846
  0
LINE
  8
0
 10
-46.479874
 20
-106.710808
 11
-46.979877
 21
-106.999474
  0
LINE
  8
0
 10
-54.079891
 20
-106.999588
 11
-54.579903
 21
-106.710907
  0
LINE
  8
0
 10
-54.579842
 20
-104.888184
 11
-54.579842
 21
-106.710831
  0
LINE
  8
0
 10
-46.500004
 20
-92.000000
 11
-46.500004
 21
-94.000000
  0
LINE
  8
0
 10
-54.500008
 20
-92.000000
 11
-54.500008
 21
-94.000000
  0
LINE
  8
0
 10
-54.008614
 20
-88.799194
 11
-54.508598
 21
-89.087860
  0
LINE
  8
0
 10
-46.908566
 20
-88.799316
 11
-54.008572
 21
-88.799316
  0
LINE
  8
0
 10
-52.508568
 20
-89.088013
 11
-52.508568
 21
-92.000000
  0
LINE
  8
0
 10
-48.408558
 20
-89.088013
 11
-48.408558
 21
-92.000000
  0
LINE
  8
0
 10
-46.408596
 20
-89.088081
 11
-46.908615
 21
-88.799385
  0
LINE
  8
0
 10
-46.408558
 20
-89.088013
 11
-46.408558
 21
-92.000000
  0
LINE
  8
0
 10
-54.508568
 20
-89.087997
 11
-54.508568
 21
-92.000000
  0
LINE
  8
0
 10
-48.500004
 20
-83.000000
 11
-52.500008
 21
-83.000000
  0
LINE
  8
0
 62
     2
 10
-49.000004
 20
-83.000000
 11
-49.000004
 21
-86.399323
  0
LINE
  8
0
 62
     2
 10
-52.000008
 20
-83.000000
 11
-52.000008
 21
-86.399323
  0
LINE
  8
0
 10
-48.500004
 20
-83.000000
 11
-48.500004
 21
-86.399323
  0
LINE
  8
0
 10
-52.500008
 20
-83.000000
 11
-52.500008
 21
-86.399323
  0
LINE
  8
0
 10
-54.008640
 20
-86.399170
 11
-54.508621
 21
-86.687836
  0
LINE
  8
0
 10
-46.908566
 20
-86.399323
 11
-54.008572
 21
-86.399323
  0
LINE
  8
0
 10
-52.508568
 20
-86.688004
 11
-52.508568
 21
-88.510651
  0
LINE
  8
0
 10
-48.408558
 20
-86.688004
 11
-48.408558
 21
-88.510651
  0
LINE
  8
0
 10
-46.408585
 20
-86.688072
 11
-46.908596
 21
-86.399391
  0
LINE
  8
0
 10
-46.408558
 20
-86.688019
 11
-46.408558
 21
-88.510651
  0
LINE
  8
0
 10
-46.408577
 20
-88.510483
 11
-46.908566
 21
-88.799141
  0
LINE
  8
0
 10
-54.008587
 20
-88.799309
 11
-54.508606
 21
-88.510643
  0
LINE
  8
0
 10
-54.508568
 20
-86.688004
 11
-54.508568
 21
-88.510651
  0
LINE
  8
0
 10
-54.508575
 20
-92.000000
 11
-46.408566
 21
-92.000000
  0
LINE
  8
0
 10
-77.500000
 20
-104.499985
 11
-77.500000
 21
-107.499985
  0
LINE
  8
0
 10
-57.500000
 20
-104.500000
 11
-57.500000
 21
-107.500000
  0
LINE
  8
0
 10
-76.000000
 20
-78.999985
 11
-76.000000
 21
-99.999985
  0
LINE
  8
0
 10
-90.000015
 20
-113.000000
 11
-30.000025
 21
-113.000000
  0
LINE
  8
0
 10
-90.000000
 20
-106.999969
 11
-90.000000
 21
-112.999969
  0
LINE
  8
0
 10
-30.000004
 20
-107.000015
 11
-30.000004
 21
-113.000015
  0
LINE
  8
0
 10
-90.000015
 20
-107.000000
 11
-77.500015
 21
-107.000000
  0
LINE
  8
0
 10
-77.500015
 20
-104.500000
 11
-57.500015
 21
-104.500000
  0
LINE
  8
0
 10
-78.500000
 20
-106.999985
 11
-78.500000
 21
-107.499985
  0
LINE
  8
0
 10
-56.500000
 20
-107.000000
 11
-56.500000
 21
-107.500000
  0
LINE
  8
0
 10
-78.500015
 20
-107.500000
 11
-56.500019
 21
-107.500000
  0
LINE
  8
0
 10
-57.500019
 20
-107.000000
 11
-30.000025
 21
-107.000000
  0
LINE
  8
0
 10
-80.000015
 20
-100.000000
 11
-40.000011
 21
-100.000000
  0
LINE
  8
0
  6
CENTER
 62
     2
 10
-35.000004
 20
-68.991516
 11
-35.000004
 21
-83.977646
  0
LINE
  8
0
  6
CENTER
 62
     2
 10
-85.000000
 20
-68.991470
 11
-85.000000
 21
-83.308365
  0
LINE
  8
0
  6
CENTER
 62
     2
 10
-35.000004
 20
-103.385681
 11
-35.000004
 21
-115.890289
  0
LINE
  8
0
  6
CENTER
 62
     2
 10
-85.000000
 20
-103.117950
 11
-85.000000
 21
-115.890259
  0
LINE
  8
0
  6
CENTER
 62
     2
 10
-53.899952
 20
-108.006958
 11
-53.899952
 21
-99.279724
  0
LINE
  8
0
 10
-63.499996
 20
-102.785088
 11
-53.940796
 21
-102.001549
  0
LINE
  8
0
 10
-63.499973
 20
-103.788681
 11
-53.859081
 21
-102.998428
  0
LINE
  8
0
 10
-57.499989
 20
-106.293350
 11
-54.579845
 21
-106.053986
  0
LINE
  8
0
 10
-63.499989
 20
-100.785103
 11
-53.940800
 21
-100.001564
  0
LINE
  8
0
 10
-63.499989
 20
-101.788681
 11
-53.859089
 21
-100.998428
  0
LINE
  8
0
 10
-75.999992
 20
-78.999985
 11
-89.999985
 21
-78.999985
  0
LINE
  8
0
 10
-57.499992
 20
-105.296707
 11
-54.579842
 21
-105.057343
  0
LINE
  8
0
 10
-60.020271
 20
-104.499893
 11
-53.940792
 21
-104.001572
  0
LINE
  8
0
 62
     4
 10
-32.999996
 20
-97.500000
 11
-30.999996
 21
-97.500000
  0
LINE
  8
0
 62
     1
 10
-18.930023
 20
-99.109940
 11
-22.240503
 21
-90.597313
  0
LINE
  8
0
 62
     4
 10
-30.999996
 20
-96.500000
 11
-19.944950
 21
-96.500000
  0
LINE
  8
0
 62
     4
 10
-31.000004
 20
-92.500031
 11
-31.000004
 21
-97.500031
  0
LINE
  8
0
 62
     4
 10
-32.999996
 20
-92.500000
 11
-30.999996
 21
-92.500000
  0
LINE
  8
0
 62
     4
 10
-30.999996
 20
-93.500000
 11
-21.111637
 21
-93.500000
  0
LINE
  8
0
 62
     4
 10
-39.999996
 20
-93.500000
 11
-33.999996
 21
-93.500000
  0
LINE
  8
0
 62
     4
 10
-39.999996
 20
-84.500000
 11
-33.999996
 21
-84.500000
  0
LINE
  8
0
 62
     4
 10
-34.000004
 20
-84.500031
 11
-34.000004
 21
-93.500031
  0
LINE
  8
0
 62
     4
 10
-30.200016
 20
-86.200043
 11
-30.200016
 21
-91.800018
  0
LINE
  8
0
 62
     4
 10
-33.200016
 20
-86.200043
 11
-33.200016
 21
-91.800018
  0
LINE
  8
0
 62
     4
 10
-33.999996
 20
-91.800018
 11
-30.200008
 21
-91.800018
  0
LINE
  8
0
 62
     4
 10
-33.999996
 20
-86.200012
 11
-30.199978
 21
-86.200012
  0
LINE
  8
0
 62
     4
 10
-33.000004
 20
-79.000000
 11
-33.000004
 21
-86.200043
  0
LINE
  8
0
 62
     4
 10
-33.000004
 20
-91.800018
 11
-33.000004
 21
-100.000031
  0
LINE
  8
0
 62
     4
 10
-39.999996
 20
-100.000000
 11
-32.999996
 21
-100.000000
  0
LINE
  8
0
  6
CENTER
 62
     2
 10
154.272339
 20
0.000004
 11
88.166939
 21
0.000004
  0
LINE
  8
0
 10
150.518555
 20
29.999996
 11
150.518555
 21
-30.000004
  0
LINE
  8
0
 10
90.518547
 20
29.999998
 11
90.518547
 21
-30.000004
  0
LINE
  8
0
 10
150.518555
 20
-29.999992
 11
90.518547
 21
-29.999992
  0
LINE
  8
0
 10
150.518555
 20
30.000004
 11
90.518547
 21
30.000004
  0
LINE
  8
0
  6
CENTER
 62
     2
 10
120.518547
 20
34.945446
 11
120.518547
 21
-34.722527
  0
LINE
  8
0
  6
CENTER
 62
     2
 10
145.518555
 20
3.499997
 11
145.518555
 21
-3.500003
  0
LINE
  8
0
  6
CENTER
 62
     2
 10
145.518555
 20
-19.656448
 11
145.518555
 21
-30.703341
  0
LINE
  8
0
  6
CENTER
 62
     2
 10
117.018547
 20
-25.000008
 11
124.018547
 21
-25.000008
  0
LINE
  8
0
  6
CENTER
 62
     2
 10
140.455566
 20
-25.000008
 11
150.765991
 21
-25.000008
  0
LINE
  8
0
  6
CENTER
 62
     2
 10
117.018547
 20
24.999996
 11
124.018547
 21
24.999996
  0
LINE
  8
0
  6
CENTER
 62
     2
 10
95.518547
 20
-19.656441
 11
95.518547
 21
-30.703333
  0
LINE
  8
0
  6
CENTER
 62
     2
 10
100.581528
 20
-25.000008
 11
90.271095
 21
-25.000008
  0
LINE
  8
0
  6
CENTER
 62
     2
 10
95.518547
 20
19.656456
 11
95.518547
 21
30.703348
  0
LINE
  8
0
  6
CENTER
 62
     2
 10
100.581528
 20
25.000015
 11
90.271095
 21
25.000015
  0
LINE
  8
0
  6
CENTER
 62
     2
 10
145.518555
 20
19.656448
 11
145.518555
 21
30.703341
  0
LINE
  8
0
  6
CENTER
 62
     2
 10
140.455566
 20
25.000015
 11
150.765991
 21
25.000015
  0
LINE
  8
0
  6
CENTER
 62
     2
 10
95.518547
 20
3.500003
 11
95.518547
 21
-3.499997
  0
ARC
  8
0
 62
     4
 10
-44.619999
 20
-8.999999
 40
4.420010
 50
320.692322
 51
39.307594
  0
CIRCLE
  8
0
 10
-34.999985
 20
-24.999998
 40
1.500000
  0
CIRCLE
  8
0
 10
-35.000000
 20
25.000010
 40
1.500000
  0
CIRCLE
  8
0
 10
-85.000008
 20
24.999990
 40
1.500000
  0
CIRCLE
  8
0
 10
-84.999985
 20
-25.000002
 40
1.500000
  0
CIRCLE
  8
0
 62
     2
 10
-34.999985
 20
-24.999998
 40
2.000000
  0
CIRCLE
  8
0
 62
     2
 10
-35.000000
 20
25.000010
 40
2.000000
  0
CIRCLE
  8
0
 62
     2
 10
-85.000008
 20
24.999990
 40
2.000000
  0
CIRCLE
  8
0
 62
     2
 10
-84.999985
 20
-25.000002
 40
2.000000
  0
CIRCLE
  8
0
 10
-59.999981
 20
-25.000000
 40
3.000000
  0
ARC
  8
0
 10
-60.000004
 20
24.000000
 40
3.000000
 50
180.000000
 51
359.999969
  0
ARC
  8
0
 62
     4
 10
-75.379990
 20
8.999984
 40
4.420006
 50
140.692368
 51
219.307632
  0
CIRCLE
  8
0
 10
-59.999992
 20
0.000000
 40
7.000000
  0
ARC
  8
0
 10
-59.999992
 20
0.500000
 40
6.000001
 50
142.303741
 51
37.696239
  0
ARC
  8
0
 10
-55.769421
 20
5.576935
 40
1.500000
 50
148.967224
 51
290.161682
  0
ARC
  8
0
 10
-64.230568
 20
5.576934
 40
1.500000
 50
249.838318
 51
31.032761
  0
ARC
  8
0
 10
-55.769421
 20
5.576935
 40
0.500000
 50
144.863159
 51
320.770050
  0
ARC
  8
0
 10
-64.230568
 20
5.576934
 40
0.499999
 50
219.229950
 51
35.136841
  0
CIRCLE
  8
0
 62
     4
 10
-147.925064
 20
1.999978
 40
1.000000
  0
CIRCLE
  8
0
 10
-146.225082
 20
8.999986
 40
2.800000
  0
ARC
  8
0
 10
-163.747787
 20
23.158531
 40
7.423347
 50
343.969086
 51
16.030954
  0
ARC
  8
0
 10
-158.200821
 20
20.108521
 40
1.876396
 50
327.795929
 51
32.204071
  0
ARC
  8
0
 10
-158.200836
 20
26.208527
 40
1.876396
 50
327.795929
 51
32.204021
  0
ARC
  8
0
 10
-156.848022
 20
20.108521
 40
1.876397
 50
147.795883
 51
212.204025
  0
ARC
  8
0
 10
-156.848038
 20
26.208527
 40
1.876396
 50
147.795929
 51
212.204071
  0
CIRCLE
  8
0
 10
-166.625092
 20
8.999954
 40
2.800000
  0
CIRCLE
  8
0
 62
     4
 10
-160.425049
 20
1.499962
 40
1.700000
  0
CIRCLE
  8
0
 62
     4
 10
-160.425049
 20
1.499962
 40
2.500000
  0
CIRCLE
  8
0
 62
     4
 10
-154.425064
 20
8.999970
 40
3.300000
  0
ARC
  8
0
 10
-169.491592
 20
23.190018
 40
7.423349
 50
163.969025
 51
196.030869
  0
ARC
  8
0
 10
-175.038544
 20
20.139990
 40
1.876397
 50
147.795883
 51
212.204025
  0
ARC
  8
0
 10
-176.391327
 20
20.139982
 40
1.876396
 50
327.795929
 51
32.204071
  0
ARC
  8
0
 10
-176.391342
 20
26.239988
 40
1.876396
 50
327.795929
 51
32.204021
  0
ARC
  8
0
 10
-175.038544
 20
26.239996
 40
1.876396
 50
147.795929
 51
212.204071
  0
ARC
  8
0
 10
-181.938293
 20
23.189993
 40
7.423347
 50
343.969086
 51
16.030954
  0
ARC
  8
0
 10
-151.301086
 20
23.158546
 40
7.423349
 50
163.969025
 51
196.030869
  0
ARC
  8
0
 10
-160.600830
 20
20.108513
 40
1.876396
 50
327.795929
 51
32.204071
  0
ARC
  8
0
 10
-160.600845
 20
26.208519
 40
1.876396
 50
327.795929
 51
32.204021
  0
ARC
  8
0
 10
-166.147781
 20
23.158524
 40
7.423347
 50
343.969086
 51
16.030954
  0
CIRCLE
  8
0
 10
-173.425079
 20
6.099952
 40
0.500000
  0
CIRCLE
  8
0
 10
-175.425079
 20
6.099952
 40
0.500000
  0
CIRCLE
  8
0
 10
-171.425079
 20
6.099952
 40
0.500000
  0
CIRCLE
  8
0
 10
-174.425064
 20
-6.100060
 40
0.500000
  0
CIRCLE
  8
0
 10
-172.425064
 20
-6.100060
 40
0.500000
  0
CIRCLE
  8
0
 10
-170.425079
 20
-6.100060
 40
0.500000
  0
CIRCLE
  8
0
 10
-176.425064
 20
-6.100060
 40
0.500000
  0
CIRCLE
  8
0
 10
11.967751
 20
-8.999987
 40
2.800000
  0
ARC
  8
0
 10
29.490448
 20
-23.158531
 40
7.423346
 50
163.969055
 51
196.030945
  0
ARC
  8
0
 10
23.943497
 20
-20.108522
 40
1.876398
 50
147.795959
 51
212.204041
  0
ARC
  8
0
 10
23.943497
 20
-26.208521
 40
1.876399
 50
147.795914
 51
212.203995
  0
ARC
  8
0
 10
22.590698
 20
-20.108522
 40
1.876397
 50
327.795868
 51
32.203991
  0
ARC
  8
0
 10
22.590698
 20
-26.208521
 40
1.876398
 50
327.795959
 51
32.204041
  0
CIRCLE
  8
0
 10
32.367752
 20
-8.999955
 40
2.800000
  0
CIRCLE
  8
0
 62
     4
 10
30.167740
 20
-1.499963
 40
1.700000
  0
CIRCLE
  8
0
 62
     4
 10
30.167740
 20
-1.499963
 40
2.500000
  0
CIRCLE
  8
0
 62
     4
 10
24.167755
 20
-8.999970
 40
3.300000
  0
ARC
  8
0
 10
35.234268
 20
-23.190018
 40
7.423347
 50
343.968994
 51
16.030882
  0
ARC
  8
0
 10
40.781197
 20
-20.139992
 40
1.876397
 50
327.795868
 51
32.203960
  0
ARC
  8
0
 10
42.133995
 20
-20.139984
 40
1.876400
 50
147.795990
 51
212.204010
  0
ARC
  8
0
 10
42.134003
 20
-26.239983
 40
1.876397
 50
147.795883
 51
212.203964
  0
ARC
  8
0
 10
40.781204
 20
-26.239998
 40
1.876396
 50
327.795929
 51
32.204010
  0
ARC
  8
0
 10
47.680954
 20
-23.189995
 40
7.423344
 50
163.969055
 51
196.030945
  0
ARC
  8
0
 10
17.043755
 20
-23.158548
 40
7.423347
 50
343.968994
 51
16.030882
  0
ARC
  8
0
 10
26.343491
 20
-20.108515
 40
1.876398
 50
147.795959
 51
212.204041
  0
ARC
  8
0
 10
26.343506
 20
-26.208521
 40
1.876399
 50
147.795914
 51
212.203995
  0
ARC
  8
0
 10
31.890457
 20
-23.158524
 40
7.423346
 50
163.969055
 51
196.030945
  0
CIRCLE
  8
0
 10
39.167740
 20
-6.099953
 40
0.500000
  0
CIRCLE
  8
0
 10
41.167740
 20
-6.099953
 40
0.500000
  0
CIRCLE
  8
0
 10
37.167747
 20
-6.099953
 40
0.500000
  0
CIRCLE
  8
0
 10
40.167725
 20
6.100060
 40
0.500000
  0
CIRCLE
  8
0
 10
38.167725
 20
6.100060
 40
0.500000
  0
CIRCLE
  8
0
 10
36.167732
 20
6.100059
 40
0.500000
  0
CIRCLE
  8
0
 10
42.167725
 20
6.100060
 40
0.500000
  0
ARC
  8
0
 10
-69.470131
 20
112.022858
 40
7.423347
 50
253.969070
 51
286.030914
  0
ARC
  8
0
 10
-66.420143
 20
105.123100
 40
1.876396
 50
57.795929
 51
122.204071
  0
ARC
  8
0
 10
-69.470139
 20
99.576157
 40
7.423342
 50
73.969002
 51
106.030869
  0
ARC
  8
0
 10
-72.520157
 20
105.123108
 40
1.876396
 50
57.795929
 51
122.204071
  0
ARC
  8
0
 10
-72.520149
 20
106.475906
 40
1.876396
 50
237.795929
 51
302.204071
  0
ARC
  8
0
 10
-66.420143
 20
106.475899
 40
1.876396
 50
237.795929
 51
302.204071
  0
ARC
  8
0
 10
-69.541420
 20
81.375984
 40
7.423342
 50
73.969002
 51
106.030869
  0
ARC
  8
0
 10
-72.591431
 20
90.675728
 40
1.876396
 50
237.795929
 51
302.204071
  0
ARC
  8
0
 10
-66.491425
 20
90.675728
 40
1.876396
 50
237.795929
 51
302.204071
  0
ARC
  8
0
 10
-69.541412
 20
96.222679
 40
7.423347
 50
253.969070
 51
286.030914
  0
ARC
  8
0
 10
-69.541412
 20
93.822678
 40
7.423347
 50
253.969070
 51
286.030914
  0
ARC
  8
0
 10
-72.591438
 20
88.275726
 40
1.876396
 50
237.795929
 51
302.204071
  0
ARC
  8
0
 10
-66.491425
 20
88.275726
 40
1.876396
 50
237.795929
 51
302.204071
  0
ARC
  8
0
 10
-72.591438
 20
86.922928
 40
1.876396
 50
57.795929
 51
122.204071
  0
ARC
  8
0
 10
-66.491425
 20
86.922928
 40
1.876396
 50
57.795929
 51
122.204071
  0
CIRCLE
  8
0
 10
-66.100052
 20
100.500000
 40
0.500000
  0
CIRCLE
  8
0
 10
-66.100052
 20
102.500000
 40
0.500000
  0
ARC
  8
0
 10
-66.100052
 20
104.500000
 40
0.499999
 50
168.521179
 51
29.567585
  0
ARC
  8
0
 10
-50.529869
 20
-112.022858
 40
7.423349
 50
73.969017
 51
106.030922
  0
ARC
  8
0
 10
-53.579857
 20
-105.123108
 40
1.876396
 50
237.795929
 51
302.204071
  0
ARC
  8
0
 10
-50.529858
 20
-99.576157
 40
7.423343
 50
253.968979
 51
286.030853
  0
ARC
  8
0
 10
-47.479847
 20
-105.123108
 40
1.876398
 50
237.795822
 51
302.203979
  0
ARC
  8
0
 10
-47.479855
 20
-106.475906
 40
1.876396
 50
57.795929
 51
122.204071
  0
ARC
  8
0
 10
-53.579861
 20
-106.475891
 40
1.876396
 50
57.795929
 51
122.203972
  0
ARC
  8
0
 10
-50.458576
 20
-81.375977
 40
7.423343
 50
253.968979
 51
286.030853
  0
ARC
  8
0
 10
-47.408566
 20
-90.675720
 40
1.876396
 50
57.795929
 51
122.204071
  0
ARC
  8
0
 10
-53.508572
 20
-90.675720
 40
1.876396
 50
57.795929
 51
122.203972
  0
ARC
  8
0
 10
-50.458584
 20
-96.222687
 40
7.423349
 50
73.969017
 51
106.030922
  0
ARC
  8
0
 10
-50.458584
 20
-93.822678
 40
7.423349
 50
73.969017
 51
106.030922
  0
ARC
  8
0
 10
-47.408566
 20
-88.275726
 40
1.876396
 50
57.795929
 51
122.204071
  0
ARC
  8
0
 10
-53.508572
 20
-88.275726
 40
1.876396
 50
57.795929
 51
122.203972
  0
ARC
  8
0
 10
-47.408566
 20
-86.922928
 40
1.876398
 50
237.795822
 51
302.203979
  0
ARC
  8
0
 10
-53.508572
 20
-86.922928
 40
1.876396
 50
237.795929
 51
302.204071
  0
CIRCLE
  8
0
 10
-53.899948
 20
-100.500000
 40
0.500000
  0
CIRCLE
  8
0
 10
-53.899948
 20
-102.500000
 40
0.500000
  0
ARC
  8
0
 10
-53.899948
 20
-104.500000
 40
0.499999
 50
348.521179
 51
209.567795
  0
CIRCLE
  8
0
 10
145.518555
 20
-0.000003
 40
2.000000
  0
CIRCLE
  8
0
 10
145.518555
 20
24.999994
 40
2.250000
  0
CIRCLE
  8
0
 10
95.518555
 20
24.999998
 40
2.250000
  0
CIRCLE
  8
0
 10
145.518539
 20
-25.000011
 40
2.250000
  0
CIRCLE
  8
0
 10
95.518539
 20
-25.000004
 40
2.250000
  0
CIRCLE
  8
0
 10
120.518547
 20
24.999996
 40
2.000000
  0
CIRCLE
  8
0
 10
120.518547
 20
-25.000008
 40
2.000000
  0
CIRCLE
  8
0
  6
DASHED
 62
     2
 10
145.518539
 20
-25.000011
 40
4.000000
  0
CIRCLE
  8
0
  6
DASHED
 62
     2
 10
95.518539
 20
-25.000004
 40
4.000000
  0
CIRCLE
  8
0
  6
DASHED
 62
     2
 10
95.518555
 20
25.000019
 40
4.000000
  0
CIRCLE
  8
0
  6
DASHED
 62
     2
 10
145.518555
 20
25.000011
 40
4.000000
  0
CIRCLE
  8
0
 10
95.518547
 20
0.000003
 40
2.000000
  0
TEXT
  8
0
 10
115.907150
 20
122.050003
 40
4.500000
  1
DATE : MAY ,1993
 50
0.000000
 41
1.052631
 51
0.000000
  7
STANDARD
  0
TEXT
  8
0
 10
113.700279
 20
-130.669998
 40
6.300000
  1
KOGANEI CORP.
 50
0.000000
 41
1.052632
 51
0.000000
  7
STANDARD
  0
TEXT
  8
0
 10
-185.892654
 20
122.050003
 40
4.500000
  1
HANDLING MODULE
 50
0.000000
 41
1.052632
 51
0.000000
  7
STANDARD
  0
TEXT
  8
0
 10
-186.892654
 20
104.550003
 40
4.500000
  1
MODEL:SHM51S-SS
 50
0.000000
 41
1.052632
 51
0.000000
  7
STANDARD
  0
ENDSEC
  0
EOF
