  0
SECTION
  2
HEADER
  0
ENDSEC
  0
SECTION
  2
TABLES
  0
TABLE
  2
LTYPE
 70
     4
  0
LTYPE
  2
CONTINUOUS
 70
    64
  3
Solid line
 72
    65
 73
     0
 40
0.000000
  0
LTYPE
  2
DASHED
 70
    64
  3
__ __ __ __ __ __ __ __ __ __ __ __ __ __ __
 72
    65
 73
     2
 40
3.500000
 49
2.000000
 49
-1.500000
  0
LTYPE
  2
CENTER
 70
    64
  3
____ _ ____ _ ____ _ ____ _ ____ _ ____ _ ____
 72
    65
 73
     4
 40
17.500000
 49
13.000000
 49
-1.500000
 49
1.500000
 49
-1.500000
  0
LTYPE
  2
PHANTOM
 70
    64
  3
_____ _ _ _____ _ _ _____ _ _ _____ _ _ ____  
 72
    65
 73
     6
 40
15.500000
 49
8.000000
 49
-1.500000
 49
1.500000
 49
-1.500000
 49
1.500000
 49
-1.500000
  0
LTYPE
  2
DASHED1
 70
    64
  3
__ __ __ __ __ __ __ __ __ __ __ __ __ __ __
 72
    65
 73
     2
 40
1.500000
 49
1.000000
 49
-0.500000
  0
LTYPE
  2
DASHED2
 70
    64
  3
__ __ __ __ __ __ __ __ __ __ __ __ __ __ __
 72
    65
 73
     2
 40
3.500000
 49
2.500000
 49
-1.000000
  0
LTYPE
  2
DASHED3
 70
    64
  3
__ __ __ __ __ __ __ __ __ __ __ __ __ __ __
 72
    65
 73
     2
 40
6.000000
 49
4.000000
 49
-2.000000
  0
LTYPE
  2
DASHED4
 70
    64
  3
__ __ __ __ __ __ __ __ __ __ __ __ __ __ __
 72
    65
 73
     2
 40
12.000000
 49
10.000000
 49
-2.000000
  0
LTYPE
  2
DASHED5
 70
    64
  3
__ __ __ __ __ __ __ __ __ __ __ __ __ __ __
 72
    65
 73
     2
 40
17.000000
 49
15.000000
 49
-2.000000
  0
LTYPE
  2
DASHED6
 70
    64
  3
__ __ __ __ __ __ __ __ __ __ __ __ __ __ __
 72
    65
 73
     2
 40
29.000000
 49
27.000000
 49
-2.000000
  0
LTYPE
  2
PHANTOM1
 70
    64
  3
_____ _ _ _____ _ _ _____ _ _ _____ _ _ ____  
 72
    65
 73
     6
 40
31.000000
 49
25.000000
 49
-1.500000
 49
1.000000
 49
-1.000000
 49
1.000000
 49
-1.500000
  0
LTYPE
  2
PHANTOM2
 70
    64
  3
_____ _ _ _____ _ _ _____ _ _ _____ _ _ ____  
 72
    65
 73
     6
 40
36.000000
 49
27.000000
 49
-1.500000
 49
2.500000
 49
-1.000000
 49
2.500000
 49
-1.500000
  0
LTYPE
  2
PHANTOM3
 70
    64
  3
_____ _ _ _____ _ _ _____ _ _ _____ _ _ ____  
 72
    65
 73
     6
 40
78.000000
 49
64.000000
 49
-2.000000
 49
4.000000
 49
-2.000000
 49
4.000000
 49
-2.000000
  0
LTYPE
  2
CENTER1
 70
    64
  3
____ _ ____ _ ____ _ ____ _ ____ _ ____ _ ____
 72
    65
 73
     4
 40
19.000000
 49
14.000000
 49
-1.000000
 49
3.000000
 49
-1.000000
  0
LTYPE
  2
CENTER2
 70
    64
  3
____ _ ____ _ ____ _ ____ _ ____ _ ____ _ ____
 72
    65
 73
     4
 40
28.500000
 49
25.000000
 49
-1.000000
 49
1.500000
 49
-1.000000
  0
LTYPE
  2
CENTER3
 70
    64
  3
____ _ ____ _ ____ _ ____ _ ____ _ ____ _ ____
 72
    65
 73
     4
 40
31.500000
 49
27.000000
 49
-1.000000
 49
2.500000
 49
-1.000000
  0
LTYPE
  2
CENTER4
 70
    64
  3
____ _ ____ _ ____ _ ____ _ ____ _ ____ _ ____
 72
    65
 73
     4
 40
50.000000
 49
45.000000
 49
-1.000000
 49
3.000000
 49
-1.000000
  0
LTYPE
  2
CENTER5
 70
    64
  3
____ _ ____ _ ____ _ ____ _ ____ _ ____ _ ____
 72
    65
 73
     4
 40
100.000000
 49
92.000000
 49
-2.000000
 49
4.000000
 49
-2.000000
  0
LTYPE
  2
SBK1
 70
    64
  3
______ _ _ _ ______ _ _ _ ______ _ _ _ _____  
 72
    65
 73
     8
 40
60.500000
 49
45.000000
 49
-2.000000
 49
2.500000
 49
-2.000000
 49
2.500000
 49
-2.000000
 49
2.500000
 49
-2.000000
  0
LTYPE
  2
SBK2
 70
    64
  3
______ _ _ _ ______ _ _ _ ______ _ _ _ _____  
 72
    65
 73
     8
 40
84.000000
 49
64.000000
 49
-2.000000
 49
4.000000
 49
-2.000000
 49
4.000000
 49
-2.000000
 49
4.000000
 49
-2.000000
  0
LTYPE
  2
STCH
 70
    64
  3
__ __ __ __ __ __ __ __ __ __ __ __ __ __ __
 72
    65
 73
     2
 40
3.000000
 49
1.000000
 49
-2.000000
  0
LTYPE
  2
MTCH
 70
    64
  3
_____ _ _ _____ _ _ _____ _ _ _____ _ _ ____  
 72
    65
 73
     6
 40
80.000000
 49
66.000000
 49
-2.000000
 49
4.000000
 49
-2.000000
 49
4.000000
 49
-2.000000
  0
ENDTAB
  0
TABLE
  2
LAYER
 70
     1
  0
LAYER
  2
0
 70
     0
 62
     7
  6
CONTINUOUS
  0
ENDTAB
  0
TABLE
  2
STYLE
 70
     1
  0
STYLE
  2
STANDARD
 70
     0
 40
0.000000
 41
1.000000
 50
0.000000
 71
     0
 42
0.200000
  3
txt
  4
BIGFONT
  0
ENDTAB
  0
TABLE
  2
VIEW
 70
     0
  0
ENDTAB
  0
ENDSEC
  0
SECTION
  2
BLOCKS
  0
ENDSEC
  0
SECTION
  2
ENTITIES
  0
LINE
  8
0
  6
CENTER
 62
     2
 10
-126.514290
 20
38.229973
 11
-63.301491
 21
38.229973
  0
LINE
  8
0
  6
CENTER
 62
     2
 10
-103.439911
 20
60.940601
 11
-103.439911
 21
15.400333
  0
LINE
  8
0
 10
-82.039902
 20
40.979977
 11
-82.039902
 21
35.479977
  0
LINE
  8
0
 10
-76.939896
 20
42.229977
 11
-76.939896
 21
34.229977
  0
LINE
  8
0
 10
-77.297470
 20
33.611362
 11
-76.940208
 21
34.230164
  0
LINE
  8
0
 10
-80.432640
 20
33.611168
 11
-77.297173
 21
33.611168
  0
LINE
  8
0
 10
-80.432640
 20
35.920570
 11
-77.297180
 21
35.920570
  0
LINE
  8
0
 10
-80.432640
 20
40.539375
 11
-77.297180
 21
40.539375
  0
LINE
  8
0
 10
-77.297218
 20
42.848797
 11
-76.939964
 21
42.230015
  0
LINE
  8
0
 10
-80.432640
 20
42.848778
 11
-77.297173
 21
42.848778
  0
LINE
  8
0
 10
-83.439919
 20
35.479973
 11
-82.039909
 21
35.479973
  0
LINE
  8
0
 10
-83.439919
 20
40.979973
 11
-82.039909
 21
40.979973
  0
LINE
  8
0
 10
-82.039932
 20
35.479973
 11
-80.687843
 21
34.127880
  0
LINE
  8
0
 10
-82.040100
 20
40.980137
 11
-80.688026
 21
42.332214
  0
LINE
  8
0
 10
-76.939903
 20
42.229973
 11
-72.339912
 21
42.229973
  0
LINE
  8
0
 10
-76.939903
 20
34.229973
 11
-75.939903
 21
34.229973
  0
LINE
  8
0
 10
-75.939903
 20
41.229973
 11
-72.339912
 21
41.229973
  0
LINE
  8
0
 10
-69.339905
 20
38.229977
 11
-69.339905
 21
33.107327
  0
LINE
  8
0
 10
-75.939896
 20
42.229977
 11
-75.939896
 21
33.107327
  0
LINE
  8
0
 10
-67.739914
 20
24.329975
 11
-67.739914
 21
23.129978
  0
LINE
  8
0
 10
-67.739922
 20
23.129974
 11
-77.539909
 21
23.129974
  0
LINE
  8
0
 10
-67.739922
 20
24.329971
 11
-77.539909
 21
24.329971
  0
LINE
  8
0
 10
-77.539902
 20
24.329975
 11
-77.539902
 21
23.129978
  0
LINE
  8
0
 10
-75.139908
 20
25.029980
 11
-75.139908
 21
24.329975
  0
LINE
  8
0
 10
-70.139908
 20
25.029980
 11
-70.139908
 21
24.329975
  0
LINE
  8
0
 10
-68.639915
 20
25.029976
 11
-76.639915
 21
25.029976
  0
LINE
  8
0
 10
-68.639908
 20
25.829975
 11
-68.639908
 21
25.029980
  0
LINE
  8
0
 10
-76.639908
 20
25.829990
 11
-76.639908
 21
25.029980
  0
LINE
  8
0
 10
-68.639915
 20
25.829971
 11
-76.639915
 21
25.829971
  0
LINE
  8
0
 10
-76.940163
 20
27.829920
 11
-76.640160
 21
25.829929
  0
LINE
  8
0
 10
-68.339935
 20
27.829983
 11
-68.639931
 21
25.829987
  0
LINE
  8
0
 10
-68.339912
 20
27.829971
 11
-76.939903
 21
27.829971
  0
LINE
  8
0
 10
-68.339905
 20
38.229977
 11
-68.339905
 21
27.829975
  0
LINE
  8
0
 10
-68.339905
 20
32.529957
 11
-69.339905
 21
33.107307
  0
LINE
  8
0
 10
-68.339912
 20
32.529976
 11
-76.939903
 21
32.529976
  0
LINE
  8
0
 10
-69.339912
 20
33.107323
 11
-75.939903
 21
33.107323
  0
LINE
  8
0
 10
-76.940102
 20
32.530197
 11
-75.940102
 21
33.107552
  0
LINE
  8
0
 10
-76.939896
 20
34.229977
 11
-76.939896
 21
27.829975
  0
LINE
  8
0
 10
-123.439919
 20
54.843227
 11
-123.439919
 21
21.616726
  0
LINE
  8
0
 10
-83.439911
 20
54.843227
 11
-83.439911
 21
21.616726
  0
LINE
  8
0
 10
-120.053169
 20
58.229969
 11
-86.826668
 21
58.229969
  0
LINE
  8
0
 10
-120.053169
 20
18.229969
 11
-86.826668
 21
18.229969
  0
LINE
  8
0
  6
CENTER
 62
     2
 10
-119.439919
 20
24.948208
 11
-119.439919
 21
19.571217
  0
LINE
  8
0
  6
CENTER
 62
     2
 10
-121.876656
 20
22.229973
 11
-116.759834
 21
22.229973
  0
LINE
  8
0
  6
CENTER
 62
     2
 10
-121.876656
 20
54.229969
 11
-116.759834
 21
54.229969
  0
LINE
  8
0
  6
CENTER
 62
     2
 10
-119.439919
 20
51.511745
 11
-119.439919
 21
56.888737
  0
LINE
  8
0
  6
CENTER
 62
     2
 10
-85.003181
 20
22.229973
 11
-90.120003
 21
22.229973
  0
LINE
  8
0
  6
CENTER
 62
     2
 10
-87.439911
 20
24.948208
 11
-87.439911
 21
19.571217
  0
LINE
  8
0
  6
CENTER
 62
     2
 10
-85.003181
 20
54.229969
 11
-90.120003
 21
54.229969
  0
LINE
  8
0
  6
CENTER
 62
     2
 10
-87.439911
 20
51.511745
 11
-87.439911
 21
56.888737
  0
LINE
  8
0
 10
-105.439911
 20
58.229977
 11
-105.439911
 21
53.229977
  0
LINE
  8
0
 10
-101.439911
 20
58.229977
 11
-101.439911
 21
53.229977
  0
LINE
  8
0
 10
-18.939911
 20
58.229973
 11
-1.539902
 21
58.229973
  0
LINE
  8
0
 10
3.060089
 20
18.229973
 11
6.060089
 21
18.229973
  0
LINE
  8
0
 10
-18.939911
 20
18.229973
 11
-1.539917
 21
18.229973
  0
LINE
  8
0
 10
3.060089
 20
58.229973
 11
6.060089
 21
58.229973
  0
LINE
  8
0
  6
CENTER
 62
     2
 10
-22.400787
 20
38.229977
 11
8.830292
 21
38.229977
  0
LINE
  8
0
 10
-9.039925
 20
23.129978
 11
-18.839928
 21
23.129978
  0
LINE
  8
0
 10
-9.039909
 20
24.329971
 11
-9.039909
 21
23.129974
  0
LINE
  8
0
 10
-18.839912
 20
24.329971
 11
-18.839912
 21
23.129974
  0
LINE
  8
0
 10
-9.939926
 20
25.029980
 11
-17.939926
 21
25.029980
  0
LINE
  8
0
 10
-9.039925
 20
24.329975
 11
-18.839928
 21
24.329975
  0
LINE
  8
0
 10
-17.939911
 20
25.829987
 11
-17.939911
 21
25.029976
  0
LINE
  8
0
 10
-9.939911
 20
25.829971
 11
-9.939911
 21
25.029976
  0
LINE
  8
0
 10
-9.639915
 20
32.529976
 11
-9.639915
 21
27.829971
  0
LINE
  8
0
 10
-18.239906
 20
32.529976
 11
-18.239906
 21
27.829971
  0
LINE
  8
0
 10
-9.939926
 20
25.829975
 11
-17.939926
 21
25.829975
  0
LINE
  8
0
 10
-9.639923
 20
32.529980
 11
-13.439926
 21
32.529980
  0
LINE
  8
0
 10
-9.639923
 20
27.829975
 11
-18.239929
 21
27.829975
  0
LINE
  8
0
 10
-9.639909
 20
27.829994
 11
-9.939910
 21
25.829983
  0
LINE
  8
0
 10
-18.239925
 20
27.829985
 11
-17.939926
 21
25.829992
  0
LINE
  8
0
 10
-18.239864
 20
32.529896
 11
-17.239857
 21
33.107250
  0
LINE
  8
0
 10
-9.639924
 20
32.529972
 11
-10.639925
 21
33.107323
  0
LINE
  8
0
 10
-10.639923
 20
33.107327
 11
-13.439926
 21
33.107327
  0
LINE
  8
0
 10
-17.939903
 20
40.539375
 11
-17.939903
 21
35.920578
  0
LINE
  8
0
 10
-17.939936
 20
35.920536
 11
-17.103474
 21
35.437603
  0
LINE
  8
0
 10
-10.776366
 20
35.437588
 11
-9.939887
 21
35.920528
  0
LINE
  8
0
 10
-9.939873
 20
35.920570
 11
-9.939873
 21
40.539368
  0
LINE
  8
0
 10
-9.939874
 20
40.539448
 11
-13.939858
 21
42.848843
  0
LINE
  8
0
 10
-13.939953
 20
42.848816
 11
-17.939957
 21
40.539413
  0
LINE
  8
0
 10
-10.639935
 20
33.107361
 11
-10.939937
 21
38.230011
  0
LINE
  8
0
 10
-17.239916
 20
33.107311
 11
-16.939911
 21
38.229958
  0
LINE
  8
0
 10
-13.439911
 20
42.198601
 11
-13.439911
 21
32.529976
  0
LINE
  8
0
 10
-14.439911
 20
42.198601
 11
-14.439911
 21
32.529976
  0
LINE
  8
0
 10
-17.239922
 20
33.107327
 11
-14.439926
 21
33.107327
  0
LINE
  8
0
 10
-18.239922
 20
32.529980
 11
-14.439926
 21
32.529980
  0
LINE
  8
0
 10
-16.939919
 20
25.029976
 11
-16.939919
 21
24.329971
  0
LINE
  8
0
 10
-9.939919
 20
35.920532
 11
-9.939919
 21
32.703171
  0
LINE
  8
0
 10
-10.939903
 20
25.029976
 11
-10.939903
 21
24.329971
  0
LINE
  8
0
 10
-18.939911
 20
18.229980
 11
-18.939911
 21
58.229980
  0
LINE
  8
0
 10
-9.939911
 20
58.229980
 11
-9.939911
 21
32.703117
  0
LINE
  8
0
 10
-0.939919
 20
19.729980
 11
-0.939919
 21
56.729980
  0
LINE
  8
0
 10
-1.539909
 20
18.229980
 11
-1.539909
 21
58.229980
  0
LINE
  8
0
 10
6.060081
 20
18.229980
 11
6.060081
 21
58.229980
  0
LINE
  8
0
 10
3.060081
 20
18.229980
 11
3.060081
 21
58.229980
  0
LINE
  8
0
 10
-12.939911
 20
18.229980
 11
-12.939911
 21
23.129982
  0
LINE
  8
0
 10
-12.939911
 20
58.229980
 11
-12.939911
 21
42.729980
  0
LINE
  8
0
 10
3.060089
 20
21.616722
 11
6.060089
 21
21.616722
  0
LINE
  8
0
 10
-18.939911
 20
54.843224
 11
-12.939911
 21
54.843224
  0
LINE
  8
0
 10
3.060089
 20
54.843224
 11
6.060089
 21
54.843224
  0
LINE
  8
0
 10
-18.939911
 20
21.616722
 11
-12.939911
 21
21.616722
  0
LINE
  8
0
 10
-9.939911
 20
23.129982
 11
-9.939911
 21
18.229980
  0
LINE
  8
0
 10
-0.939911
 20
19.729973
 11
3.060089
 21
19.729973
  0
LINE
  8
0
 10
-0.939911
 20
56.729973
 11
3.060089
 21
56.729973
  0
LINE
  8
0
 10
-12.939911
 20
42.729977
 11
-9.939911
 21
42.729977
  0
LINE
  8
0
  6
CENTER
 62
     2
 10
-26.035717
 20
22.229977
 11
9.758553
 21
22.229977
  0
LINE
  8
0
  6
CENTER
 62
     2
 10
-25.590515
 20
54.229977
 11
9.669512
 21
54.229977
  0
LINE
  8
0
 10
-71.639915
 20
-55.670013
 11
-73.639915
 21
-55.670013
  0
LINE
  8
0
 10
-71.639915
 20
-47.870018
 11
-73.639915
 21
-47.870018
  0
LINE
  8
0
 10
-75.939934
 20
-47.770100
 11
-75.582878
 21
-48.388538
  0
LINE
  8
0
 10
-82.039917
 20
-49.020012
 11
-82.039917
 21
-54.520020
  0
LINE
  8
0
 10
-76.939911
 20
-47.770012
 11
-76.939911
 21
-49.691551
  0
LINE
  8
0
 10
-80.789917
 20
-55.770020
 11
-75.939911
 21
-55.770020
  0
LINE
  8
0
 10
-80.789909
 20
-47.770020
 11
-75.939911
 21
-47.770020
  0
LINE
  8
0
 10
-82.039948
 20
-54.520039
 11
-80.789948
 21
-55.770039
  0
LINE
  8
0
 10
-82.039955
 20
-49.020004
 11
-80.789948
 21
-47.769997
  0
LINE
  8
0
 10
-77.539917
 20
-51.770020
 11
-80.432648
 21
-51.770020
  0
LINE
  8
0
 10
-75.940071
 20
-55.769958
 11
-75.583015
 21
-55.151527
  0
LINE
  8
0
 10
-75.939911
 20
-47.770012
 11
-75.939911
 21
-48.620407
  0
LINE
  8
0
 10
-75.939911
 20
-55.770020
 11
-75.939911
 21
-54.919617
  0
LINE
  8
0
 10
-76.939911
 20
-53.848480
 11
-76.939911
 21
-55.770020
  0
LINE
  8
0
 10
-83.439911
 20
-54.520020
 11
-82.039917
 21
-54.520020
  0
LINE
  8
0
 10
-83.439911
 20
-49.020020
 11
-82.039917
 21
-49.020020
  0
LINE
  8
0
  6
CENTER
 62
     2
 10
-103.439911
 20
-43.410011
 11
-103.439911
 21
-74.070007
  0
LINE
  8
0
 10
-123.439911
 20
-46.770020
 11
-83.439911
 21
-46.770020
  0
LINE
  8
0
 10
-120.053162
 20
-46.770012
 11
-120.053162
 21
-52.770012
  0
LINE
  8
0
 10
-123.439911
 20
-46.770012
 11
-123.439911
 21
-64.170013
  0
LINE
  8
0
 10
-123.439911
 20
-52.770020
 11
-107.939911
 21
-52.770020
  0
LINE
  8
0
 10
-83.439911
 20
-55.770020
 11
-123.439911
 21
-55.770020
  0
LINE
  8
0
 10
-83.439911
 20
-52.770020
 11
-98.939911
 21
-52.770020
  0
LINE
  8
0
 10
-86.826660
 20
-46.770012
 11
-86.826660
 21
-52.770012
  0
LINE
  8
0
 10
-83.439911
 20
-46.770012
 11
-83.439911
 21
-64.170013
  0
LINE
  8
0
 10
-123.439911
 20
-64.170013
 11
-83.439911
 21
-64.170013
  0
LINE
  8
0
 10
-121.939911
 20
-64.770020
 11
-84.939911
 21
-64.770020
  0
LINE
  8
0
 10
-123.439911
 20
-68.770020
 11
-83.439911
 21
-68.770020
  0
LINE
  8
0
 10
-83.439911
 20
-68.770020
 11
-83.439911
 21
-71.770020
  0
LINE
  8
0
 10
-123.439911
 20
-71.770020
 11
-83.439911
 21
-71.770020
  0
LINE
  8
0
 10
-86.826660
 20
-68.770020
 11
-86.826660
 21
-71.770020
  0
LINE
  8
0
 10
-120.053162
 20
-68.770004
 11
-120.053162
 21
-71.770004
  0
LINE
  8
0
 10
-123.439911
 20
-68.770004
 11
-123.439911
 21
-71.770004
  0
LINE
  8
0
 10
-121.939911
 20
-64.770004
 11
-121.939911
 21
-68.770004
  0
LINE
  8
0
 10
-84.939911
 20
-64.770020
 11
-84.939911
 21
-68.770020
  0
LINE
  8
0
 10
-107.939911
 20
-52.770012
 11
-107.939911
 21
-55.770020
  0
LINE
  8
0
 10
-98.939911
 20
-52.770012
 11
-98.939911
 21
-55.770020
  0
LINE
  8
0
  6
CENTER
 62
     2
 10
-119.439911
 20
-42.013031
 11
-119.439911
 21
-76.256668
  0
LINE
  8
0
  6
CENTER
 62
     2
 10
-87.439911
 20
-41.875786
 11
-87.439911
 21
-76.393921
  0
LINE
  8
0
  6
CENTER
 62
     2
 10
86.560089
 20
63.831814
 11
86.560089
 21
14.089954
  0
LINE
  8
0
  6
CENTER
 62
     2
 10
111.950241
 20
38.229965
 11
46.726707
 21
38.229965
  0
LINE
  8
0
 10
65.160080
 20
40.979950
 11
65.160080
 21
35.479950
  0
LINE
  8
0
 10
60.060074
 20
42.229942
 11
60.060074
 21
34.229942
  0
LINE
  8
0
 10
60.417572
 20
33.611301
 11
60.060307
 21
34.230106
  0
LINE
  8
0
 10
63.552811
 20
33.611160
 11
60.417343
 21
33.611160
  0
LINE
  8
0
 10
63.552811
 20
35.920547
 11
60.417362
 21
35.920547
  0
LINE
  8
0
 10
63.552811
 20
40.539352
 11
60.417351
 21
40.539352
  0
LINE
  8
0
 10
60.417408
 20
42.848717
 11
60.060154
 21
42.229935
  0
LINE
  8
0
 10
63.552811
 20
42.848770
 11
60.417343
 21
42.848770
  0
LINE
  8
0
 10
66.560089
 20
35.479965
 11
65.160080
 21
35.479965
  0
LINE
  8
0
 10
66.560089
 20
40.979965
 11
65.160080
 21
40.979965
  0
LINE
  8
0
 10
66.560089
 20
40.979950
 11
66.560089
 21
35.479950
  0
LINE
  8
0
 10
65.160103
 20
35.479980
 11
63.808010
 21
34.127895
  0
LINE
  8
0
 10
65.160217
 20
40.980122
 11
63.808136
 21
42.332195
  0
LINE
  8
0
 10
60.060074
 20
42.229965
 11
55.460083
 21
42.229965
  0
LINE
  8
0
 10
60.060074
 20
34.229965
 11
59.060074
 21
34.229965
  0
LINE
  8
0
 10
59.060074
 20
41.229965
 11
55.460083
 21
41.229965
  0
LINE
  8
0
 10
52.460079
 20
38.229939
 11
52.460079
 21
33.107288
  0
LINE
  8
0
 10
59.060074
 20
42.229942
 11
59.060074
 21
33.107292
  0
LINE
  8
0
 10
50.860088
 20
24.329945
 11
50.860088
 21
23.129948
  0
LINE
  8
0
 10
50.860092
 20
23.129959
 11
60.660072
 21
23.129959
  0
LINE
  8
0
 10
50.860092
 20
24.329956
 11
60.660072
 21
24.329956
  0
LINE
  8
0
 10
60.660080
 20
24.329948
 11
60.660080
 21
23.129951
  0
LINE
  8
0
 10
53.260082
 20
25.029942
 11
53.260082
 21
24.329945
  0
LINE
  8
0
 10
51.760086
 20
25.029953
 11
59.760078
 21
25.029953
  0
LINE
  8
0
 10
51.760082
 20
25.829945
 11
51.760082
 21
25.029942
  0
LINE
  8
0
 10
59.760086
 20
25.829964
 11
59.760086
 21
25.029945
  0
LINE
  8
0
 10
51.760086
 20
25.829956
 11
59.760086
 21
25.829956
  0
LINE
  8
0
 10
60.060215
 20
27.829954
 11
59.760216
 21
25.829960
  0
LINE
  8
0
 10
51.460136
 20
27.829933
 11
51.760136
 21
25.829939
  0
LINE
  8
0
 10
51.460083
 20
27.829956
 11
60.060074
 21
27.829956
  0
LINE
  8
0
 10
51.460079
 20
38.229939
 11
51.460079
 21
27.829945
  0
LINE
  8
0
 10
51.459984
 20
32.530045
 11
52.459976
 21
33.107391
  0
LINE
  8
0
 10
51.460083
 20
32.529953
 11
60.060074
 21
32.529953
  0
LINE
  8
0
 10
52.460083
 20
33.107315
 11
59.060074
 21
33.107315
  0
LINE
  8
0
 10
60.060188
 20
32.530052
 11
59.060181
 21
33.107407
  0
LINE
  8
0
 10
60.060074
 20
34.229942
 11
60.060074
 21
27.829948
  0
LINE
  8
0
 10
58.260086
 20
25.029945
 11
58.260086
 21
24.329948
  0
LINE
  8
0
 10
103.173340
 20
18.229967
 11
69.946838
 21
18.229967
  0
LINE
  8
0
 10
66.560089
 20
54.843201
 11
66.560089
 21
21.616699
  0
LINE
  8
0
 10
103.173332
 20
58.229969
 11
69.946831
 21
58.229969
  0
LINE
  8
0
 10
106.560089
 20
54.843208
 11
106.560089
 21
21.616707
  0
LINE
  8
0
  6
CENTER
 62
     2
 10
102.560089
 20
25.303085
 11
102.560089
 21
19.149612
  0
LINE
  8
0
  6
CENTER
 62
     2
 10
90.997528
 20
22.229937
 11
83.861282
 21
22.229937
  0
LINE
  8
0
  6
CENTER
 62
     2
 10
102.560089
 20
51.156830
 11
102.560089
 21
57.310303
  0
LINE
  8
0
  6
CENTER
 62
     2
 10
105.509979
 20
54.229969
 11
99.439667
 21
54.229969
  0
LINE
  8
0
  6
CENTER
 62
     2
 10
70.560089
 20
25.303078
 11
70.560089
 21
19.149605
  0
LINE
  8
0
  6
CENTER
 62
     2
 10
67.610199
 20
22.229965
 11
73.680511
 21
22.229965
  0
LINE
  8
0
  6
CENTER
 62
     2
 10
70.560089
 20
51.156822
 11
70.560089
 21
57.310295
  0
LINE
  8
0
  6
CENTER
 62
     2
 10
67.610199
 20
54.229969
 11
73.680511
 21
54.229969
  0
LINE
  8
0
  6
CENTER
 62
     2
 10
102.560089
 20
42.667381
 11
102.560089
 21
35.531151
  0
LINE
  8
0
  6
CENTER
 62
     2
 10
84.186432
 20
54.229969
 11
90.997513
 21
54.229969
  0
LINE
  8
0
  6
CENTER
 62
     2
 10
70.560074
 20
35.856293
 11
70.560074
 21
42.667389
  0
LINE
  8
0
  6
CENTER
 62
     2
 10
105.509979
 20
22.229965
 11
99.439667
 21
22.229965
  0
LINE
  8
0
 10
-194.250000
 20
132.600006
 11
194.800003
 21
132.600006
  0
LINE
  8
0
 10
194.800003
 20
132.600006
 11
194.800003
 21
-133.500000
  0
LINE
  8
0
 10
-194.250000
 20
132.600006
 11
-194.250000
 21
-133.500000
  0
LINE
  8
0
 10
-194.250000
 20
-133.500000
 11
194.800003
 21
-133.500000
  0
LINE
  8
0
 10
109.800003
 20
-118.500000
 11
109.800003
 21
-133.500000
  0
LINE
  8
0
 10
109.800003
 20
-118.500000
 11
194.800003
 21
-118.500000
  0
LINE
  8
0
 10
109.800003
 20
132.600006
 11
109.800003
 21
117.600006
  0
LINE
  8
0
 10
109.800003
 20
117.600006
 11
194.800003
 21
117.600006
  0
LINE
  8
0
 10
-194.250000
 20
117.600006
 11
-109.250000
 21
117.600006
  0
LINE
  8
0
 10
-109.250000
 20
132.600006
 11
-109.250000
 21
117.600006
  0
CIRCLE
  8
0
 62
     2
 10
-87.439919
 20
54.229969
 40
1.500000
  0
ARC
  8
0
 10
-103.439919
 20
53.229969
 40
2.000000
 50
180.000000
 51
0.000000
  0
ARC
  8
0
 10
-84.582649
 20
38.229969
 40
7.642735
 50
342.412048
 51
17.587936
  0
ARC
  8
0
 10
-78.984581
 20
34.765865
 40
2.044662
 50
0.000000
 51
34.384254
  0
ARC
  8
0
 10
-78.745262
 20
34.765865
 40
2.044659
 50
145.615753
 51
214.384171
  0
ARC
  8
0
 10
-78.984581
 20
41.694080
 40
2.044659
 50
325.615753
 51
359.999878
  0
ARC
  8
0
 10
-78.745262
 20
41.694080
 40
2.044659
 50
145.615753
 51
214.384171
  0
ARC
  8
0
 10
-73.147179
 20
38.229973
 40
7.642736
 50
162.412003
 51
197.587906
  0
ARC
  8
0
 10
-72.339912
 20
38.229973
 40
3.000000
 50
0.000000
 51
90.000000
  0
ARC
  8
0
 10
-72.339912
 20
38.229973
 40
4.000000
 50
0.000000
 51
90.000000
  0
ARC
  8
0
 10
-103.439919
 20
38.229969
 40
25.999996
 50
219.715134
 51
230.284882
  0
ARC
  8
0
 10
-103.439919
 20
38.229969
 40
25.999996
 50
309.715118
 51
320.284851
  0
ARC
  8
0
 10
-103.439919
 20
38.229969
 40
26.000002
 50
129.715103
 51
140.284805
  0
ARC
  8
0
 10
-103.439919
 20
38.229969
 40
26.000002
 50
39.715088
 51
50.284893
  0
CIRCLE
  8
0
 62
     2
 10
-119.439919
 20
22.229969
 40
1.500000
  0
CIRCLE
  8
0
 62
     2
 10
-119.439919
 20
54.229969
 40
1.500000
  0
CIRCLE
  8
0
 62
     2
 10
-87.439919
 20
22.229969
 40
1.500000
  0
CIRCLE
  8
0
 10
-87.439911
 20
54.229969
 40
1.250000
  0
CIRCLE
  8
0
 10
-119.439919
 20
54.229969
 40
1.250000
  0
CIRCLE
  8
0
 10
-87.439911
 20
22.229973
 40
1.250000
  0
CIRCLE
  8
0
 10
-119.439919
 20
22.229973
 40
1.250000
  0
ARC
  8
0
 10
-13.939911
 20
38.229973
 40
4.000001
 50
321.831024
 51
218.169006
  0
ARC
  8
0
 10
-13.939911
 20
38.229973
 40
3.000002
 50
99.593987
 51
180.000153
  0
ARC
  8
0
 10
-13.939911
 20
38.229973
 40
3.000000
 50
359.999847
 51
80.406013
  0
CIRCLE
  8
0
 10
-72.639915
 20
-51.770020
 40
2.000000
  0
ARC
  8
0
 10
-73.639915
 20
-51.770020
 40
3.900002
 50
90.000000
 51
270.000000
  0
ARC
  8
0
 10
-75.013199
 20
-49.770020
 40
5.776717
 50
159.743790
 51
200.256042
  0
ARC
  8
0
 10
-82.716629
 20
-49.770020
 40
5.776721
 50
0.770055
 51
20.256042
  0
ARC
  8
0
 10
-75.013199
 20
-53.770020
 40
5.776715
 50
159.743820
 51
200.256073
  0
ARC
  8
0
 10
-82.716629
 20
-53.770020
 40
5.776721
 50
339.743896
 51
359.230011
  0
ARC
  8
0
 10
-72.639915
 20
-51.770020
 40
4.300002
 50
60.153881
 51
119.846123
  0
ARC
  8
0
 10
-72.639915
 20
-51.770020
 40
4.299998
 50
240.153854
 51
299.846130
  0
ARC
  8
0
 10
-71.639915
 20
-51.770020
 40
3.900002
 50
270.000000
 51
90.000000
  0
CIRCLE
  8
0
 10
86.560089
 20
22.229961
 40
1.500000
  0
CIRCLE
  8
0
 10
102.560089
 20
22.229965
 40
1.750000
  0
CIRCLE
  8
0
 10
70.560089
 20
22.229956
 40
1.750000
  0
CIRCLE
  8
0
 10
102.560089
 20
54.229973
 40
1.750000
  0
CIRCLE
  8
0
 10
70.560081
 20
54.229958
 40
1.750000
  0
CIRCLE
  8
0
 10
102.560089
 20
38.229965
 40
1.500000
  0
CIRCLE
  8
0
 10
86.560089
 20
54.229961
 40
1.500000
  0
CIRCLE
  8
0
 10
70.560089
 20
38.229958
 40
1.500000
  0
ARC
  8
0
 10
67.702820
 20
38.229958
 40
7.642736
 50
162.412003
 51
197.587906
  0
ARC
  8
0
 10
62.104752
 20
34.765842
 40
2.044659
 50
145.615753
 51
180.000000
  0
ARC
  8
0
 10
61.865433
 20
34.765842
 40
2.044659
 50
325.615753
 51
34.384254
  0
ARC
  8
0
 10
62.104752
 20
41.694069
 40
2.044659
 50
180.000000
 51
214.384247
  0
ARC
  8
0
 10
61.865433
 20
41.694069
 40
2.044659
 50
325.615753
 51
34.384106
  0
ARC
  8
0
 10
56.267349
 20
38.229942
 40
7.642735
 50
342.412048
 51
17.587936
  0
ARC
  8
0
 10
55.460083
 20
38.229942
 40
3.000000
 50
90.000000
 51
179.999924
  0
ARC
  8
0
 10
55.460083
 20
38.229942
 40
4.000000
 50
90.000000
 51
179.999939
  0
ARC
  8
0
 10
86.560089
 20
38.229961
 40
25.999998
 50
309.715118
 51
320.284821
  0
ARC
  8
0
 10
86.560089
 20
38.229961
 40
25.999996
 50
219.715103
 51
230.284821
  0
ARC
  8
0
 10
86.560089
 20
38.229961
 40
26.000000
 50
129.715118
 51
140.284836
  0
ARC
  8
0
 10
86.560089
 20
38.229961
 40
26.000000
 50
39.715137
 51
50.284836
  0
TEXT
  8
0
 10
136.157150
 20
122.050003
 40
4.500000
  1
Ver 1.0
 50
0.000000
 41
1.052631
 51
0.000000
  7
STANDARD
  0
TEXT
  8
0
 10
113.700279
 20
-130.669998
 40
6.300000
  1
KOGANEI CORP.
 50
0.000000
 41
1.052632
 51
0.000000
  7
STANDARD
  0
TEXT
  8
0
 10
-167.892654
 20
122.050003
 40
4.500000
  1
Ver 1.0
 50
0.000000
 41
1.052632
 51
0.000000
  7
STANDARD
  0
TEXT
  8
0
 10
-186.892654
 20
104.550003
 40
4.500000
  1
MODEL:SHM61J
 50
0.000000
 41
1.052632
 51
0.000000
  7
STANDARD
  0
ENDSEC
  0
EOF
