  0
SECTION
  2
HEADER
  0
ENDSEC
  0
SECTION
  2
TABLES
  0
TABLE
  2
LTYPE
 70
     4
  0
LTYPE
  2
CONTINUOUS
 70
    64
  3
Solid line
 72
    65
 73
     0
 40
0.000000
  0
LTYPE
  2
DASHED
 70
    64
  3
__ __ __ __ __ __ __ __ __ __ __ __ __ __ __
 72
    65
 73
     2
 40
3.500000
 49
2.000000
 49
-1.500000
  0
LTYPE
  2
CENTER
 70
    64
  3
____ _ ____ _ ____ _ ____ _ ____ _ ____ _ ____
 72
    65
 73
     4
 40
17.500000
 49
13.000000
 49
-1.500000
 49
1.500000
 49
-1.500000
  0
LTYPE
  2
PHANTOM
 70
    64
  3
_____ _ _ _____ _ _ _____ _ _ _____ _ _ ____  
 72
    65
 73
     6
 40
15.500000
 49
8.000000
 49
-1.500000
 49
1.500000
 49
-1.500000
 49
1.500000
 49
-1.500000
  0
LTYPE
  2
DASHED1
 70
    64
  3
__ __ __ __ __ __ __ __ __ __ __ __ __ __ __
 72
    65
 73
     2
 40
1.500000
 49
1.000000
 49
-0.500000
  0
LTYPE
  2
DASHED2
 70
    64
  3
__ __ __ __ __ __ __ __ __ __ __ __ __ __ __
 72
    65
 73
     2
 40
3.500000
 49
2.500000
 49
-1.000000
  0
LTYPE
  2
DASHED3
 70
    64
  3
__ __ __ __ __ __ __ __ __ __ __ __ __ __ __
 72
    65
 73
     2
 40
6.000000
 49
4.000000
 49
-2.000000
  0
LTYPE
  2
DASHED4
 70
    64
  3
__ __ __ __ __ __ __ __ __ __ __ __ __ __ __
 72
    65
 73
     2
 40
12.000000
 49
10.000000
 49
-2.000000
  0
LTYPE
  2
DASHED5
 70
    64
  3
__ __ __ __ __ __ __ __ __ __ __ __ __ __ __
 72
    65
 73
     2
 40
17.000000
 49
15.000000
 49
-2.000000
  0
LTYPE
  2
DASHED6
 70
    64
  3
__ __ __ __ __ __ __ __ __ __ __ __ __ __ __
 72
    65
 73
     2
 40
29.000000
 49
27.000000
 49
-2.000000
  0
LTYPE
  2
PHANTOM1
 70
    64
  3
_____ _ _ _____ _ _ _____ _ _ _____ _ _ ____  
 72
    65
 73
     6
 40
31.000000
 49
25.000000
 49
-1.500000
 49
1.000000
 49
-1.000000
 49
1.000000
 49
-1.500000
  0
LTYPE
  2
PHANTOM2
 70
    64
  3
_____ _ _ _____ _ _ _____ _ _ _____ _ _ ____  
 72
    65
 73
     6
 40
36.000000
 49
27.000000
 49
-1.500000
 49
2.500000
 49
-1.000000
 49
2.500000
 49
-1.500000
  0
LTYPE
  2
PHANTOM3
 70
    64
  3
_____ _ _ _____ _ _ _____ _ _ _____ _ _ ____  
 72
    65
 73
     6
 40
78.000000
 49
64.000000
 49
-2.000000
 49
4.000000
 49
-2.000000
 49
4.000000
 49
-2.000000
  0
LTYPE
  2
CENTER1
 70
    64
  3
____ _ ____ _ ____ _ ____ _ ____ _ ____ _ ____
 72
    65
 73
     4
 40
19.000000
 49
14.000000
 49
-1.000000
 49
3.000000
 49
-1.000000
  0
LTYPE
  2
CENTER2
 70
    64
  3
____ _ ____ _ ____ _ ____ _ ____ _ ____ _ ____
 72
    65
 73
     4
 40
28.500000
 49
25.000000
 49
-1.000000
 49
1.500000
 49
-1.000000
  0
LTYPE
  2
CENTER3
 70
    64
  3
____ _ ____ _ ____ _ ____ _ ____ _ ____ _ ____
 72
    65
 73
     4
 40
31.500000
 49
27.000000
 49
-1.000000
 49
2.500000
 49
-1.000000
  0
LTYPE
  2
CENTER4
 70
    64
  3
____ _ ____ _ ____ _ ____ _ ____ _ ____ _ ____
 72
    65
 73
     4
 40
50.000000
 49
45.000000
 49
-1.000000
 49
3.000000
 49
-1.000000
  0
LTYPE
  2
CENTER5
 70
    64
  3
____ _ ____ _ ____ _ ____ _ ____ _ ____ _ ____
 72
    65
 73
     4
 40
100.000000
 49
92.000000
 49
-2.000000
 49
4.000000
 49
-2.000000
  0
LTYPE
  2
SBK1
 70
    64
  3
______ _ _ _ ______ _ _ _ ______ _ _ _ _____  
 72
    65
 73
     8
 40
60.500000
 49
45.000000
 49
-2.000000
 49
2.500000
 49
-2.000000
 49
2.500000
 49
-2.000000
 49
2.500000
 49
-2.000000
  0
LTYPE
  2
SBK2
 70
    64
  3
______ _ _ _ ______ _ _ _ ______ _ _ _ _____  
 72
    65
 73
     8
 40
84.000000
 49
64.000000
 49
-2.000000
 49
4.000000
 49
-2.000000
 49
4.000000
 49
-2.000000
 49
4.000000
 49
-2.000000
  0
LTYPE
  2
STCH
 70
    64
  3
__ __ __ __ __ __ __ __ __ __ __ __ __ __ __
 72
    65
 73
     2
 40
3.000000
 49
1.000000
 49
-2.000000
  0
LTYPE
  2
MTCH
 70
    64
  3
_____ _ _ _____ _ _ _____ _ _ _____ _ _ ____  
 72
    65
 73
     6
 40
80.000000
 49
66.000000
 49
-2.000000
 49
4.000000
 49
-2.000000
 49
4.000000
 49
-2.000000
  0
ENDTAB
  0
TABLE
  2
LAYER
 70
     1
  0
LAYER
  2
0
 70
     0
 62
     7
  6
CONTINUOUS
  0
ENDTAB
  0
TABLE
  2
STYLE
 70
     1
  0
STYLE
  2
STANDARD
 70
     0
 40
0.000000
 41
1.000000
 50
0.000000
 71
     0
 42
0.200000
  3
txt
  4
BIGFONT
  0
ENDTAB
  0
TABLE
  2
VIEW
 70
     0
  0
ENDTAB
  0
ENDSEC
  0
SECTION
  2
BLOCKS
  0
ENDSEC
  0
SECTION
  2
ENTITIES
  0
LINE
  8
0
 10
-281.250000
 20
195.500000
 11
282.099976
 21
195.500000
  0
LINE
  8
0
 10
-281.250000
 20
195.500000
 11
-281.250000
 21
-195.000000
  0
LINE
  8
0
 10
282.099976
 20
195.500000
 11
282.099976
 21
-195.000000
  0
LINE
  8
0
 10
-281.250000
 20
-195.000000
 11
282.099976
 21
-195.000000
  0
LINE
  8
0
 10
162.099976
 20
-175.000000
 11
162.099976
 21
-195.000000
  0
LINE
  8
0
 10
162.099976
 20
-175.000000
 11
282.099976
 21
-175.000000
  0
LINE
  8
0
 10
162.099976
 20
175.500000
 11
282.099976
 21
175.500000
  0
LINE
  8
0
 10
-281.250000
 20
175.500000
 11
-161.250000
 21
175.500000
  0
LINE
  8
0
 10
162.099976
 20
195.500000
 11
162.099976
 21
175.500000
  0
LINE
  8
0
 10
-161.250000
 20
195.500000
 11
-161.250000
 21
175.500000
  0
LINE
  8
0
  6
CENTER
 62
     2
 10
145.999985
 20
111.450027
 11
145.999985
 21
-1.109974
  0
LINE
  8
0
 10
93.799957
 20
57.750027
 11
93.799957
 21
52.250027
  0
LINE
  8
0
 10
88.699951
 20
59.000057
 11
88.699951
 21
51.000050
  0
LINE
  8
0
 10
89.057518
 20
50.381367
 11
88.700249
 21
51.000175
  0
LINE
  8
0
 10
92.192749
 20
50.381187
 11
89.057281
 21
50.381187
  0
LINE
  8
0
 10
92.192749
 20
52.690590
 11
89.157288
 21
52.690590
  0
LINE
  8
0
 10
92.192749
 20
57.309395
 11
89.157288
 21
57.309395
  0
LINE
  8
0
 10
89.057289
 20
59.618877
 11
88.700043
 21
59.000111
  0
LINE
  8
0
 10
92.192734
 20
59.618797
 11
89.057266
 21
59.618797
  0
LINE
  8
0
 10
96.000031
 20
52.249992
 11
93.800018
 21
52.249992
  0
LINE
  8
0
 10
96.000031
 20
57.749992
 11
93.800018
 21
57.749992
  0
LINE
  8
0
 10
95.999969
 20
57.750034
 11
95.999969
 21
52.250034
  0
LINE
  8
0
 10
95.299957
 20
57.750027
 11
95.299957
 21
52.250027
  0
LINE
  8
0
 10
93.799965
 20
52.250092
 11
92.447876
 21
50.898006
  0
LINE
  8
0
 10
93.800163
 20
57.750175
 11
92.448074
 21
59.102264
  0
LINE
  8
0
 10
88.699997
 20
58.999992
 11
84.100006
 21
58.999992
  0
LINE
  8
0
 10
88.700012
 20
50.999992
 11
87.700012
 21
50.999992
  0
LINE
  8
0
 10
87.122681
 20
57.999992
 11
84.100021
 21
57.999992
  0
LINE
  8
0
 10
81.099976
 20
55.000053
 11
81.099976
 21
49.877403
  0
LINE
  8
0
 10
87.699951
 20
59.000057
 11
87.699951
 21
49.877399
  0
LINE
  8
0
 10
87.699966
 20
59.000107
 11
87.122604
 21
58.000088
  0
LINE
  8
0
 10
87.699974
 20
51.000000
 11
87.122627
 21
51.999992
  0
LINE
  8
0
 10
87.122620
 20
58.000057
 11
87.122620
 21
52.000050
  0
LINE
  8
0
 10
79.499969
 20
41.100060
 11
79.499969
 21
39.900047
  0
LINE
  8
0
 10
79.500031
 20
39.899986
 11
89.300018
 21
39.899986
  0
LINE
  8
0
 10
79.500031
 20
41.099998
 11
89.300018
 21
41.099998
  0
LINE
  8
0
 10
89.299957
 20
41.100060
 11
89.299957
 21
39.900047
  0
LINE
  8
0
 10
86.899963
 20
41.800056
 11
86.899963
 21
41.100060
  0
LINE
  8
0
 10
81.899963
 20
41.800056
 11
81.899963
 21
41.100060
  0
LINE
  8
0
 10
80.400024
 20
41.799995
 11
88.400024
 21
41.799995
  0
LINE
  8
0
 10
80.399963
 20
42.600060
 11
80.399963
 21
41.800056
  0
LINE
  8
0
 10
88.399963
 20
42.600056
 11
88.399963
 21
41.800056
  0
LINE
  8
0
 10
80.400024
 20
42.599998
 11
88.400024
 21
42.599998
  0
LINE
  8
0
 10
88.700226
 20
44.600014
 11
88.400223
 21
42.600018
  0
LINE
  8
0
 10
80.099930
 20
44.600067
 11
80.399925
 21
42.600060
  0
LINE
  8
0
 10
80.100021
 20
44.599998
 11
88.700012
 21
44.599998
  0
LINE
  8
0
 10
80.099976
 20
55.000053
 11
80.099976
 21
44.600060
  0
LINE
  8
0
 10
80.100044
 20
49.300037
 11
81.100037
 21
49.877384
  0
LINE
  8
0
 10
80.100021
 20
49.299995
 11
88.700012
 21
49.299995
  0
LINE
  8
0
 10
81.100021
 20
49.877342
 11
87.700012
 21
49.877342
  0
LINE
  8
0
 10
88.700172
 20
49.300262
 11
87.700172
 21
49.877617
  0
LINE
  8
0
 10
88.699951
 20
49.300037
 11
88.699951
 21
44.600056
  0
LINE
  8
0
  6
CENTER
 62
     2
 10
202.160034
 20
54.999992
 11
84.400024
 21
54.999992
  0
LINE
  8
0
 62
     2
 10
141.500031
 20
45.474060
 11
140.000031
 21
46.340088
  0
LINE
  8
0
 62
     2
 10
141.499847
 20
45.473797
 11
141.499847
 21
43.741772
  0
LINE
  8
0
 62
     2
 10
141.499939
 20
43.741867
 11
139.999939
 21
42.875839
  0
LINE
  8
0
 62
     2
 10
140.000061
 20
42.876003
 11
138.500061
 21
43.742031
  0
LINE
  8
0
 62
     2
 10
138.499817
 20
45.473843
 11
138.499817
 21
43.741787
  0
LINE
  8
0
 62
     2
 10
139.999832
 20
46.339939
 11
138.499863
 21
45.473927
  0
LINE
  8
0
 10
193.549988
 20
4.999992
 11
98.450058
 21
4.999992
  0
LINE
  8
0
 10
195.999969
 20
102.549973
 11
195.999969
 21
7.450031
  0
LINE
  8
0
 10
98.450043
 20
104.999985
 11
193.550003
 21
104.999985
  0
LINE
  8
0
 10
95.999969
 20
7.450077
 11
95.999969
 21
102.550018
  0
LINE
  8
0
  6
CENTER
 62
     2
 10
182.840012
 20
12.499992
 11
193.340012
 21
12.499992
  0
LINE
  8
0
  6
CENTER
 62
     2
 10
188.499985
 20
17.030018
 11
188.499985
 21
8.210011
  0
LINE
  8
0
 10
190.684036
 20
6.427035
 11
186.555542
 21
10.555540
  0
LINE
  8
0
 10
194.573120
 20
10.316099
 11
190.444626
 21
14.444599
  0
LINE
  8
0
  6
CENTER
 62
     2
 10
182.840012
 20
97.499985
 11
193.340012
 21
97.499985
  0
LINE
  8
0
  6
CENTER
 62
     2
 10
188.499985
 20
92.970016
 11
188.499985
 21
101.790024
  0
LINE
  8
0
 10
190.684021
 20
103.573067
 11
186.555496
 21
99.444534
  0
LINE
  8
0
 10
194.573120
 20
99.683990
 11
190.444611
 21
95.555481
  0
LINE
  8
0
  6
CENTER
 62
     2
 10
109.160019
 20
12.499992
 11
98.660019
 21
12.499992
  0
LINE
  8
0
  6
CENTER
 62
     2
 10
103.499969
 20
17.030033
 11
103.499969
 21
8.210026
  0
LINE
  8
0
 10
101.316032
 20
6.426977
 11
105.444557
 21
10.555495
  0
LINE
  8
0
 10
97.426910
 20
10.316082
 11
101.555420
 21
14.444589
  0
LINE
  8
0
  6
CENTER
 62
     2
 10
109.160019
 20
97.499985
 11
98.660019
 21
97.499985
  0
LINE
  8
0
  6
CENTER
 62
     2
 10
103.499969
 20
92.970032
 11
103.499969
 21
101.790039
  0
LINE
  8
0
 10
101.316124
 20
103.573181
 11
105.444656
 21
99.444649
  0
LINE
  8
0
 10
97.427025
 20
99.684113
 11
101.555527
 21
95.555603
  0
LINE
  8
0
  6
CENTER
 62
     2
 10
188.499969
 20
59.856525
 11
188.499969
 21
50.457020
  0
LINE
  8
0
  6
CENTER
 62
     2
 10
103.499969
 20
59.856541
 11
103.499969
 21
50.457035
  0
LINE
  8
0
  6
CENTER
 62
     2
 10
150.500198
 20
12.499992
 11
141.457016
 21
12.499992
  0
LINE
  8
0
  6
CENTER
 62
     2
 10
150.329849
 20
97.499985
 11
141.457016
 21
97.499985
  0
LINE
  8
0
 62
     2
 10
159.499985
 20
54.134037
 11
157.999985
 21
53.268009
  0
LINE
  8
0
 62
     2
 10
159.499893
 20
55.865993
 11
159.499893
 21
54.133968
  0
LINE
  8
0
 62
     2
 10
159.500061
 20
55.866280
 11
158.000061
 21
56.732307
  0
LINE
  8
0
 62
     2
 10
158.000137
 20
53.268223
 11
156.500122
 21
54.134251
  0
LINE
  8
0
 62
     2
 10
156.499863
 20
55.866039
 11
156.499863
 21
54.133984
  0
LINE
  8
0
 62
     2
 10
157.999969
 20
56.732136
 11
156.499985
 21
55.866123
  0
LINE
  8
0
 62
     2
 10
141.500031
 20
64.526505
 11
140.000031
 21
63.660477
  0
LINE
  8
0
 62
     2
 10
141.499969
 20
66.258408
 11
141.499969
 21
64.526382
  0
LINE
  8
0
 62
     2
 10
141.500168
 20
66.258713
 11
140.000168
 21
67.124741
  0
LINE
  8
0
 62
     2
 10
140.000183
 20
63.660645
 11
138.500168
 21
64.526672
  0
LINE
  8
0
 62
     2
 10
138.499939
 20
66.258453
 11
138.499939
 21
64.526398
  0
LINE
  8
0
 62
     2
 10
139.999954
 20
67.124580
 11
138.499985
 21
66.258568
  0
LINE
  8
0
  6
CENTER
 62
     2
 10
-178.000000
 20
107.693230
 11
-178.000000
 21
2.559975
  0
LINE
  8
0
 10
-181.000000
 20
104.999992
 11
-181.000000
 21
96.499992
  0
LINE
  8
0
 10
-175.000000
 20
104.999992
 11
-175.000000
 21
96.499992
  0
LINE
  8
0
 10
-125.799988
 20
57.749969
 11
-125.799988
 21
52.249969
  0
LINE
  8
0
 10
-120.699982
 20
58.999969
 11
-120.699982
 21
50.999969
  0
LINE
  8
0
 10
-121.057465
 20
50.381294
 11
-120.700195
 21
51.000103
  0
LINE
  8
0
 10
-124.192719
 20
50.381195
 11
-121.057251
 21
50.381195
  0
LINE
  8
0
 10
-124.192719
 20
52.690598
 11
-121.157257
 21
52.690598
  0
LINE
  8
0
 10
-124.192719
 20
57.309402
 11
-121.157257
 21
57.309402
  0
LINE
  8
0
 10
-121.057259
 20
59.618813
 11
-120.700005
 21
59.000031
  0
LINE
  8
0
 10
-124.192719
 20
59.618809
 11
-121.057251
 21
59.618809
  0
LINE
  8
0
 10
-128.000000
 20
52.250000
 11
-125.799988
 21
52.250000
  0
LINE
  8
0
 10
-128.000000
 20
57.750000
 11
-125.799988
 21
57.750000
  0
LINE
  8
0
 10
-128.000000
 20
57.749985
 11
-128.000000
 21
52.249985
  0
LINE
  8
0
 10
-127.299988
 20
57.749977
 11
-127.299988
 21
52.249977
  0
LINE
  8
0
 10
-125.800018
 20
52.250008
 11
-124.447929
 21
50.897923
  0
LINE
  8
0
 10
-125.800110
 20
57.750088
 11
-124.448029
 21
59.102161
  0
LINE
  8
0
 10
-120.699982
 20
59.000004
 11
-116.099991
 21
59.000004
  0
LINE
  8
0
 10
-120.699982
 20
51.000000
 11
-119.699982
 21
51.000000
  0
LINE
  8
0
 10
-119.122650
 20
58.000000
 11
-116.099991
 21
58.000000
  0
LINE
  8
0
 10
-113.100006
 20
54.999969
 11
-113.100006
 21
49.877319
  0
LINE
  8
0
 10
-119.699982
 20
58.999969
 11
-119.699982
 21
49.877319
  0
LINE
  8
0
 10
-119.700005
 20
59.000031
 11
-119.122650
 21
58.000015
  0
LINE
  8
0
 10
-119.699951
 20
50.999958
 11
-119.122604
 21
51.999950
  0
LINE
  8
0
 10
-119.122650
 20
57.999969
 11
-119.122650
 21
51.999969
  0
LINE
  8
0
 10
-111.500000
 20
41.099968
 11
-111.500000
 21
39.899971
  0
LINE
  8
0
 10
-111.500000
 20
39.900002
 11
-121.299988
 21
39.900002
  0
LINE
  8
0
 10
-111.500000
 20
41.099998
 11
-121.299988
 21
41.099998
  0
LINE
  8
0
 10
-121.299988
 20
41.099968
 11
-121.299988
 21
39.899971
  0
LINE
  8
0
 10
-118.899994
 20
41.799973
 11
-118.899994
 21
41.099968
  0
LINE
  8
0
 10
-113.899994
 20
41.799973
 11
-113.899994
 21
41.099968
  0
LINE
  8
0
 10
-112.399994
 20
41.800003
 11
-120.399994
 21
41.800003
  0
LINE
  8
0
 10
-112.399994
 20
42.599968
 11
-112.399994
 21
41.799973
  0
LINE
  8
0
 10
-120.399994
 20
42.599983
 11
-120.399994
 21
41.799973
  0
LINE
  8
0
 10
-112.399994
 20
42.599998
 11
-120.399994
 21
42.599998
  0
LINE
  8
0
 10
-120.700089
 20
44.599953
 11
-120.400085
 21
42.599957
  0
LINE
  8
0
 10
-112.100037
 20
44.599998
 11
-112.400040
 21
42.600002
  0
LINE
  8
0
 10
-112.099991
 20
44.599998
 11
-120.699982
 21
44.599998
  0
LINE
  8
0
 10
-112.100006
 20
54.999969
 11
-112.100006
 21
44.599968
  0
LINE
  8
0
 10
-112.100006
 20
49.299973
 11
-113.099998
 21
49.877319
  0
LINE
  8
0
 10
-112.099991
 20
49.300003
 11
-120.699982
 21
49.300003
  0
LINE
  8
0
 10
-113.099991
 20
49.877350
 11
-119.699982
 21
49.877350
  0
LINE
  8
0
 10
-120.700127
 20
49.300091
 11
-119.700119
 21
49.877445
  0
LINE
  8
0
 10
-120.699982
 20
49.299973
 11
-120.699982
 21
44.599968
  0
LINE
  8
0
  6
CENTER
 62
     2
 10
-233.320007
 20
55.000000
 11
-116.399994
 21
55.000000
  0
LINE
  8
0
 62
     2
 10
-209.500046
 20
55.866196
 11
-208.000046
 21
56.732224
  0
LINE
  8
0
 62
     2
 10
-209.499939
 20
55.865978
 11
-209.499939
 21
54.133953
  0
LINE
  8
0
 62
     2
 10
-209.500000
 20
54.133976
 11
-208.000000
 21
53.267948
  0
LINE
  8
0
 62
     2
 10
-208.000076
 20
53.268116
 11
-206.500076
 21
54.134144
  0
LINE
  8
0
 62
     2
 10
-206.499908
 20
55.866024
 11
-206.499908
 21
54.133968
  0
LINE
  8
0
 62
     2
 10
-207.999954
 20
56.732059
 11
-206.499985
 21
55.866047
  0
LINE
  8
0
 62
     2
 10
-163.000000
 20
27.287195
 11
-164.500000
 21
28.153223
  0
LINE
  8
0
 62
     2
 10
-163.000031
 20
27.287235
 11
-161.500046
 21
28.153248
  0
LINE
  8
0
 62
     2
 10
-161.500031
 20
28.153242
 11
-161.500031
 21
29.885290
  0
LINE
  8
0
 62
     2
 10
-161.500000
 20
29.885271
 11
-163.000000
 21
30.751299
  0
LINE
  8
0
 62
     2
 10
-164.500061
 20
29.885366
 11
-163.000046
 21
30.751392
  0
LINE
  8
0
 62
     2
 10
-164.500031
 20
28.153242
 11
-164.500031
 21
29.885290
  0
LINE
  8
0
 62
     2
 10
-161.500000
 20
81.846733
 11
-161.500000
 21
80.114677
  0
LINE
  8
0
 62
     2
 10
-161.500031
 20
81.846817
 11
-163.000000
 21
82.712830
  0
LINE
  8
0
 62
     2
 10
-163.000107
 20
82.712921
 11
-164.500107
 21
81.846893
  0
LINE
  8
0
 62
     2
 10
-164.500000
 20
81.846764
 11
-164.500000
 21
80.114708
  0
LINE
  8
0
 62
     2
 10
-163.000015
 20
79.248734
 11
-164.500015
 21
80.114761
  0
LINE
  8
0
 62
     2
 10
-161.500092
 20
80.114815
 11
-163.000092
 21
79.248787
  0
LINE
  8
0
 10
-225.549988
 20
5.000004
 11
-130.450027
 21
5.000004
  0
LINE
  8
0
 10
-228.000000
 20
102.549973
 11
-228.000000
 21
7.450031
  0
LINE
  8
0
 10
-130.450027
 20
105.000008
 11
-225.549988
 21
105.000008
  0
LINE
  8
0
 10
-128.000000
 20
7.450008
 11
-128.000000
 21
102.549957
  0
LINE
  8
0
  6
CENTER
 62
     2
 10
-215.664703
 20
12.500004
 11
-225.339996
 21
12.500004
  0
LINE
  8
0
  6
CENTER
 62
     2
 10
-220.500000
 20
17.029999
 11
-220.500000
 21
8.209999
  0
LINE
  8
0
  6
CENTER
 62
     2
 10
-220.500000
 20
92.970001
 11
-220.500000
 21
101.790009
  0
LINE
  8
0
  6
CENTER
 62
     2
 10
-215.664703
 20
97.500008
 11
-225.339996
 21
97.500008
  0
LINE
  8
0
  6
CENTER
 62
     2
 10
-135.500000
 20
17.029984
 11
-135.500000
 21
8.209984
  0
LINE
  8
0
  6
CENTER
 62
     2
 10
-140.483292
 20
12.500004
 11
-130.660004
 21
12.500004
  0
LINE
  8
0
  6
CENTER
 62
     2
 10
-135.500000
 20
92.969986
 11
-135.500000
 21
101.789993
  0
LINE
  8
0
  6
CENTER
 62
     2
 10
-140.122711
 20
97.500008
 11
-130.660004
 21
97.500008
  0
LINE
  8
0
  6
CENTER
 62
     2
 10
-183.760010
 20
12.500004
 11
-172.673309
 21
12.500004
  0
LINE
  8
0
 10
2.000000
 20
104.999977
 11
2.000000
 21
4.999977
  0
LINE
  8
0
 10
-5.000000
 20
5.000011
 11
2.000000
 21
5.000011
  0
LINE
  8
0
 10
-5.000000
 20
105.000015
 11
2.000000
 21
105.000015
  0
LINE
  8
0
 10
-19.000000
 20
105.000015
 11
-26.000000
 21
105.000015
  0
LINE
  8
0
 10
-19.000000
 20
5.000011
 11
-26.000000
 21
5.000011
  0
LINE
  8
0
 10
-5.000000
 20
104.999977
 11
-5.000000
 21
4.999977
  0
LINE
  8
0
 10
-26.000000
 20
104.999977
 11
-26.000000
 21
57.886795
  0
LINE
  8
0
  6
CENTER
 62
     2
 10
-22.500000
 20
52.814842
 11
-22.500000
 21
56.985115
  0
LINE
  8
0
 10
-17.600006
 20
39.900009
 11
-27.399994
 21
39.900009
  0
LINE
  8
0
 10
-17.600006
 20
41.099976
 11
-17.600006
 21
39.899979
  0
LINE
  8
0
 10
-27.399994
 20
41.099983
 11
-27.399994
 21
39.899986
  0
LINE
  8
0
 10
-18.500000
 20
41.800011
 11
-26.500000
 21
41.800011
  0
LINE
  8
0
 10
-17.600006
 20
41.100006
 11
-27.399994
 21
41.100006
  0
LINE
  8
0
 10
-26.500000
 20
42.599998
 11
-26.500000
 21
41.799988
  0
LINE
  8
0
 10
-18.500000
 20
42.599976
 11
-18.500000
 21
41.799980
  0
LINE
  8
0
 10
-25.000000
 20
41.799980
 11
-25.000000
 21
41.099983
  0
LINE
  8
0
 10
-20.000000
 20
41.799980
 11
-20.000000
 21
41.099976
  0
LINE
  8
0
 10
-18.200012
 20
49.299980
 11
-18.200012
 21
44.599976
  0
LINE
  8
0
 10
-26.800003
 20
49.299988
 11
-26.800003
 21
44.599983
  0
LINE
  8
0
 10
-18.500000
 20
42.600006
 11
-26.500000
 21
42.600006
  0
LINE
  8
0
 10
-18.199997
 20
49.300011
 11
-22.000000
 21
49.300011
  0
LINE
  8
0
 10
-18.199997
 20
44.600006
 11
-26.800003
 21
44.600006
  0
LINE
  8
0
 10
-18.200008
 20
44.599998
 11
-18.500011
 21
42.599987
  0
LINE
  8
0
 10
-26.800030
 20
44.599983
 11
-26.500032
 21
42.599987
  0
LINE
  8
0
 10
-26.799961
 20
49.299950
 11
-25.799953
 21
49.877304
  0
LINE
  8
0
 10
-18.200012
 20
49.299961
 11
-19.200005
 21
49.877308
  0
LINE
  8
0
 10
-19.199997
 20
49.877357
 11
-22.000000
 21
49.877357
  0
LINE
  8
0
  6
CENTER
 62
     2
 10
6.463394
 20
55.000008
 11
-29.442719
 21
55.000008
  0
LINE
  8
0
 10
-26.500000
 20
57.309387
 11
-26.500000
 21
52.690590
  0
LINE
  8
0
 10
-26.500017
 20
52.690548
 11
-25.663553
 21
52.207615
  0
LINE
  8
0
 10
-19.336445
 20
52.207619
 11
-18.499981
 21
52.690552
  0
LINE
  8
0
 10
-18.499969
 20
52.690575
 11
-18.499969
 21
57.309364
  0
LINE
  8
0
 10
-18.499943
 20
57.309456
 11
-22.499929
 21
59.618855
  0
LINE
  8
0
 10
-22.500004
 20
59.618832
 11
-26.500021
 21
57.309425
  0
LINE
  8
0
 10
-19.200008
 20
49.877338
 11
-19.500010
 21
54.999981
  0
LINE
  8
0
 10
-25.799995
 20
49.877316
 11
-25.499989
 21
54.999962
  0
LINE
  8
0
 10
-22.000000
 20
58.968605
 11
-22.000000
 21
49.299980
  0
LINE
  8
0
 10
-23.000000
 20
58.968605
 11
-23.000000
 21
49.299980
  0
LINE
  8
0
 10
-25.799988
 20
49.877357
 11
-23.000000
 21
49.877357
  0
LINE
  8
0
 10
-26.799988
 20
49.300011
 11
-23.000000
 21
49.300011
  0
LINE
  8
0
 10
-26.000000
 20
39.899986
 11
-26.000000
 21
4.999985
  0
LINE
  8
0
 10
-25.500000
 20
41.799980
 11
-25.500000
 21
41.099983
  0
LINE
  8
0
 10
-18.500000
 20
41.799980
 11
-18.500000
 21
41.099976
  0
LINE
  8
0
 10
-18.500000
 20
52.690536
 11
-18.500000
 21
49.473175
  0
LINE
  8
0
 10
-6.000000
 20
103.999977
 11
-6.000000
 21
5.499977
  0
LINE
  8
0
 10
-6.000000
 20
5.500011
 11
-19.000000
 21
5.500011
  0
LINE
  8
0
 10
-19.000000
 20
39.899979
 11
-19.000000
 21
4.999981
  0
LINE
  8
0
 10
-19.000000
 20
104.999977
 11
-19.000000
 21
57.886787
  0
LINE
  8
0
 10
-6.000000
 20
104.500015
 11
-19.000000
 21
104.500015
  0
LINE
  8
0
 10
-26.000000
 20
7.450008
 11
-19.000000
 21
7.450008
  0
LINE
  8
0
 10
-26.000000
 20
102.550003
 11
-19.000000
 21
102.550003
  0
LINE
  8
0
 10
-5.000000
 20
103.573074
 11
2.000000
 21
103.573074
  0
LINE
  8
0
 10
-5.000000
 20
99.683975
 11
2.000000
 21
99.683975
  0
LINE
  8
0
 10
-5.000000
 20
98.081314
 11
2.000000
 21
98.081314
  0
LINE
  8
0
 10
-5.000000
 20
11.918705
 11
2.000000
 21
11.918705
  0
LINE
  8
0
 10
-5.000000
 20
10.316036
 11
2.000000
 21
10.316036
  0
LINE
  8
0
 10
-5.000000
 20
6.426952
 11
2.000000
 21
6.426952
  0
LINE
  8
0
 10
-115.400017
 20
-112.399994
 11
-117.400017
 21
-112.399994
  0
LINE
  8
0
 10
-115.400017
 20
-104.599991
 11
-117.400017
 21
-104.599991
  0
LINE
  8
0
 10
-119.700150
 20
-104.500107
 11
-119.343094
 21
-105.118546
  0
LINE
  8
0
 10
-120.699997
 20
-104.500031
 11
-120.699997
 21
-106.421570
  0
LINE
  8
0
 10
-124.550026
 20
-112.500000
 11
-119.700020
 21
-112.500000
  0
LINE
  8
0
 10
-124.550011
 20
-104.500000
 11
-119.700020
 21
-104.500000
  0
LINE
  8
0
 10
-121.300026
 20
-108.500000
 11
-124.192757
 21
-108.500000
  0
LINE
  8
0
 10
-119.700180
 20
-112.499992
 11
-119.343124
 21
-111.881554
  0
LINE
  8
0
 10
-119.699997
 20
-104.500031
 11
-119.699997
 21
-105.350403
  0
LINE
  8
0
 10
-119.699997
 20
-112.500031
 11
-119.699997
 21
-111.649628
  0
LINE
  8
0
 10
-120.699997
 20
-110.578491
 11
-120.699997
 21
-112.500031
  0
LINE
  8
0
  6
CENTER
 62
     2
 10
-178.000000
 20
-102.500000
 11
-178.000000
 21
-136.904358
  0
LINE
  8
0
 10
-128.000031
 20
-126.000000
 11
-228.000031
 21
-126.000000
  0
LINE
  8
0
 10
-128.000031
 20
-133.000000
 11
-228.000031
 21
-133.000000
  0
LINE
  8
0
 10
-228.000000
 20
-126.000000
 11
-228.000000
 21
-133.000000
  0
LINE
  8
0
 10
-128.000000
 20
-126.000000
 11
-128.000000
 21
-133.000000
  0
LINE
  8
0
 10
-128.000031
 20
-105.000000
 11
-228.000031
 21
-105.000000
  0
LINE
  8
0
 10
-128.000000
 20
-112.000000
 11
-128.000000
 21
-105.000000
  0
LINE
  8
0
 10
-228.000000
 20
-112.000000
 11
-228.000000
 21
-105.000000
  0
LINE
  8
0
 10
-125.800003
 20
-105.750031
 11
-125.800003
 21
-111.250031
  0
LINE
  8
0
 10
-128.000031
 20
-111.250000
 11
-125.800026
 21
-111.250000
  0
LINE
  8
0
 10
-128.000031
 20
-105.750000
 11
-125.800026
 21
-105.750000
  0
LINE
  8
0
 10
-127.300003
 20
-105.750031
 11
-127.300003
 21
-111.250031
  0
LINE
  8
0
 10
-125.800110
 20
-111.250130
 11
-124.550110
 21
-112.500122
  0
LINE
  8
0
 10
-125.800095
 20
-105.749985
 11
-124.550110
 21
-104.500000
  0
LINE
  8
0
 10
-128.500031
 20
-125.000000
 11
-227.500031
 21
-125.000000
  0
LINE
  8
0
 10
-228.000031
 20
-112.000000
 11
-128.000031
 21
-112.000000
  0
LINE
  8
0
 10
-227.500000
 20
-112.000000
 11
-227.500000
 21
-125.000000
  0
LINE
  8
0
 10
-128.500000
 20
-112.000000
 11
-128.500000
 21
-125.000000
  0
LINE
  8
0
 10
-225.550003
 20
-105.000000
 11
-225.550003
 21
-112.000000
  0
LINE
  8
0
 10
-130.450012
 20
-105.000000
 11
-130.450012
 21
-112.000000
  0
LINE
  8
0
 10
-226.573059
 20
-126.000000
 11
-226.573059
 21
-133.000000
  0
LINE
  8
0
 10
-222.683975
 20
-126.000000
 11
-222.683975
 21
-133.000000
  0
LINE
  8
0
 10
-221.081299
 20
-126.000000
 11
-221.081299
 21
-133.000000
  0
LINE
  8
0
 10
-134.918701
 20
-126.000000
 11
-134.918701
 21
-133.000000
  0
LINE
  8
0
 10
-133.316040
 20
-126.000000
 11
-133.316040
 21
-133.000000
  0
LINE
  8
0
 10
-129.426956
 20
-126.000000
 11
-129.426956
 21
-133.000000
  0
CIRCLE
  8
0
 10
140.000076
 20
65.392365
 40
5.500000
  0
CIRCLE
  8
0
 10
158.000015
 20
54.999950
 40
5.500000
  0
CIRCLE
  8
0
 10
103.500015
 20
55.000031
 40
2.000000
  0
ARC
  8
0
 10
188.500015
 20
12.500023
 40
2.749995
 50
45.000183
 51
224.999924
  0
ARC
  8
0
 10
96.342758
 20
55.000031
 40
7.642733
 50
162.412094
 51
197.588013
  0
ARC
  8
0
 10
90.744675
 20
51.535934
 40
2.044657
 50
145.615829
 51
180.000107
  0
ARC
  8
0
 10
90.505356
 20
51.535934
 40
2.044657
 50
325.615845
 51
34.384254
  0
ARC
  8
0
 10
90.744675
 20
58.464157
 40
2.044662
 50
180.000107
 51
214.384338
  0
ARC
  8
0
 10
90.505356
 20
58.464157
 40
2.044657
 50
325.615845
 51
34.384254
  0
ARC
  8
0
 10
84.907272
 20
55.000046
 40
7.642732
 50
342.412109
 51
17.588018
  0
ARC
  8
0
 10
84.100021
 20
55.000046
 40
3.000000
 50
90.000145
 51
180.000076
  0
ARC
  8
0
 10
84.100021
 20
55.000046
 40
4.000000
 50
84.260918
 51
180.000061
  0
CIRCLE
  8
0
 10
139.999954
 20
44.607754
 40
5.500000
  0
ARC
  8
0
 10
146.000015
 20
55.000027
 40
65.999992
 50
310.749084
 51
312.612000
  0
ARC
  8
0
 10
146.000015
 20
55.000027
 40
66.000000
 50
317.388031
 51
319.250946
  0
ARC
  8
0
 10
188.500046
 20
97.500015
 40
2.750003
 50
135.000107
 51
315.000122
  0
ARC
  8
0
 10
146.000015
 20
55.000027
 40
66.000000
 50
40.749134
 51
42.612064
  0
ARC
  8
0
 10
146.000015
 20
55.000027
 40
66.000000
 50
47.388084
 51
49.251003
  0
ARC
  8
0
 10
103.500008
 20
12.500031
 40
2.749998
 50
315.000000
 51
134.999969
  0
ARC
  8
0
 10
146.000015
 20
55.000027
 40
66.000000
 50
220.749115
 51
222.612045
  0
ARC
  8
0
 10
146.000015
 20
55.000027
 40
66.000000
 50
227.388062
 51
229.250992
  0
ARC
  8
0
 10
103.500038
 20
97.500031
 40
2.750003
 50
225.000107
 51
45.000000
  0
ARC
  8
0
 10
146.000015
 20
55.000027
 40
66.000000
 50
137.387985
 51
139.250931
  0
ARC
  8
0
 10
146.000015
 20
55.000027
 40
66.000000
 50
130.749039
 51
132.611954
  0
ARC
  8
0
 10
146.000015
 20
55.000027
 40
69.000000
 50
313.561279
 51
316.438721
  0
ARC
  8
0
 10
146.000015
 20
55.000027
 40
69.000000
 50
43.561359
 51
46.438801
  0
ARC
  8
0
 10
146.000015
 20
55.000027
 40
69.000000
 50
223.561340
 51
226.438782
  0
ARC
  8
0
 10
146.000015
 20
55.000027
 40
69.000000
 50
133.561249
 51
136.438690
  0
CIRCLE
  8
0
 10
146.000015
 20
12.500027
 40
2.000000
  0
CIRCLE
  8
0
 10
188.500015
 20
55.000023
 40
2.000000
  0
CIRCLE
  8
0
 10
146.000046
 20
97.500031
 40
2.000000
  0
ARC
  8
0
 10
-178.000000
 20
54.999992
 40
69.000000
 50
313.561310
 51
316.438751
  0
ARC
  8
0
 10
-178.000000
 20
54.999992
 40
69.000000
 50
43.561237
 51
46.438663
  0
CIRCLE
  8
0
 10
-178.000015
 20
12.499992
 40
3.000000
  0
ARC
  8
0
 10
-177.999985
 20
96.499992
 40
3.000000
 50
180.000000
 51
0.000000
  0
CIRCLE
  8
0
 62
     2
 10
-220.500015
 20
12.500004
 40
2.500000
  0
CIRCLE
  8
0
 10
-220.500015
 20
12.500004
 40
1.800000
  0
ARC
  8
0
 10
-128.342728
 20
54.999981
 40
7.642735
 50
342.412048
 51
17.587963
  0
ARC
  8
0
 10
-122.744659
 20
51.535870
 40
2.044662
 50
0.000000
 51
34.384254
  0
ARC
  8
0
 10
-122.505341
 20
51.535870
 40
2.044659
 50
145.615753
 51
214.384171
  0
ARC
  8
0
 10
-122.744659
 20
58.464085
 40
2.044659
 50
325.615753
 51
359.999878
  0
ARC
  8
0
 10
-122.505341
 20
58.464085
 40
2.044659
 50
145.615753
 51
214.384171
  0
ARC
  8
0
 10
-116.907257
 20
54.999969
 40
7.642736
 50
162.412003
 51
197.587906
  0
ARC
  8
0
 10
-116.099991
 20
54.999969
 40
3.000000
 50
0.000000
 51
90.000000
  0
ARC
  8
0
 10
-116.099991
 20
54.999969
 40
4.000000
 50
0.000000
 51
95.739189
  0
CIRCLE
  8
0
 10
-215.117859
 20
68.509796
 40
2.500000
  0
CIRCLE
  8
0
 62
     2
 10
-215.117859
 20
68.509796
 40
1.700000
  0
CIRCLE
  8
0
 62
     2
 10
-135.500015
 20
12.499981
 40
2.500000
  0
CIRCLE
  8
0
 10
-135.500015
 20
12.499981
 40
1.800000
  0
CIRCLE
  8
0
 62
     2
 10
-220.499985
 20
97.500008
 40
2.500000
  0
CIRCLE
  8
0
 10
-220.499985
 20
97.500008
 40
1.800000
  0
CIRCLE
  8
0
 62
     2
 10
-135.499985
 20
97.499977
 40
2.500000
  0
CIRCLE
  8
0
 10
-135.499985
 20
97.499977
 40
1.800000
  0
CIRCLE
  8
0
 10
-191.509811
 20
17.882137
 40
2.500000
  0
CIRCLE
  8
0
 62
     2
 10
-191.509811
 20
17.882137
 40
1.700000
  0
CIRCLE
  8
0
 10
-140.882141
 20
41.490189
 40
2.500000
  0
CIRCLE
  8
0
 62
     2
 10
-140.882141
 20
41.490189
 40
1.700000
  0
CIRCLE
  8
0
 10
-164.490189
 20
92.117851
 40
2.500000
  0
CIRCLE
  8
0
 62
     2
 10
-164.490189
 20
92.117851
 40
1.700000
  0
CIRCLE
  8
0
 10
-208.000000
 20
54.999939
 40
5.500000
  0
CIRCLE
  8
0
 10
-162.999939
 20
29.019260
 40
5.500000
  0
CIRCLE
  8
0
 10
-163.000061
 20
80.980782
 40
5.500000
  0
ARC
  8
0
 10
-178.000000
 20
54.999992
 40
69.000008
 50
223.561264
 51
226.438690
  0
ARC
  8
0
 10
-178.000000
 20
54.999992
 40
69.000008
 50
133.561279
 51
136.438705
  0
ARC
  8
0
 10
-22.500000
 20
54.999981
 40
3.000000
 50
359.999939
 51
80.406044
  0
ARC
  8
0
 10
-22.500000
 20
54.999981
 40
4.000001
 50
321.831024
 51
218.169052
  0
ARC
  8
0
 10
-22.500000
 20
54.999981
 40
3.000002
 50
99.594025
 51
180.000153
  0
ARC
  8
0
 10
-116.400009
 20
-108.500015
 40
4.299998
 50
240.153854
 51
299.846161
  0
ARC
  8
0
 10
-116.400009
 20
-108.500015
 40
4.299998
 50
60.153854
 51
119.846146
  0
ARC
  8
0
 10
-115.400009
 20
-108.500015
 40
3.900002
 50
270.000000
 51
90.000000
  0
ARC
  8
0
 10
-117.400009
 20
-108.500015
 40
3.900002
 50
90.000000
 51
270.000000
  0
CIRCLE
  8
0
 10
-116.400009
 20
-108.500015
 40
2.000000
  0
ARC
  8
0
 10
-118.773300
 20
-106.500015
 40
5.776717
 50
159.743790
 51
200.256042
  0
ARC
  8
0
 10
-126.476730
 20
-106.500015
 40
5.776721
 50
0.770055
 51
20.256042
  0
ARC
  8
0
 10
-126.476730
 20
-110.500015
 40
5.776721
 50
339.743896
 51
359.230011
  0
ARC
  8
0
 10
-118.773300
 20
-110.500015
 40
5.776714
 50
159.743866
 51
200.256119
  0
TEXT
  8
0
 10
174.200241
 20
180.830002
 40
6.300000
  1
DATE: AUG ,1994
 50
0.000000
 41
1.052632
 51
0.000000
  7
STANDARD
  0
TEXT
  8
0
 10
167.564667
 20
-192.100006
 40
9.000000
  1
KOGANEI CORP.
 50
0.000000
 41
1.052632
 51
0.000000
  7
STANDARD
  0
TEXT
  8
0
 10
-269.149719
 20
180.830002
 40
6.300000
  1
HANDLING MODULE
 50
0.000000
 41
1.052632
 51
0.000000
  7
STANDARD
  0
TEXT
  8
0
 10
-270.049713
 20
155.830002
 40
6.300000
  1
MODEL:SHM61L
 50
0.000000
 41
1.052632
 51
0.000000
  7
STANDARD
  0
ENDSEC
  0
EOF
