  0
SECTION
  2
HEADER
  0
ENDSEC
  0
SECTION
  2
TABLES
  0
TABLE
  2
LTYPE
 70
     4
  0
LTYPE
  2
CONTINUOUS
 70
    64
  3
Solid line
 72
    65
 73
     0
 40
0.000000
  0
LTYPE
  2
DASHED
 70
    64
  3
__ __ __ __ __ __ __ __ __ __ __ __ __ __ __
 72
    65
 73
     2
 40
3.500000
 49
2.000000
 49
-1.500000
  0
LTYPE
  2
CENTER
 70
    64
  3
____ _ ____ _ ____ _ ____ _ ____ _ ____ _ ____
 72
    65
 73
     4
 40
17.500000
 49
13.000000
 49
-1.500000
 49
1.500000
 49
-1.500000
  0
LTYPE
  2
PHANTOM
 70
    64
  3
_____ _ _ _____ _ _ _____ _ _ _____ _ _ ____  
 72
    65
 73
     6
 40
15.500000
 49
8.000000
 49
-1.500000
 49
1.500000
 49
-1.500000
 49
1.500000
 49
-1.500000
  0
LTYPE
  2
DASHED1
 70
    64
  3
__ __ __ __ __ __ __ __ __ __ __ __ __ __ __
 72
    65
 73
     2
 40
1.500000
 49
1.000000
 49
-0.500000
  0
LTYPE
  2
DASHED2
 70
    64
  3
__ __ __ __ __ __ __ __ __ __ __ __ __ __ __
 72
    65
 73
     2
 40
3.500000
 49
2.500000
 49
-1.000000
  0
LTYPE
  2
DASHED3
 70
    64
  3
__ __ __ __ __ __ __ __ __ __ __ __ __ __ __
 72
    65
 73
     2
 40
6.000000
 49
4.000000
 49
-2.000000
  0
LTYPE
  2
DASHED4
 70
    64
  3
__ __ __ __ __ __ __ __ __ __ __ __ __ __ __
 72
    65
 73
     2
 40
12.000000
 49
10.000000
 49
-2.000000
  0
LTYPE
  2
DASHED5
 70
    64
  3
__ __ __ __ __ __ __ __ __ __ __ __ __ __ __
 72
    65
 73
     2
 40
17.000000
 49
15.000000
 49
-2.000000
  0
LTYPE
  2
DASHED6
 70
    64
  3
__ __ __ __ __ __ __ __ __ __ __ __ __ __ __
 72
    65
 73
     2
 40
29.000000
 49
27.000000
 49
-2.000000
  0
LTYPE
  2
PHANTOM1
 70
    64
  3
_____ _ _ _____ _ _ _____ _ _ _____ _ _ ____  
 72
    65
 73
     6
 40
31.000000
 49
25.000000
 49
-1.500000
 49
1.000000
 49
-1.000000
 49
1.000000
 49
-1.500000
  0
LTYPE
  2
PHANTOM2
 70
    64
  3
_____ _ _ _____ _ _ _____ _ _ _____ _ _ ____  
 72
    65
 73
     6
 40
36.000000
 49
27.000000
 49
-1.500000
 49
2.500000
 49
-1.000000
 49
2.500000
 49
-1.500000
  0
LTYPE
  2
PHANTOM3
 70
    64
  3
_____ _ _ _____ _ _ _____ _ _ _____ _ _ ____  
 72
    65
 73
     6
 40
78.000000
 49
64.000000
 49
-2.000000
 49
4.000000
 49
-2.000000
 49
4.000000
 49
-2.000000
  0
LTYPE
  2
CENTER1
 70
    64
  3
____ _ ____ _ ____ _ ____ _ ____ _ ____ _ ____
 72
    65
 73
     4
 40
19.000000
 49
14.000000
 49
-1.000000
 49
3.000000
 49
-1.000000
  0
LTYPE
  2
CENTER2
 70
    64
  3
____ _ ____ _ ____ _ ____ _ ____ _ ____ _ ____
 72
    65
 73
     4
 40
28.500000
 49
25.000000
 49
-1.000000
 49
1.500000
 49
-1.000000
  0
LTYPE
  2
CENTER3
 70
    64
  3
____ _ ____ _ ____ _ ____ _ ____ _ ____ _ ____
 72
    65
 73
     4
 40
31.500000
 49
27.000000
 49
-1.000000
 49
2.500000
 49
-1.000000
  0
LTYPE
  2
CENTER4
 70
    64
  3
____ _ ____ _ ____ _ ____ _ ____ _ ____ _ ____
 72
    65
 73
     4
 40
50.000000
 49
45.000000
 49
-1.000000
 49
3.000000
 49
-1.000000
  0
LTYPE
  2
CENTER5
 70
    64
  3
____ _ ____ _ ____ _ ____ _ ____ _ ____ _ ____
 72
    65
 73
     4
 40
100.000000
 49
92.000000
 49
-2.000000
 49
4.000000
 49
-2.000000
  0
LTYPE
  2
SBK1
 70
    64
  3
______ _ _ _ ______ _ _ _ ______ _ _ _ _____  
 72
    65
 73
     8
 40
60.500000
 49
45.000000
 49
-2.000000
 49
2.500000
 49
-2.000000
 49
2.500000
 49
-2.000000
 49
2.500000
 49
-2.000000
  0
LTYPE
  2
SBK2
 70
    64
  3
______ _ _ _ ______ _ _ _ ______ _ _ _ _____  
 72
    65
 73
     8
 40
84.000000
 49
64.000000
 49
-2.000000
 49
4.000000
 49
-2.000000
 49
4.000000
 49
-2.000000
 49
4.000000
 49
-2.000000
  0
LTYPE
  2
STCH
 70
    64
  3
__ __ __ __ __ __ __ __ __ __ __ __ __ __ __
 72
    65
 73
     2
 40
3.000000
 49
1.000000
 49
-2.000000
  0
LTYPE
  2
MTCH
 70
    64
  3
_____ _ _ _____ _ _ _____ _ _ _____ _ _ ____  
 72
    65
 73
     6
 40
80.000000
 49
66.000000
 49
-2.000000
 49
4.000000
 49
-2.000000
 49
4.000000
 49
-2.000000
  0
ENDTAB
  0
TABLE
  2
LAYER
 70
     1
  0
LAYER
  2
0
 70
     0
 62
     7
  6
CONTINUOUS
  0
ENDTAB
  0
TABLE
  2
STYLE
 70
     1
  0
STYLE
  2
STANDARD
 70
     0
 40
0.000000
 41
1.000000
 50
0.000000
 71
     0
 42
0.200000
  3
txt
  4
BIGFONT
  0
ENDTAB
  0
TABLE
  2
VIEW
 70
     0
  0
ENDTAB
  0
ENDSEC
  0
SECTION
  2
BLOCKS
  0
ENDSEC
  0
SECTION
  2
ENTITIES
  0
LINE
  8
0
 10
-194.250000
 20
132.600006
 11
194.800003
 21
132.600006
  0
LINE
  8
0
 10
194.800003
 20
132.600006
 11
194.800003
 21
-133.500000
  0
LINE
  8
0
 10
-194.250000
 20
132.600006
 11
-194.250000
 21
-133.500000
  0
LINE
  8
0
 10
-194.250000
 20
-133.500000
 11
194.800003
 21
-133.500000
  0
LINE
  8
0
 10
109.800003
 20
-118.500000
 11
109.800003
 21
-133.500000
  0
LINE
  8
0
 10
109.800003
 20
-118.500000
 11
194.800003
 21
-118.500000
  0
LINE
  8
0
 10
109.800003
 20
132.600006
 11
109.800003
 21
117.600006
  0
LINE
  8
0
 10
109.800003
 20
117.600006
 11
194.800003
 21
117.600006
  0
LINE
  8
0
 10
-194.250000
 20
117.600006
 11
-109.250000
 21
117.600006
  0
LINE
  8
0
 10
-109.250000
 20
132.600006
 11
-109.250000
 21
117.600006
  0
LINE
  8
0
  6
CENTER
 62
     2
 10
106.270569
 20
66.942657
 11
106.270569
 21
-18.737358
  0
LINE
  8
0
 10
60.570568
 20
63.422646
 11
60.570568
 21
-16.177353
  0
LINE
  8
0
 10
151.970566
 20
63.422630
 11
151.970566
 21
-16.177383
  0
LINE
  8
0
 10
66.270630
 20
63.622589
 11
146.270630
 21
63.622589
  0
LINE
  8
0
 10
66.270584
 20
-16.377411
 11
146.270569
 21
-16.377411
  0
LINE
  8
0
 10
66.270584
 20
63.622658
 11
66.270584
 21
-16.377350
  0
LINE
  8
0
 10
146.270569
 20
63.622627
 11
146.270569
 21
-16.377365
  0
LINE
  8
0
 10
66.270584
 20
3.622589
 11
146.270584
 21
3.622589
  0
LINE
  8
0
 10
66.270615
 20
43.622589
 11
146.270599
 21
43.622589
  0
LINE
  8
0
  6
CENTER
 62
     2
 10
46.127914
 20
23.622589
 11
166.189865
 21
23.622589
  0
LINE
  8
0
 10
60.570618
 20
63.422592
 11
66.270630
 21
63.422592
  0
LINE
  8
0
 10
60.570602
 20
-16.177414
 11
66.270584
 21
-16.177414
  0
LINE
  8
0
 10
151.970627
 20
63.422592
 11
146.270630
 21
63.422592
  0
LINE
  8
0
 10
151.970581
 20
-16.177414
 11
146.270569
 21
-16.177414
  0
LINE
  8
0
  6
CENTER
 62
     2
 10
69.770630
 20
56.122589
 11
77.770630
 21
56.122589
  0
LINE
  8
0
  6
CENTER
 62
     2
 10
73.770584
 20
60.122650
 11
73.770584
 21
52.122650
  0
LINE
  8
0
  6
CENTER
 62
     2
 10
142.770630
 20
56.122589
 11
134.770630
 21
56.122589
  0
LINE
  8
0
  6
CENTER
 62
     2
 10
138.770569
 20
60.122635
 11
138.770569
 21
52.122635
  0
LINE
  8
0
  6
CENTER
 62
     2
 10
69.770584
 20
-8.877411
 11
77.770584
 21
-8.877411
  0
LINE
  8
0
  6
CENTER
 62
     2
 10
73.770584
 20
-12.877365
 11
73.770584
 21
-4.877350
  0
LINE
  8
0
  6
CENTER
 62
     2
 10
138.770569
 20
-12.877365
 11
138.770569
 21
-4.877365
  0
LINE
  8
0
  6
CENTER
 62
     2
 10
142.770569
 20
-8.877411
 11
134.770569
 21
-8.877411
  0
LINE
  8
0
 10
103.270569
 20
63.622650
 11
103.270569
 21
55.122650
  0
LINE
  8
0
 10
109.270569
 20
63.622650
 11
109.270569
 21
55.122650
  0
LINE
  8
0
 62
     4
 10
60.570568
 20
-8.377396
 11
59.443954
 21
-8.377396
  0
LINE
  8
0
 62
     4
 10
60.570568
 20
-11.377396
 11
60.193954
 21
-11.377396
  0
LINE
  8
0
 10
151.970581
 20
20.447189
 11
154.124954
 21
20.447189
  0
LINE
  8
0
 10
154.124954
 20
22.034882
 11
151.970581
 21
22.034882
  0
LINE
  8
0
 10
154.370560
 20
21.164822
 11
154.370560
 21
25.595699
  0
LINE
  8
0
 10
151.970596
 20
26.798004
 11
154.124969
 21
26.798004
  0
LINE
  8
0
 10
154.370560
 20
26.080410
 11
154.370560
 21
21.649532
  0
LINE
  8
0
 10
154.124969
 20
25.210297
 11
151.970596
 21
25.210297
  0
LINE
  8
0
 10
60.570602
 20
20.447189
 11
58.416214
 21
20.447189
  0
LINE
  8
0
 10
58.416214
 20
22.034882
 11
60.570602
 21
22.034882
  0
LINE
  8
0
 10
58.170574
 20
21.164860
 11
58.170574
 21
25.595722
  0
LINE
  8
0
 10
60.570602
 20
26.798004
 11
58.416245
 21
26.798004
  0
LINE
  8
0
 10
58.170574
 20
26.080448
 11
58.170574
 21
21.649570
  0
LINE
  8
0
 10
58.416245
 20
25.210297
 11
60.570602
 21
25.210297
  0
LINE
  8
0
 10
47.270580
 20
22.122608
 11
47.270580
 21
25.122608
  0
LINE
  8
0
 10
58.170609
 20
25.122589
 11
47.270584
 21
25.122589
  0
LINE
  8
0
 10
58.170609
 20
22.122589
 11
47.270584
 21
22.122589
  0
LINE
  8
0
 62
     2
 10
58.170609
 20
24.722595
 11
47.370499
 21
24.722595
  0
LINE
  8
0
 62
     2
 10
58.170609
 20
22.522598
 11
47.370590
 21
22.522598
  0
LINE
  8
0
 10
165.270569
 20
22.122601
 11
165.270569
 21
25.122601
  0
LINE
  8
0
 10
154.370590
 20
25.122589
 11
165.270569
 21
25.122589
  0
LINE
  8
0
 10
154.370575
 20
22.122589
 11
165.270569
 21
22.122589
  0
LINE
  8
0
 62
     2
 10
154.370575
 20
24.722595
 11
165.170670
 21
24.722595
  0
LINE
  8
0
 62
     2
 10
154.370575
 20
22.522598
 11
165.170593
 21
22.522598
  0
LINE
  8
0
 10
49.670452
 20
2.122669
 11
49.670452
 21
10.622623
  0
LINE
  8
0
 10
59.570450
 20
10.622604
 11
49.670456
 21
10.622604
  0
LINE
  8
0
 10
59.570450
 20
0.622604
 11
58.670486
 21
0.622604
  0
LINE
  8
0
 10
58.670452
 20
0.622669
 11
58.670452
 21
2.122669
  0
LINE
  8
0
 10
58.670486
 20
2.122604
 11
49.670486
 21
2.122604
  0
LINE
  8
0
 10
58.070480
 20
2.122604
 11
50.270493
 21
2.122604
  0
LINE
  8
0
 10
51.670441
 20
-25.477402
 11
56.670441
 21
-25.477402
  0
LINE
  8
0
 10
56.670452
 20
-25.477386
 11
56.670452
 21
-21.477386
  0
LINE
  8
0
 10
51.670452
 20
-25.477386
 11
51.670452
 21
-21.477386
  0
LINE
  8
0
 10
51.670441
 20
-21.477402
 11
56.670441
 21
-21.477402
  0
LINE
  8
0
 10
50.270493
 20
1.522598
 11
58.070480
 21
1.522598
  0
LINE
  8
0
 10
50.170486
 20
-12.977402
 11
58.170486
 21
-12.977402
  0
LINE
  8
0
 10
50.170441
 20
-13.777390
 11
58.170441
 21
-13.777390
  0
LINE
  8
0
 10
50.170441
 20
-16.277390
 11
58.170441
 21
-16.277390
  0
LINE
  8
0
 10
58.170452
 20
-16.277374
 11
58.170452
 21
-13.777374
  0
LINE
  8
0
 10
50.170452
 20
-16.277374
 11
50.170452
 21
-13.777374
  0
LINE
  8
0
 10
56.670452
 20
-13.777328
 11
56.670452
 21
-12.977341
  0
LINE
  8
0
 10
51.670452
 20
-13.777328
 11
51.670452
 21
-12.977341
  0
LINE
  8
0
 10
52.670452
 20
-21.477341
 11
52.670452
 21
-16.277328
  0
LINE
  8
0
 10
55.670452
 20
-21.477341
 11
55.670452
 21
-16.277328
  0
LINE
  8
0
 62
     2
 10
55.399944
 20
-21.477341
 11
55.399944
 21
-16.277328
  0
LINE
  8
0
 62
     2
 10
52.940960
 20
-21.477341
 11
52.940960
 21
-16.277328
  0
LINE
  8
0
 10
57.420452
 20
0.022678
 11
57.420452
 21
1.522678
  0
LINE
  8
0
 10
50.920452
 20
0.022678
 11
50.920452
 21
1.522678
  0
LINE
  8
0
 10
58.070446
 20
1.522678
 11
58.070446
 21
2.122669
  0
LINE
  8
0
 10
50.270458
 20
1.522678
 11
50.270458
 21
2.122669
  0
LINE
  8
0
 10
50.270493
 20
2.122604
 11
58.070480
 21
2.122604
  0
LINE
  8
0
 10
49.270493
 20
-8.977402
 11
51.170456
 21
-8.977402
  0
LINE
  8
0
 10
49.270493
 20
0.022598
 11
59.070480
 21
0.022598
  0
LINE
  8
0
 10
58.170452
 20
-12.977341
 11
58.170452
 21
-8.977325
  0
LINE
  8
0
 10
50.170452
 20
-12.977341
 11
50.170452
 21
-8.977325
  0
LINE
  8
0
 10
54.170452
 20
-12.620071
 11
54.170452
 21
-9.977341
  0
LINE
  8
0
 10
59.070446
 20
-8.977325
 11
59.070446
 21
-5.972366
  0
LINE
  8
0
 10
49.270458
 20
-8.977325
 11
49.270458
 21
-5.972366
  0
LINE
  8
0
 10
59.570446
 20
14.122623
 11
59.570446
 21
-2.877377
  0
LINE
  8
0
 10
59.570480
 20
-2.877411
 11
60.570480
 21
-2.877411
  0
LINE
  8
0
 10
59.570480
 20
14.122589
 11
60.570480
 21
14.122589
  0
LINE
  8
0
 10
162.870605
 20
45.122799
 11
162.870605
 21
36.622799
  0
LINE
  8
0
 10
152.970596
 20
36.622787
 11
162.870605
 21
36.622787
  0
LINE
  8
0
 10
152.970596
 20
46.622803
 11
153.870621
 21
46.622803
  0
LINE
  8
0
 10
153.870590
 20
46.622799
 11
153.870590
 21
45.122799
  0
LINE
  8
0
 10
153.870621
 20
45.122787
 11
162.870605
 21
45.122787
  0
LINE
  8
0
 10
154.470612
 20
45.122787
 11
162.270599
 21
45.122787
  0
LINE
  8
0
 10
155.870605
 20
72.722816
 11
155.870605
 21
68.722816
  0
LINE
  8
0
 10
160.870605
 20
72.722816
 11
160.870605
 21
68.722816
  0
LINE
  8
0
 10
160.870621
 20
68.722809
 11
155.870621
 21
68.722809
  0
LINE
  8
0
 10
162.270599
 20
45.722794
 11
154.470612
 21
45.722794
  0
LINE
  8
0
 10
162.370636
 20
60.222809
 11
154.370636
 21
60.222809
  0
LINE
  8
0
 10
162.370621
 20
61.022797
 11
154.370621
 21
61.022797
  0
LINE
  8
0
 10
162.370621
 20
63.522797
 11
154.370621
 21
63.522797
  0
LINE
  8
0
 10
154.370605
 20
63.522804
 11
154.370605
 21
61.022804
  0
LINE
  8
0
 10
162.370605
 20
63.522804
 11
162.370605
 21
61.022804
  0
LINE
  8
0
 10
155.870605
 20
61.022789
 11
155.870605
 21
60.222801
  0
LINE
  8
0
 10
160.870605
 20
61.022789
 11
160.870605
 21
60.222801
  0
LINE
  8
0
 10
159.870605
 20
68.722801
 11
159.870605
 21
63.522789
  0
LINE
  8
0
 10
156.870605
 20
68.722801
 11
156.870605
 21
63.522789
  0
LINE
  8
0
 62
     2
 10
157.141113
 20
68.722801
 11
157.141113
 21
63.522789
  0
LINE
  8
0
 62
     2
 10
159.600098
 20
68.722801
 11
159.600098
 21
63.522789
  0
LINE
  8
0
 10
155.120605
 20
47.222775
 11
155.120605
 21
45.722775
  0
LINE
  8
0
 10
161.620605
 20
47.222775
 11
161.620605
 21
45.722775
  0
LINE
  8
0
 10
154.470612
 20
45.722775
 11
154.470612
 21
45.122799
  0
LINE
  8
0
 10
162.270599
 20
45.722775
 11
162.270599
 21
45.122799
  0
LINE
  8
0
 10
162.270599
 20
45.122787
 11
154.470612
 21
45.122787
  0
LINE
  8
0
 10
163.270630
 20
56.222809
 11
161.370667
 21
56.222809
  0
LINE
  8
0
 10
163.270599
 20
47.222809
 11
153.470612
 21
47.222809
  0
LINE
  8
0
 10
154.370605
 20
60.222801
 11
154.370605
 21
56.222771
  0
LINE
  8
0
 10
162.370605
 20
60.222801
 11
162.370605
 21
56.222771
  0
LINE
  8
0
 10
158.370605
 20
59.865532
 11
158.370605
 21
57.222832
  0
LINE
  8
0
 10
153.470612
 20
56.222771
 11
153.470612
 21
53.217857
  0
LINE
  8
0
 10
163.270599
 20
56.222771
 11
163.270599
 21
53.217857
  0
LINE
  8
0
 10
152.970596
 20
33.122829
 11
152.970596
 21
50.122829
  0
LINE
  8
0
 10
152.970657
 20
50.122803
 11
151.970657
 21
50.122803
  0
LINE
  8
0
 10
152.970627
 20
33.122803
 11
151.970627
 21
33.122803
  0
LINE
  8
0
 10
57.170456
 20
-8.977402
 11
59.070480
 21
-8.977402
  0
LINE
  8
0
 10
49.270458
 20
-3.982327
 11
49.270458
 21
0.022678
  0
LINE
  8
0
 10
59.070446
 20
-3.982327
 11
59.070446
 21
0.022678
  0
LINE
  8
0
 10
155.370667
 20
56.222809
 11
153.470642
 21
56.222809
  0
LINE
  8
0
 10
153.470612
 20
51.227840
 11
153.470612
 21
47.222775
  0
LINE
  8
0
 10
163.270599
 20
51.227840
 11
163.270599
 21
47.222775
  0
LINE
  8
0
 10
155.970566
 20
3.122421
 11
167.070557
 21
3.122421
  0
LINE
  8
0
 10
155.970581
 20
8.122421
 11
167.070557
 21
8.122421
  0
LINE
  8
0
 62
     2
 10
155.970581
 20
7.522415
 11
167.070587
 21
7.522415
  0
LINE
  8
0
 62
     2
 10
155.970581
 20
3.722427
 11
167.070587
 21
3.722427
  0
LINE
  8
0
 10
167.070557
 20
3.122433
 11
167.070557
 21
8.122433
  0
LINE
  8
0
 10
155.970551
 20
9.622478
 11
155.970551
 21
1.622051
  0
LINE
  8
0
 10
155.613327
 20
10.241180
 11
151.970581
 21
10.241180
  0
LINE
  8
0
 10
155.970978
 20
9.622602
 11
155.613724
 21
10.241383
  0
LINE
  8
0
 10
155.613327
 20
7.931793
 11
151.970581
 21
7.931793
  0
LINE
  8
0
 10
155.613297
 20
3.312988
 11
151.970566
 21
3.312988
  0
LINE
  8
0
 10
155.970871
 20
1.622141
 11
155.613617
 21
1.003362
  0
LINE
  8
0
 10
155.613297
 20
1.003601
 11
151.970566
 21
1.003601
  0
LINE
  8
0
 10
56.570572
 20
44.122803
 11
45.470596
 21
44.122803
  0
LINE
  8
0
 10
56.570572
 20
39.122803
 11
45.470596
 21
39.122803
  0
LINE
  8
0
 62
     2
 10
56.570572
 20
39.722809
 11
45.470566
 21
39.722809
  0
LINE
  8
0
 62
     2
 10
56.570572
 20
43.522797
 11
45.470566
 21
43.522797
  0
LINE
  8
0
 10
45.470592
 20
44.122822
 11
45.470592
 21
39.122822
  0
LINE
  8
0
 10
56.570599
 20
37.622776
 11
56.570599
 21
45.623203
  0
LINE
  8
0
 10
56.927811
 20
37.004044
 11
60.570572
 21
37.004044
  0
LINE
  8
0
 10
56.570259
 20
37.622719
 11
56.927517
 21
37.003937
  0
LINE
  8
0
 10
56.927811
 20
39.313431
 11
60.570572
 21
39.313431
  0
LINE
  8
0
 10
56.927856
 20
43.932236
 11
60.570572
 21
43.932236
  0
LINE
  8
0
 10
56.570358
 20
45.623100
 11
56.927608
 21
46.241867
  0
LINE
  8
0
 10
56.927856
 20
46.241623
 11
60.570572
 21
46.241623
  0
LINE
  8
0
  6
CENTER
 62
     2
 10
100.873810
 20
-8.877411
 11
111.042488
 21
-8.877411
  0
LINE
  8
0
 10
160.870621
 20
72.722809
 11
155.870621
 21
72.722809
  0
LINE
  8
0
 62
     4
 10
60.193954
 20
-11.377395
 11
59.443954
 21
-8.377396
  0
LINE
  8
0
  6
CENTER
 62
     2
 10
18.488853
 20
23.622650
 11
-17.618732
 21
23.622650
  0
LINE
  8
0
 10
14.761871
 20
44.122635
 11
14.761871
 21
63.622635
  0
LINE
  8
0
 10
14.761910
 20
44.122578
 11
14.561904
 21
43.922569
  0
LINE
  8
0
 10
14.761860
 20
3.122666
 11
14.561843
 21
3.322685
  0
LINE
  8
0
 10
14.761871
 20
3.122635
 11
14.761871
 21
0.022644
  0
LINE
  8
0
 10
14.761847
 20
63.622650
 11
8.461841
 21
63.622650
  0
LINE
  8
0
  6
CENTER
 62
     2
 10
-11.238132
 20
36.030304
 11
-11.238132
 21
41.237915
  0
LINE
  8
0
  6
CENTER
 62
     2
 10
-8.547451
 20
38.622635
 11
-14.479095
 21
38.622635
  0
LINE
  8
0
  6
CENTER
 62
     2
 10
-11.238132
 20
11.214966
 11
-11.238132
 21
6.007355
  0
LINE
  8
0
  6
CENTER
 62
     2
 10
-8.547466
 20
8.622650
 11
-14.479076
 21
8.622650
  0
LINE
  8
0
 10
14.761872
 20
-16.377350
 11
8.461858
 21
-16.377350
  0
LINE
  8
0
 10
4.832574
 20
2.122650
 11
-2.308846
 21
2.122650
  0
LINE
  8
0
 10
6.161861
 20
-8.977364
 11
6.161861
 21
-8.377373
  0
LINE
  8
0
 10
-3.638126
 20
-8.977356
 11
-3.638126
 21
0.022652
  0
LINE
  8
0
 10
-3.638126
 20
0.022644
 11
6.161860
 21
0.022644
  0
LINE
  8
0
 10
-3.638123
 20
-8.977356
 11
6.161865
 21
-8.977356
  0
LINE
  8
0
 10
1.261870
 20
-5.677353
 11
8.761869
 21
-5.677353
  0
LINE
  8
0
 10
1.261869
 20
-4.277359
 11
8.761869
 21
-4.277359
  0
LINE
  8
0
 10
6.161811
 20
-8.377409
 11
4.861824
 21
-5.677436
  0
LINE
  8
0
 10
6.161795
 20
-1.577327
 11
4.861791
 21
-4.277335
  0
LINE
  8
0
 10
6.161861
 20
-1.577370
 11
6.161861
 21
0.022636
  0
LINE
  8
0
 10
8.761873
 20
-9.877350
 11
13.061875
 21
-9.877350
  0
LINE
  8
0
 10
15.961868
 20
-9.977371
 11
15.961868
 21
0.022644
  0
LINE
  8
0
 10
14.361862
 20
-9.977371
 11
14.361862
 21
0.022644
  0
LINE
  8
0
 10
6.161865
 20
-8.377350
 11
7.261872
 21
-8.377350
  0
LINE
  8
0
 10
8.761868
 20
-9.877365
 11
8.761868
 21
-0.077366
  0
LINE
  8
0
 10
7.261868
 20
-8.377365
 11
7.261868
 21
-5.677368
  0
LINE
  8
0
 10
13.061871
 20
-9.877365
 11
13.061871
 21
-0.077362
  0
LINE
  8
0
 10
14.361867
 20
-9.977356
 11
15.961873
 21
-9.977356
  0
LINE
  8
0
 10
14.361861
 20
0.022644
 11
15.961867
 21
0.022644
  0
LINE
  8
0
 10
8.761867
 20
-0.077347
 11
13.061870
 21
-0.077347
  0
LINE
  8
0
 10
6.161861
 20
-1.577347
 11
7.261868
 21
-1.577347
  0
LINE
  8
0
 10
13.061874
 20
-8.227356
 11
14.361865
 21
-8.227356
  0
LINE
  8
0
 10
13.061871
 20
-1.727356
 11
14.361862
 21
-1.727356
  0
LINE
  8
0
 10
7.261868
 20
-4.277359
 11
7.261868
 21
-1.577366
  0
LINE
  8
0
 10
8.761790
 20
-9.877381
 11
7.261791
 21
-8.377383
  0
LINE
  8
0
 10
8.761853
 20
-0.077392
 11
7.261862
 21
-1.577383
  0
LINE
  8
0
 10
-2.638128
 20
1.522644
 11
5.161860
 21
1.522644
  0
LINE
  8
0
 10
-2.638130
 20
2.122650
 11
5.161859
 21
2.122650
  0
LINE
  8
0
 10
4.511868
 20
0.022636
 11
4.511868
 21
1.522636
  0
LINE
  8
0
 10
-1.988132
 20
0.022652
 11
-1.988132
 21
1.522652
  0
LINE
  8
0
 10
5.161861
 20
1.522636
 11
5.161861
 21
2.122627
  0
LINE
  8
0
 10
-2.638126
 20
1.522652
 11
-2.638126
 21
2.122643
  0
LINE
  8
0
 10
-1.238103
 20
-25.477356
 11
3.761897
 21
-25.477356
  0
LINE
  8
0
 10
3.761868
 20
-25.477364
 11
3.761868
 21
-21.477364
  0
LINE
  8
0
 10
-1.238132
 20
-25.477371
 11
-1.238132
 21
-21.477371
  0
LINE
  8
0
 10
-1.238106
 20
-21.477356
 11
3.761894
 21
-21.477356
  0
LINE
  8
0
 10
-2.202236
 20
-12.977356
 11
4.725986
 21
-12.977356
  0
LINE
  8
0
 10
-2.738110
 20
-13.777344
 11
5.261889
 21
-13.777344
  0
LINE
  8
0
 10
-2.738110
 20
-16.277344
 11
5.261891
 21
-16.277344
  0
LINE
  8
0
 10
5.261868
 20
-16.277351
 11
5.261868
 21
-13.777351
  0
LINE
  8
0
 10
-2.738132
 20
-16.277359
 11
-2.738132
 21
-13.777359
  0
LINE
  8
0
 10
5.880672
 20
-12.620110
 11
5.880672
 21
-8.977364
  0
LINE
  8
0
 10
3.571255
 20
-12.620110
 11
3.571255
 21
-8.977364
  0
LINE
  8
0
 10
-1.047550
 20
-12.620102
 11
-1.047550
 21
-8.977356
  0
LINE
  8
0
 10
-3.356937
 20
-12.620102
 11
-3.356937
 21
-8.977356
  0
LINE
  8
0
 10
3.761868
 20
-13.777367
 11
3.761868
 21
-12.977379
  0
LINE
  8
0
 10
-1.238132
 20
-13.777359
 11
-1.238132
 21
-12.977371
  0
LINE
  8
0
 10
-0.238132
 20
-21.477371
 11
-0.238132
 21
-16.277359
  0
LINE
  8
0
 10
2.761868
 20
-21.477364
 11
2.761868
 21
-16.277367
  0
LINE
  8
0
 10
2.491360
 20
-21.477364
 11
2.491360
 21
-16.277367
  0
LINE
  8
0
 10
0.032375
 20
-21.477371
 11
0.032375
 21
-16.277359
  0
LINE
  8
0
 10
14.761871
 20
-9.977371
 11
14.761871
 21
-16.377365
  0
LINE
  8
0
 10
14.261871
 20
-1.727356
 11
14.261871
 21
63.422653
  0
LINE
  8
0
 10
-3.719822
 20
5.195383
 11
-4.340439
 21
5.141084
  0
LINE
  8
0
 10
-3.719815
 20
6.050030
 11
-4.340442
 21
6.104322
  0
LINE
  8
0
 10
-0.238124
 20
-16.377350
 11
-3.838131
 21
-16.377350
  0
LINE
  8
0
 10
14.261847
 20
63.422653
 11
9.761844
 21
63.422653
  0
LINE
  8
0
 10
14.261872
 20
-16.177338
 11
9.661901
 21
-16.177338
  0
LINE
  8
0
 10
-5.738132
 20
51.961945
 11
-5.738132
 21
51.122650
  0
LINE
  8
0
 10
-7.238146
 20
20.622650
 11
-15.238146
 21
20.622650
  0
LINE
  8
0
 10
-7.238150
 20
26.622650
 11
-15.238150
 21
26.622650
  0
LINE
  8
0
 10
-5.738132
 20
-7.677353
 11
-5.738132
 21
54.922638
  0
LINE
  8
0
 10
1.261770
 20
37.004105
 11
5.261759
 21
39.313496
  0
LINE
  8
0
 10
-2.738197
 20
39.313148
 11
1.261805
 21
37.003746
  0
LINE
  8
0
 10
-2.738132
 20
43.932060
 11
-2.738132
 21
39.313267
  0
LINE
  8
0
 10
-2.738304
 20
43.932377
 11
1.261708
 21
46.241783
  0
LINE
  8
0
 10
1.261831
 20
46.241413
 11
5.261846
 21
43.931999
  0
LINE
  8
0
 10
5.261868
 20
43.932045
 11
5.261868
 21
39.313240
  0
LINE
  8
0
 10
-7.238132
 20
20.622650
 11
-7.238132
 21
26.622650
  0
LINE
  8
0
 10
-15.238132
 20
55.322632
 11
-15.238132
 21
61.559143
  0
LINE
  8
0
 10
-13.238132
 20
56.472656
 11
-13.238132
 21
55.772644
  0
LINE
  8
0
 10
-15.238132
 20
51.922638
 11
-15.238132
 21
47.622635
  0
LINE
  8
0
 10
8.461864
 20
61.622646
 11
8.461864
 21
63.622662
  0
LINE
  8
0
 10
5.061871
 20
61.622643
 11
5.061871
 21
63.622658
  0
LINE
  8
0
 10
-7.638165
 20
63.622650
 11
-11.738155
 21
63.622650
  0
LINE
  8
0
 10
-15.238132
 20
26.622650
 11
-15.238132
 21
46.622650
  0
LINE
  8
0
 10
-5.738150
 20
51.622635
 11
-7.649328
 21
51.622635
  0
LINE
  8
0
 10
-5.738148
 20
51.122635
 11
-6.738148
 21
51.122635
  0
LINE
  8
0
 10
-13.238167
 20
55.322647
 11
-15.238167
 21
55.322647
  0
LINE
  8
0
 10
-13.238165
 20
51.922653
 11
-15.238165
 21
51.922653
  0
LINE
  8
0
 10
-13.238132
 20
50.772659
 11
-13.238132
 21
51.922668
  0
LINE
  8
0
 10
-10.738163
 20
50.772629
 11
-13.238163
 21
50.772629
  0
LINE
  8
0
 10
-10.738132
 20
56.472630
 11
-10.738132
 21
50.772629
  0
LINE
  8
0
 10
-13.238132
 20
56.472656
 11
-13.238132
 21
55.322632
  0
LINE
  8
0
 10
-10.738167
 20
56.472656
 11
-13.238167
 21
56.472656
  0
LINE
  8
0
 10
-6.438129
 20
54.922638
 11
-6.438129
 21
57.822632
  0
LINE
  8
0
 10
-8.588123
 20
57.822632
 11
-8.588123
 21
60.322632
  0
LINE
  8
0
 10
-6.438150
 20
57.822647
 11
-8.588144
 21
57.822647
  0
LINE
  8
0
 10
-7.638165
 20
60.322647
 11
-8.588146
 21
60.322647
  0
LINE
  8
0
 62
     4
 10
-7.488110
 20
-13.877350
 11
-5.738110
 21
-13.877350
  0
LINE
  8
0
 62
     4
 10
-6.038136
 20
-14.477371
 11
-6.038136
 21
-15.152588
  0
LINE
  8
0
 62
     4
 10
-6.238132
 20
-7.877380
 11
-6.238132
 21
-11.877380
  0
LINE
  8
0
 62
     4
 10
-6.738110
 20
-11.877350
 11
-3.356915
 21
-11.877350
  0
LINE
  8
0
 62
     4
 10
-6.738132
 20
-11.877380
 11
-6.738132
 21
-12.477371
  0
LINE
  8
0
 10
-7.638126
 20
60.322632
 11
-7.638126
 21
63.622650
  0
LINE
  8
0
 62
     4
 10
-8.338100
 20
-12.477356
 11
-3.356915
 21
-12.477356
  0
LINE
  8
0
 62
     4
 10
-8.338123
 20
-12.477386
 11
-8.338123
 21
-13.077362
  0
LINE
  8
0
 62
     4
 10
-7.338100
 20
-13.677353
 11
-4.138149
 21
-13.677353
  0
LINE
  8
0
 62
     4
 10
-7.338123
 20
-13.377380
 11
-7.338123
 21
-13.677368
  0
LINE
  8
0
 10
-2.138126
 20
54.922646
 11
-2.138126
 21
63.422642
  0
LINE
  8
0
 10
-3.838123
 20
63.422642
 11
-3.838123
 21
63.622654
  0
LINE
  8
0
 10
5.061847
 20
63.622650
 11
-3.838146
 21
63.622650
  0
LINE
  8
0
 10
-6.438129
 20
-7.877350
 11
-6.438129
 21
-10.577362
  0
LINE
  8
0
 10
-8.588123
 20
-10.577362
 11
-8.588123
 21
-13.077362
  0
LINE
  8
0
 10
-6.438139
 20
-10.577347
 11
-8.588133
 21
-10.577347
  0
LINE
  8
0
 10
-7.638126
 20
-13.077362
 11
-7.638126
 21
-16.377350
  0
LINE
  8
0
 10
5.061871
 20
-16.277344
 11
5.061871
 21
-16.377373
  0
LINE
  8
0
 10
8.461864
 20
-14.377350
 11
8.461864
 21
-16.377365
  0
LINE
  8
0
 10
-3.838123
 20
-13.077362
 11
-3.838123
 21
-16.377350
  0
LINE
  8
0
 10
-3.638123
 20
-7.877350
 11
-6.438141
 21
-7.877350
  0
LINE
  8
0
 10
5.061864
 20
-16.377350
 11
2.761876
 21
-16.377350
  0
LINE
  8
0
 10
-8.082295
 20
51.372559
 11
-10.103022
 21
47.872562
  0
LINE
  8
0
 10
-6.738132
 20
46.622650
 11
-6.738132
 21
51.122635
  0
LINE
  8
0
 10
-15.238132
 20
-8.077362
 11
-15.238132
 21
-14.313843
  0
LINE
  8
0
 10
-13.238132
 20
-9.227371
 11
-13.238132
 21
-8.527344
  0
LINE
  8
0
 10
-15.238132
 20
-4.677353
 11
-15.238132
 21
-0.377350
  0
LINE
  8
0
 10
-7.638134
 20
-16.377350
 11
-11.738125
 21
-16.377350
  0
LINE
  8
0
 10
-15.238132
 20
20.622650
 11
-15.238132
 21
0.622650
  0
LINE
  8
0
 10
-13.238159
 20
-8.077347
 11
-15.238159
 21
-8.077347
  0
LINE
  8
0
 10
-13.238161
 20
-4.677338
 11
-15.238161
 21
-4.677338
  0
LINE
  8
0
 10
-13.238132
 20
-3.527374
 11
-13.238132
 21
-4.677368
  0
LINE
  8
0
 10
-10.738163
 20
-3.527344
 11
-13.238163
 21
-3.527344
  0
LINE
  8
0
 10
-10.738132
 20
-9.227341
 11
-10.738132
 21
-3.527344
  0
LINE
  8
0
 10
-13.238132
 20
-9.227371
 11
-13.238132
 21
-8.077362
  0
LINE
  8
0
 10
-10.738159
 20
-9.227356
 11
-13.238159
 21
-9.227356
  0
LINE
  8
0
 10
-8.082386
 20
-4.127357
 11
-10.103107
 21
-0.627364
  0
LINE
  8
0
 10
-5.738131
 20
-4.377335
 11
-7.649324
 21
-4.377335
  0
LINE
  8
0
 10
-5.738132
 20
-3.877335
 11
-6.738132
 21
-3.877335
  0
LINE
  8
0
 10
-6.738132
 20
0.622650
 11
-6.738132
 21
-3.877350
  0
LINE
  8
0
 10
-2.638182
 20
20.447372
 11
0.111809
 21
22.035080
  0
LINE
  8
0
 10
-5.388162
 20
22.034885
 11
-2.638151
 21
20.447165
  0
LINE
  8
0
 10
-5.388126
 20
25.210358
 11
-5.388126
 21
22.034927
  0
LINE
  8
0
 10
-5.388240
 20
25.210537
 11
-2.638221
 21
26.798260
  0
LINE
  8
0
 10
-2.638172
 20
26.798010
 11
0.111824
 21
25.210299
  0
LINE
  8
0
 10
0.111874
 20
25.210361
 11
0.111874
 21
22.034931
  0
LINE
  8
0
 10
-6.738134
 20
0.622650
 11
-15.238134
 21
0.622650
  0
LINE
  8
0
 10
-6.738146
 20
46.622635
 11
-15.238146
 21
46.622635
  0
LINE
  8
0
 10
-10.536076
 20
-0.377350
 11
-15.238132
 21
-0.377350
  0
LINE
  8
0
 10
-10.536076
 20
47.622635
 11
-15.238148
 21
47.622635
  0
LINE
  8
0
 10
-6.238132
 20
-3.877350
 11
-6.238132
 21
51.122635
  0
LINE
  8
0
 10
-6.438148
 20
54.922653
 11
-2.138161
 21
54.922653
  0
LINE
  8
0
 10
-3.638123
 20
-7.677338
 11
-5.738129
 21
-7.677338
  0
LINE
  8
0
 10
14.561867
 20
3.322678
 11
14.561867
 21
43.922653
  0
LINE
  8
0
 10
14.261871
 20
-8.227356
 11
14.261871
 21
-16.177353
  0
LINE
  8
0
 10
-2.138126
 20
-12.977371
 11
-2.138126
 21
-13.777359
  0
LINE
  8
0
 10
-2.138103
 20
-13.077347
 11
-3.838100
 21
-13.077347
  0
LINE
  8
0
 62
     4
 10
-5.438160
 20
-14.477371
 11
-5.438160
 21
-15.152588
  0
LINE
  8
0
 62
     4
 10
-5.438137
 20
-14.477356
 11
-6.038113
 21
-14.477356
  0
LINE
  8
0
 62
     4
 10
-3.988140
 20
-13.877350
 11
-5.738140
 21
-13.877350
  0
LINE
  8
0
 62
     4
 10
-4.738163
 20
-11.877380
 11
-4.738163
 21
-12.477371
  0
LINE
  8
0
 62
     4
 10
-4.138172
 20
-13.377380
 11
-4.138172
 21
-13.677368
  0
LINE
  8
0
 62
     4
 10
-3.138172
 20
-12.750580
 11
-3.138172
 21
-13.077362
  0
LINE
  8
0
 62
     4
 10
-6.738132
 20
-13.677368
 11
-6.738132
 21
-13.877380
  0
LINE
  8
0
 62
     4
 10
-4.738163
 20
-13.677368
 11
-4.738163
 21
-13.877380
  0
LINE
  8
0
 10
9.661877
 20
-16.177338
 11
9.661877
 21
-11.677338
  0
LINE
  8
0
 10
9.661898
 20
-11.677338
 11
5.880693
 21
-11.677338
  0
LINE
  8
0
 10
9.661900
 20
-14.377350
 11
8.461857
 21
-14.377350
  0
LINE
  8
0
 10
-3.838123
 20
60.322636
 11
-3.838123
 21
63.622654
  0
LINE
  8
0
 10
-3.838146
 20
60.322647
 11
-2.138149
 21
60.322647
  0
LINE
  8
0
 10
9.761847
 20
58.922653
 11
3.761847
 21
58.922653
  0
LINE
  8
0
 10
9.761868
 20
58.922649
 11
9.761868
 21
63.422649
  0
LINE
  8
0
 10
3.761868
 20
58.922646
 11
3.761868
 21
63.422646
  0
LINE
  8
0
 10
9.761845
 20
61.622650
 11
8.461842
 21
61.622650
  0
LINE
  8
0
 10
5.061848
 20
61.622650
 11
3.761845
 21
61.622650
  0
LINE
  8
0
 10
3.761844
 20
63.422653
 11
-2.138149
 21
63.422653
  0
LINE
  8
0
 10
-7.638103
 20
-13.077347
 11
-8.588131
 21
-13.077347
  0
LINE
  8
0
 10
15.961868
 20
57.222672
 11
15.961868
 21
47.222656
  0
LINE
  8
0
 10
14.761871
 20
57.222656
 11
15.961873
 21
57.222656
  0
LINE
  8
0
 10
14.761871
 20
47.222656
 11
15.961867
 21
47.222656
  0
LINE
  8
0
 10
-1.238103
 20
72.722656
 11
3.761897
 21
72.722656
  0
LINE
  8
0
 10
3.761868
 20
72.722664
 11
3.761868
 21
68.722664
  0
LINE
  8
0
 10
-1.238132
 20
72.722672
 11
-1.238132
 21
68.722672
  0
LINE
  8
0
 10
-1.238106
 20
68.722656
 11
3.761894
 21
68.722656
  0
LINE
  8
0
 10
3.761868
 20
60.222656
 11
4.725986
 21
60.222656
  0
LINE
  8
0
 10
3.761868
 20
61.022644
 11
5.261889
 21
61.022644
  0
LINE
  8
0
 10
5.061871
 20
63.522644
 11
5.261891
 21
63.522644
  0
LINE
  8
0
 10
5.261868
 20
63.522652
 11
5.261868
 21
61.022652
  0
LINE
  8
0
 10
5.880672
 20
59.865410
 11
5.880672
 21
58.922653
  0
LINE
  8
0
 10
-0.238132
 20
68.722672
 11
-0.238132
 21
63.622650
  0
LINE
  8
0
 10
2.761868
 20
68.722664
 11
2.761868
 21
63.622650
  0
LINE
  8
0
 10
2.491360
 20
68.722664
 11
2.491360
 21
63.622650
  0
LINE
  8
0
 10
0.032375
 20
68.722672
 11
0.032375
 21
63.622650
  0
LINE
  8
0
 10
155.970581
 20
-69.120148
 11
167.070587
 21
-69.120148
  0
LINE
  8
0
 10
155.970581
 20
-74.120148
 11
167.070587
 21
-74.120148
  0
LINE
  8
0
 10
167.070587
 20
-69.120140
 11
167.070587
 21
-74.120140
  0
LINE
  8
0
 62
     2
 10
155.970581
 20
-73.520149
 11
167.070557
 21
-73.520149
  0
LINE
  8
0
 62
     2
 10
155.970581
 20
-69.720146
 11
167.070587
 21
-69.720146
  0
LINE
  8
0
 10
146.270569
 20
-58.120132
 11
146.270569
 21
-88.120155
  0
LINE
  8
0
 10
151.970581
 20
-58.620140
 11
151.970581
 21
-78.620140
  0
LINE
  8
0
 10
151.970581
 20
-58.620163
 11
146.270599
 21
-58.620163
  0
LINE
  8
0
  6
CENTER
 62
     2
 10
43.664783
 20
-71.620148
 11
169.016663
 21
-71.620148
  0
LINE
  8
0
 10
59.770576
 20
-77.620125
 11
59.770576
 21
-65.620079
  0
LINE
  8
0
 10
60.570580
 20
-65.620132
 11
59.770592
 21
-65.620132
  0
LINE
  8
0
 10
66.270592
 20
-58.120163
 11
146.270599
 21
-58.120163
  0
LINE
  8
0
 10
66.270538
 20
-88.120163
 11
146.270569
 21
-88.120163
  0
LINE
  8
0
 10
66.270592
 20
-67.820160
 11
146.270569
 21
-67.820160
  0
LINE
  8
0
 10
66.270592
 20
-64.420151
 11
146.270599
 21
-64.420151
  0
LINE
  8
0
 10
66.270576
 20
-58.120094
 11
66.270576
 21
-88.120094
  0
LINE
  8
0
 10
60.570595
 20
-58.620163
 11
66.270592
 21
-58.620163
  0
LINE
  8
0
  6
CENTER
 62
     2
 10
106.270569
 20
-55.688545
 11
106.270569
 21
-90.907425
  0
LINE
  8
0
 10
58.570427
 20
-73.929314
 11
54.570427
 21
-76.238716
  0
LINE
  8
0
 10
54.570446
 20
-67.001068
 11
50.570480
 21
-69.310440
  0
LINE
  8
0
 10
50.570568
 20
-73.929482
 11
50.570568
 21
-69.310677
  0
LINE
  8
0
 10
58.570564
 20
-73.929512
 11
58.570564
 21
-69.310707
  0
LINE
  8
0
 10
54.570419
 20
-76.238708
 11
50.570591
 21
-73.929405
  0
LINE
  8
0
 10
58.570583
 20
-69.310661
 11
54.570583
 21
-67.001259
  0
LINE
  8
0
 10
49.670574
 20
-71.620094
 11
49.670574
 21
-59.820076
  0
LINE
  8
0
 10
49.570595
 20
-56.920151
 11
59.570595
 21
-56.920151
  0
LINE
  8
0
 10
49.570595
 20
-58.520157
 11
59.570595
 21
-58.520157
  0
LINE
  8
0
 10
161.370560
 20
-66.620140
 11
161.370560
 21
-65.620102
  0
LINE
  8
0
 10
162.870544
 20
-64.120148
 11
153.070557
 21
-64.120148
  0
LINE
  8
0
 10
161.370544
 20
-65.620148
 11
154.570557
 21
-65.620148
  0
LINE
  8
0
 10
49.670601
 20
-59.820145
 11
59.470589
 21
-59.820145
  0
LINE
  8
0
 10
49.570568
 20
-58.520088
 11
49.570568
 21
-56.920082
  0
LINE
  8
0
 10
59.570564
 20
-58.520088
 11
59.570564
 21
-56.920082
  0
LINE
  8
0
 10
59.470558
 20
-71.620094
 11
59.470558
 21
-59.820076
  0
LINE
  8
0
 10
154.570587
 20
-66.620140
 11
154.570587
 21
-65.620102
  0
LINE
  8
0
 10
51.320568
 20
-59.820076
 11
51.320568
 21
-58.520088
  0
LINE
  8
0
 10
57.820564
 20
-59.820076
 11
57.820564
 21
-58.520088
  0
LINE
  8
0
 10
162.870880
 20
-64.120445
 11
161.370895
 21
-65.620438
  0
LINE
  8
0
 10
153.070786
 20
-64.119858
 11
154.570770
 21
-65.619850
  0
LINE
  8
0
 10
49.670586
 20
-69.120148
 11
45.470573
 21
-69.120148
  0
LINE
  8
0
 10
50.070576
 20
-74.120148
 11
45.470570
 21
-74.120148
  0
LINE
  8
0
 10
45.470562
 20
-69.120125
 11
45.470562
 21
-74.120125
  0
LINE
  8
0
 62
     2
 10
50.053974
 20
-73.520149
 11
45.470570
 21
-73.520149
  0
LINE
  8
0
 62
     2
 10
49.670586
 20
-69.720146
 11
45.470573
 21
-69.720146
  0
LINE
  8
0
 10
59.770592
 20
-66.620132
 11
59.470573
 21
-66.620132
  0
LINE
  8
0
 10
50.070568
 20
-73.559166
 11
50.070568
 21
-76.620140
  0
LINE
  8
0
 10
66.270592
 20
-60.120163
 11
146.270599
 21
-60.120163
  0
LINE
  8
0
 10
66.270592
 20
-61.120163
 11
146.270599
 21
-61.120163
  0
LINE
  8
0
 10
151.970581
 20
-75.620148
 11
155.970581
 21
-75.620148
  0
LINE
  8
0
 10
146.270569
 20
-78.620148
 11
151.970581
 21
-78.620148
  0
LINE
  8
0
 10
155.970581
 20
-75.620132
 11
155.970581
 21
-67.620132
  0
LINE
  8
0
 10
155.494202
 20
-71.620148
 11
151.970581
 21
-71.620148
  0
LINE
  8
0
 10
60.570564
 20
-58.620094
 11
60.570564
 21
-75.620148
  0
LINE
  8
0
 62
     4
 10
138.677002
 20
-78.852180
 11
138.677002
 21
-76.720116
  0
LINE
  8
0
 62
     4
 10
137.677032
 20
-79.120155
 11
128.723816
 21
-79.120155
  0
LINE
  8
0
 62
     4
 10
112.677010
 20
-76.720123
 11
112.677010
 21
-79.120117
  0
LINE
  8
0
 62
     4
 10
112.677017
 20
-78.620155
 11
60.940479
 21
-78.620155
  0
LINE
  8
0
 62
     4
 10
66.270584
 20
-75.620155
 11
59.911907
 21
-75.620155
  0
LINE
  8
0
 62
     4
 10
128.723785
 20
-76.720123
 11
128.723785
 21
-80.520126
  0
LINE
  8
0
 62
     4
 10
123.723793
 20
-76.720123
 11
123.723793
 21
-80.520119
  0
LINE
  8
0
 62
     4
 10
123.723816
 20
-79.120155
 11
112.677025
 21
-79.120155
  0
LINE
  8
0
 62
     4
 10
137.677002
 20
-79.120117
 11
137.677002
 21
-76.720108
  0
LINE
  8
0
 62
     4
 10
138.677048
 20
-78.852226
 11
137.677048
 21
-79.120178
  0
LINE
  8
0
 10
66.270554
 20
-76.720154
 11
146.270569
 21
-76.720154
  0
LINE
  8
0
 10
66.270554
 20
-80.520157
 11
146.270569
 21
-80.520157
  0
LINE
  8
0
 62
     4
 10
124.499695
 20
-78.920158
 11
127.947876
 21
-78.920158
  0
LINE
  8
0
 62
     4
 10
124.499695
 20
-78.320160
 11
127.947876
 21
-78.320160
  0
LINE
  8
0
 10
165.270569
 20
-77.320152
 11
165.270569
 21
-74.320152
  0
LINE
  8
0
 62
     2
 10
155.970581
 20
-74.720154
 11
165.170685
 21
-74.720154
  0
LINE
  8
0
 10
151.970581
 20
-67.620148
 11
155.970581
 21
-67.620148
  0
LINE
  8
0
 10
162.870575
 20
-69.255074
 11
162.870575
 21
-59.820122
  0
LINE
  8
0
 10
162.970581
 20
-56.920151
 11
152.970581
 21
-56.920151
  0
LINE
  8
0
 10
162.970581
 20
-58.520157
 11
152.970581
 21
-58.520157
  0
LINE
  8
0
 10
162.870575
 20
-59.820145
 11
153.070587
 21
-59.820145
  0
LINE
  8
0
 10
162.970581
 20
-58.520134
 11
162.970581
 21
-56.920128
  0
LINE
  8
0
 10
152.970581
 20
-58.520134
 11
152.970581
 21
-56.920128
  0
LINE
  8
0
 10
153.070587
 20
-67.620140
 11
153.070587
 21
-59.820122
  0
LINE
  8
0
 10
161.220581
 20
-59.820122
 11
161.220581
 21
-58.520134
  0
LINE
  8
0
 10
154.720581
 20
-59.820122
 11
154.720581
 21
-58.520134
  0
LINE
  8
0
 10
128.723785
 20
-79.320160
 11
146.270569
 21
-79.320160
  0
LINE
  8
0
 10
66.270554
 20
-79.320160
 11
123.723785
 21
-79.320160
  0
LINE
  8
0
 10
155.915009
 20
-74.320152
 11
165.270569
 21
-74.320152
  0
LINE
  8
0
 10
146.270569
 20
-63.120155
 11
151.970581
 21
-63.120155
  0
LINE
  8
0
 10
146.270569
 20
-69.120155
 11
151.970581
 21
-69.120155
  0
LINE
  8
0
 10
146.270569
 20
-75.120155
 11
151.970581
 21
-75.120155
  0
LINE
  8
0
 62
     2
 10
154.370575
 20
-76.920151
 11
165.170685
 21
-76.920151
  0
LINE
  8
0
 10
154.370575
 20
-77.320152
 11
165.270569
 21
-77.320152
  0
LINE
  8
0
 10
151.970581
 20
-78.570152
 11
154.370575
 21
-78.570152
  0
LINE
  8
0
 10
154.370575
 20
-75.620140
 11
154.370575
 21
-78.570152
  0
LINE
  8
0
 10
151.970581
 20
-75.820152
 11
154.370575
 21
-75.820152
  0
LINE
  8
0
 62
     4
 10
60.940487
 20
-78.620125
 11
59.911922
 21
-75.620155
  0
LINE
  8
0
  6
CENTER
 62
     2
 10
138.770569
 20
-55.325909
 11
138.770569
 21
-61.883427
  0
LINE
  8
0
  6
CENTER
 62
     2
 10
73.770576
 20
-55.325893
 11
73.770576
 21
-62.387844
  0
LINE
  8
0
  6
CENTER
 62
     2
 10
73.770576
 20
-81.555977
 11
73.770576
 21
-91.896698
  0
LINE
  8
0
  6
CENTER
 62
     2
 10
138.770569
 20
-80.799362
 11
138.770569
 21
-92.401123
  0
LINE
  8
0
 10
60.570576
 20
-77.620132
 11
59.770588
 21
-77.620132
  0
LINE
  8
0
 10
50.070564
 20
-76.620148
 11
59.770573
 21
-76.620148
  0
LINE
  8
0
 10
60.940472
 20
-78.620132
 11
60.570560
 21
-78.620132
  0
LINE
  8
0
 10
60.570564
 20
-77.541214
 11
60.570564
 21
-78.620125
  0
LINE
  8
0
 10
47.270561
 20
-77.320137
 11
47.270561
 21
-74.320137
  0
LINE
  8
0
 62
     2
 10
50.070564
 20
-74.720154
 11
47.270557
 21
-74.720154
  0
LINE
  8
0
 62
     2
 10
58.170551
 20
-76.920151
 11
47.270557
 21
-76.920151
  0
LINE
  8
0
 10
58.170551
 20
-77.320152
 11
47.270557
 21
-77.320152
  0
LINE
  8
0
 10
60.570545
 20
-78.570152
 11
58.170551
 21
-78.570152
  0
LINE
  8
0
 10
58.170555
 20
-76.620140
 11
58.170555
 21
-78.570137
  0
LINE
  8
0
 10
45.470558
 20
-69.120125
 11
45.470558
 21
-74.120125
  0
LINE
  8
0
 10
50.070564
 20
-74.120148
 11
45.470539
 21
-74.120148
  0
LINE
  8
0
 62
     2
 10
50.070564
 20
-73.520149
 11
45.470570
 21
-73.520149
  0
LINE
  8
0
 62
     2
 10
49.670574
 20
-69.720146
 11
45.470543
 21
-69.720146
  0
LINE
  8
0
 10
49.670574
 20
-69.120148
 11
45.470543
 21
-69.120148
  0
LINE
  8
0
 10
50.070564
 20
-74.320152
 11
47.270557
 21
-74.320152
  0
LINE
  8
0
 10
162.870575
 20
-66.620132
 11
153.070587
 21
-66.620132
  0
LINE
  8
0
 10
-122.520966
 20
2.003485
 11
-124.654976
 21
9.967716
  0
LINE
  8
0
 10
-123.738831
 20
1.773653
 11
-125.848724
 21
9.647888
  0
LINE
  8
0
  6
CENTER
 62
     2
 10
-113.729378
 20
66.841034
 11
-113.729378
 21
-19.272984
  0
LINE
  8
0
 10
-153.729324
 20
-16.377323
 11
-73.729317
 21
-16.377323
  0
LINE
  8
0
 10
-153.729294
 20
63.622646
 11
-73.729286
 21
63.622646
  0
LINE
  8
0
  6
CENTER
 62
     2
 10
-173.725174
 20
23.622646
 11
-48.479439
 21
23.622646
  0
LINE
  8
0
 10
-153.729309
 20
-4.677341
 11
-73.729309
 21
-4.677341
  0
LINE
  8
0
 10
-153.729309
 20
51.922634
 11
-73.729294
 21
51.922634
  0
LINE
  8
0
 10
-73.729301
 20
63.622498
 11
-73.729301
 21
-16.377472
  0
LINE
  8
0
 10
-163.429443
 20
8.122738
 11
-174.529434
 21
8.122738
  0
LINE
  8
0
 10
-163.429459
 20
3.122738
 11
-174.529434
 21
3.122738
  0
LINE
  8
0
 62
     2
 10
-163.429459
 20
3.722744
 11
-174.529465
 21
3.722744
  0
LINE
  8
0
 62
     2
 10
-163.429459
 20
7.522732
 11
-174.529465
 21
7.522732
  0
LINE
  8
0
 10
-57.129292
 20
2.122528
 11
-57.129292
 21
10.622559
  0
LINE
  8
0
 10
-67.029305
 20
10.622555
 11
-57.129292
 21
10.622555
  0
LINE
  8
0
 10
-67.029305
 20
0.622555
 11
-66.129295
 21
0.622555
  0
LINE
  8
0
 10
-66.129311
 20
0.622528
 11
-66.129311
 21
2.122528
  0
LINE
  8
0
 10
-66.129295
 20
2.122555
 11
-57.129314
 21
2.122555
  0
LINE
  8
0
 10
-65.529305
 20
2.122555
 11
-57.729321
 21
2.122555
  0
LINE
  8
0
 10
-59.129292
 20
-25.477451
 11
-64.129288
 21
-25.477451
  0
LINE
  8
0
 10
-64.129295
 20
-25.477448
 11
-64.129295
 21
-21.477448
  0
LINE
  8
0
 10
-59.129295
 20
-25.477448
 11
-59.129295
 21
-21.477448
  0
LINE
  8
0
 10
-59.129292
 20
-21.477451
 11
-64.129288
 21
-21.477451
  0
LINE
  8
0
 10
-57.729321
 20
1.522549
 11
-65.529305
 21
1.522549
  0
LINE
  8
0
 10
-57.629311
 20
-12.977451
 11
-65.629311
 21
-12.977451
  0
LINE
  8
0
 10
-57.629288
 20
-13.777439
 11
-65.629288
 21
-13.777439
  0
LINE
  8
0
 10
-57.629288
 20
-16.277439
 11
-65.629288
 21
-16.277439
  0
LINE
  8
0
 10
-65.629295
 20
-16.277435
 11
-65.629295
 21
-13.777435
  0
LINE
  8
0
 10
-57.629292
 20
-16.277435
 11
-57.629292
 21
-13.777435
  0
LINE
  8
0
 10
-64.129295
 20
-13.777466
 11
-64.129295
 21
-12.977478
  0
LINE
  8
0
 10
-59.129295
 20
-13.777466
 11
-59.129295
 21
-12.977478
  0
LINE
  8
0
 10
-60.129295
 20
-21.477478
 11
-60.129295
 21
-16.277466
  0
LINE
  8
0
 10
-63.129295
 20
-21.477478
 11
-63.129295
 21
-16.277466
  0
LINE
  8
0
 62
     2
 10
-62.858788
 20
-21.477478
 11
-62.858788
 21
-16.277466
  0
LINE
  8
0
 62
     2
 10
-60.399803
 20
-21.477478
 11
-60.399803
 21
-16.277466
  0
LINE
  8
0
 10
-64.879295
 20
0.022522
 11
-64.879295
 21
1.522522
  0
LINE
  8
0
 10
-58.379295
 20
0.022522
 11
-58.379295
 21
1.522522
  0
LINE
  8
0
 10
-65.529289
 20
1.522522
 11
-65.529289
 21
2.122528
  0
LINE
  8
0
 10
-57.729298
 20
1.522522
 11
-57.729298
 21
2.122528
  0
LINE
  8
0
 10
-57.729321
 20
2.122555
 11
-65.529305
 21
2.122555
  0
LINE
  8
0
 10
-56.729321
 20
0.022549
 11
-66.529305
 21
0.022549
  0
LINE
  8
0
 10
-65.629295
 20
-12.977478
 11
-65.629295
 21
-8.977451
  0
LINE
  8
0
 10
-57.629292
 20
-12.977478
 11
-57.629292
 21
-8.977451
  0
LINE
  8
0
 10
-61.629295
 20
-12.620209
 11
-61.629295
 21
-8.977451
  0
LINE
  8
0
 10
-66.529289
 20
-8.977451
 11
-66.529289
 21
0.022522
  0
LINE
  8
0
 10
-56.729298
 20
-8.977451
 11
-56.729298
 21
0.022522
  0
LINE
  8
0
 10
-126.429451
 20
28.122555
 11
-101.229301
 21
28.122555
  0
LINE
  8
0
 10
-126.429451
 20
19.122555
 11
-101.229301
 21
19.122555
  0
LINE
  8
0
 10
-73.729286
 20
63.422543
 11
-68.029274
 21
63.422543
  0
LINE
  8
0
 10
-73.729317
 20
-16.177464
 11
-68.029305
 21
-16.177464
  0
LINE
  8
0
 10
-85.229301
 20
47.622589
 11
-85.229301
 21
-0.377382
  0
LINE
  8
0
 10
-77.229301
 20
47.622589
 11
-77.229301
 21
-0.377413
  0
LINE
  8
0
 10
-101.029305
 20
47.622589
 11
-101.029305
 21
-0.377382
  0
LINE
  8
0
 10
-85.229317
 20
26.622555
 11
-77.229286
 21
26.622555
  0
LINE
  8
0
 10
-85.229317
 20
20.622555
 11
-77.229286
 21
20.622555
  0
LINE
  8
0
 10
-74.729317
 20
-0.377476
 11
-73.729317
 21
-0.377476
  0
LINE
  8
0
 10
-174.529434
 20
8.122733
 11
-174.529434
 21
3.122734
  0
LINE
  8
0
 10
-68.029305
 20
63.422485
 11
-68.029305
 21
-16.177490
  0
LINE
  8
0
 10
-163.429428
 20
1.622673
 11
-163.429428
 21
9.623100
  0
LINE
  8
0
 10
-163.072205
 20
1.003963
 11
-159.429459
 21
1.003963
  0
LINE
  8
0
 10
-163.429825
 20
1.622599
 11
-163.072556
 21
1.003819
  0
LINE
  8
0
 10
-163.072205
 20
3.313351
 11
-159.429459
 21
3.313351
  0
LINE
  8
0
 10
-163.072174
 20
7.932186
 11
-159.429443
 21
7.932186
  0
LINE
  8
0
 10
-163.429672
 20
9.623000
 11
-163.072418
 21
10.241779
  0
LINE
  8
0
 10
-163.072174
 20
10.241573
 11
-159.429443
 21
10.241573
  0
LINE
  8
0
 10
-110.729301
 20
55.322659
 11
-110.729301
 21
63.622677
  0
LINE
  8
0
 10
-73.729317
 20
-7.877445
 11
-68.029289
 21
-7.877445
  0
LINE
  8
0
 10
-73.729286
 20
55.122555
 11
-68.029274
 21
55.122555
  0
LINE
  8
0
 10
-73.729286
 20
55.322536
 11
-77.310097
 21
55.322536
  0
LINE
  8
0
 10
-85.148476
 20
55.322536
 11
-110.837929
 21
55.322536
  0
LINE
  8
0
 10
-85.148514
 20
-8.077457
 11
-110.837944
 21
-8.077457
  0
LINE
  8
0
 10
-73.729317
 20
-8.077457
 11
-77.310127
 21
-8.077457
  0
LINE
  8
0
 10
-73.729317
 20
25.122555
 11
-74.729286
 21
25.122555
  0
LINE
  8
0
 10
-73.729317
 20
22.122555
 11
-74.729286
 21
22.122555
  0
LINE
  8
0
 10
-74.729301
 20
21.222534
 11
-74.729301
 21
26.022522
  0
LINE
  8
0
 10
-68.029305
 20
20.447140
 11
-65.874947
 21
20.447140
  0
LINE
  8
0
 10
-65.874947
 20
22.034847
 11
-68.029305
 21
22.034847
  0
LINE
  8
0
 10
-65.629311
 20
21.164734
 11
-65.629311
 21
25.595581
  0
LINE
  8
0
 10
-68.029305
 20
26.797939
 11
-65.874947
 21
26.797939
  0
LINE
  8
0
 10
-65.629311
 20
26.080322
 11
-65.629311
 21
21.649445
  0
LINE
  8
0
 10
-65.874947
 20
25.210262
 11
-68.029305
 21
25.210262
  0
LINE
  8
0
 10
-54.729298
 20
22.122559
 11
-54.729298
 21
25.122559
  0
LINE
  8
0
 10
-65.629311
 20
25.122555
 11
-54.729298
 21
25.122555
  0
LINE
  8
0
 10
-65.629311
 20
22.122555
 11
-54.729298
 21
22.122555
  0
LINE
  8
0
 62
     2
 10
-65.629311
 20
24.722530
 11
-54.829227
 21
24.722530
  0
LINE
  8
0
 62
     2
 10
-65.629311
 20
22.522518
 11
-54.829288
 21
22.522518
  0
LINE
  8
0
 62
     2
 10
-74.729286
 20
24.722530
 11
-73.729317
 21
24.722530
  0
LINE
  8
0
 62
     2
 10
-74.729286
 20
22.522518
 11
-73.729317
 21
22.522518
  0
LINE
  8
0
 10
-77.029274
 20
47.622524
 11
-85.029305
 21
47.622524
  0
LINE
  8
0
 10
-77.029305
 20
-0.377445
 11
-85.029320
 21
-0.377445
  0
LINE
  8
0
 10
-102.529305
 20
5.388298
 11
-102.529305
 21
2.722530
  0
LINE
  8
0
 10
-101.788322
 20
2.722530
 11
-102.529320
 21
2.722530
  0
LINE
  8
0
 10
-101.029320
 20
8.022518
 11
-101.888817
 21
8.022518
  0
LINE
  8
0
 10
-114.529404
 20
2.872524
 11
-114.529404
 21
8.372524
  0
LINE
  8
0
 10
-73.729301
 20
33.622555
 11
-76.229286
 21
33.622555
  0
LINE
  8
0
 10
-73.729317
 20
13.622524
 11
-76.229286
 21
13.622524
  0
LINE
  8
0
 10
-74.729286
 20
21.222530
 11
-76.229286
 21
21.222530
  0
LINE
  8
0
 10
-74.729286
 20
26.022518
 11
-76.229286
 21
26.022518
  0
LINE
  8
0
 10
-76.229301
 20
47.622589
 11
-76.229301
 21
-0.377413
  0
LINE
  8
0
 10
-153.729340
 20
47.622646
 11
-73.729256
 21
47.622646
  0
LINE
  8
0
 10
-153.729355
 20
-0.377354
 11
-73.729286
 21
-0.377354
  0
LINE
  8
0
 10
-85.229286
 20
0.622646
 11
-77.229286
 21
0.622646
  0
LINE
  8
0
 10
-85.229256
 20
46.622646
 11
-77.229256
 21
46.622646
  0
LINE
  8
0
 10
-75.629295
 20
11.622497
 11
-75.629295
 21
-0.377502
  0
LINE
  8
0
 10
-74.129295
 20
11.622497
 11
-74.129295
 21
-0.377411
  0
LINE
  8
0
 10
-73.729286
 20
10.622555
 11
-74.129280
 21
10.622555
  0
LINE
  8
0
 10
-73.729286
 20
0.622555
 11
-74.129280
 21
0.622555
  0
LINE
  8
0
 10
-74.129280
 20
11.622555
 11
-75.629280
 21
11.622555
  0
LINE
  8
0
 10
-67.029305
 20
14.122498
 11
-67.029305
 21
-2.877502
  0
LINE
  8
0
 10
-67.029282
 20
-2.877445
 11
-68.029282
 21
-2.877445
  0
LINE
  8
0
 10
-67.029289
 20
14.122555
 11
-68.029289
 21
14.122555
  0
LINE
  8
0
 10
-153.729446
 20
-16.377327
 11
-153.729446
 21
63.622673
  0
LINE
  8
0
 10
-170.329453
 20
45.122673
 11
-170.329453
 21
36.622734
  0
LINE
  8
0
 10
-160.429443
 20
36.622738
 11
-170.329453
 21
36.622738
  0
LINE
  8
0
 10
-160.429443
 20
46.622738
 11
-161.329407
 21
46.622738
  0
LINE
  8
0
 10
-161.329437
 20
46.622673
 11
-161.329437
 21
45.122673
  0
LINE
  8
0
 10
-161.329407
 20
45.122738
 11
-170.329391
 21
45.122738
  0
LINE
  8
0
 10
-161.929398
 20
45.122738
 11
-169.729385
 21
45.122738
  0
LINE
  8
0
 10
-168.329468
 20
72.722748
 11
-163.329468
 21
72.722748
  0
LINE
  8
0
 10
-163.329453
 20
72.722740
 11
-163.329453
 21
68.722740
  0
LINE
  8
0
 10
-168.329453
 20
72.722740
 11
-168.329453
 21
68.722740
  0
LINE
  8
0
 10
-168.329468
 20
68.722748
 11
-163.329468
 21
68.722748
  0
LINE
  8
0
 10
-169.729385
 20
45.722744
 11
-161.929398
 21
45.722744
  0
LINE
  8
0
 10
-169.829407
 20
60.222744
 11
-161.829407
 21
60.222744
  0
LINE
  8
0
 10
-169.829468
 20
61.022732
 11
-161.829468
 21
61.022732
  0
LINE
  8
0
 10
-169.829468
 20
63.522732
 11
-161.829468
 21
63.522732
  0
LINE
  8
0
 10
-161.829453
 20
63.522728
 11
-161.829453
 21
61.022728
  0
LINE
  8
0
 10
-169.829453
 20
63.522728
 11
-169.829453
 21
61.022728
  0
LINE
  8
0
 10
-163.329453
 20
61.022667
 11
-163.329453
 21
60.222679
  0
LINE
  8
0
 10
-168.329453
 20
61.022667
 11
-168.329453
 21
60.222679
  0
LINE
  8
0
 10
-167.329453
 20
68.722679
 11
-167.329453
 21
63.522667
  0
LINE
  8
0
 10
-164.329453
 20
68.722679
 11
-164.329453
 21
63.522667
  0
LINE
  8
0
 62
     2
 10
-164.599960
 20
68.722679
 11
-164.599960
 21
63.522667
  0
LINE
  8
0
 62
     2
 10
-167.058945
 20
68.722679
 11
-167.058945
 21
63.522667
  0
LINE
  8
0
 10
-162.579453
 20
47.222679
 11
-162.579453
 21
45.722679
  0
LINE
  8
0
 10
-169.079453
 20
47.222679
 11
-169.079453
 21
45.722679
  0
LINE
  8
0
 10
-161.929459
 20
45.722679
 11
-161.929459
 21
45.122673
  0
LINE
  8
0
 10
-169.729446
 20
45.722679
 11
-169.729446
 21
45.122673
  0
LINE
  8
0
 10
-169.729385
 20
45.122738
 11
-161.929398
 21
45.122738
  0
LINE
  8
0
 10
-170.729401
 20
56.222744
 11
-160.929413
 21
56.222744
  0
LINE
  8
0
 10
-170.729385
 20
47.222744
 11
-160.929398
 21
47.222744
  0
LINE
  8
0
 10
-161.829453
 20
60.222679
 11
-161.829453
 21
56.222679
  0
LINE
  8
0
 10
-169.829453
 20
60.222679
 11
-169.829453
 21
56.222679
  0
LINE
  8
0
 10
-165.829453
 20
59.865410
 11
-165.829453
 21
56.222679
  0
LINE
  8
0
 10
-160.929459
 20
56.222679
 11
-160.929459
 21
47.222679
  0
LINE
  8
0
 10
-170.729446
 20
56.222679
 11
-170.729446
 21
47.222679
  0
LINE
  8
0
 10
-153.729416
 20
-16.177250
 11
-159.429443
 21
-16.177250
  0
LINE
  8
0
 10
-153.729385
 20
63.422756
 11
-159.429413
 21
63.422756
  0
LINE
  8
0
 10
-142.229462
 20
-0.377386
 11
-142.229462
 21
47.622612
  0
LINE
  8
0
 10
-150.229446
 20
-0.377386
 11
-150.229446
 21
47.622612
  0
LINE
  8
0
 10
-126.429451
 20
-0.377386
 11
-126.429451
 21
47.622612
  0
LINE
  8
0
 10
-142.229401
 20
20.622738
 11
-150.229401
 21
20.622738
  0
LINE
  8
0
 10
-142.229401
 20
26.622738
 11
-150.229401
 21
26.622738
  0
LINE
  8
0
 10
-152.729385
 20
47.622768
 11
-153.729385
 21
47.622768
  0
LINE
  8
0
 10
-159.429443
 20
-16.177254
 11
-159.429443
 21
63.422691
  0
LINE
  8
0
 62
     4
 10
-68.029305
 20
-8.377232
 11
-67.720779
 21
-8.377232
  0
LINE
  8
0
 62
     4
 10
-68.029305
 20
-11.377262
 11
-66.970779
 21
-11.377262
  0
LINE
  8
0
 10
-116.729454
 20
55.322659
 11
-116.729454
 21
63.622677
  0
LINE
  8
0
 10
-153.729385
 20
55.122738
 11
-159.429413
 21
55.122738
  0
LINE
  8
0
 10
-153.729401
 20
-7.877262
 11
-159.429428
 21
-7.877262
  0
LINE
  8
0
 10
-153.729401
 20
-8.077244
 11
-150.148590
 21
-8.077244
  0
LINE
  8
0
 10
-142.310211
 20
-8.077244
 11
-116.620781
 21
-8.077244
  0
LINE
  8
0
 10
-142.310211
 20
55.322750
 11
-116.620766
 21
55.322750
  0
LINE
  8
0
 10
-153.729385
 20
55.322750
 11
-150.148575
 21
55.322750
  0
LINE
  8
0
 10
-153.729385
 20
22.122738
 11
-152.729416
 21
22.122738
  0
LINE
  8
0
 10
-153.729385
 20
25.122738
 11
-152.729416
 21
25.122738
  0
LINE
  8
0
 10
-152.729446
 20
26.022697
 11
-152.729446
 21
21.222679
  0
LINE
  8
0
 10
-159.429382
 20
26.798153
 11
-161.583755
 21
26.798153
  0
LINE
  8
0
 10
-161.583755
 20
25.210445
 11
-159.429382
 21
25.210445
  0
LINE
  8
0
 10
-161.829437
 20
26.080498
 11
-161.829437
 21
21.649620
  0
LINE
  8
0
 10
-159.429382
 20
20.447323
 11
-161.583755
 21
20.447323
  0
LINE
  8
0
 10
-161.829437
 20
21.164909
 11
-161.829437
 21
25.595757
  0
LINE
  8
0
 10
-161.583755
 20
22.035030
 11
-159.429382
 21
22.035030
  0
LINE
  8
0
 10
-172.729446
 20
25.122734
 11
-172.729446
 21
22.122734
  0
LINE
  8
0
 10
-161.829376
 20
22.122738
 11
-172.729446
 21
22.122738
  0
LINE
  8
0
 10
-161.829376
 20
25.122738
 11
-172.729446
 21
25.122738
  0
LINE
  8
0
 62
     2
 10
-161.829376
 20
22.522762
 11
-172.629471
 21
22.522762
  0
LINE
  8
0
 62
     2
 10
-161.829376
 20
24.722744
 11
-172.629395
 21
24.722744
  0
LINE
  8
0
 62
     2
 10
-152.729416
 20
22.522762
 11
-153.729385
 21
22.522762
  0
LINE
  8
0
 62
     2
 10
-152.729416
 20
24.722744
 11
-153.729385
 21
24.722744
  0
LINE
  8
0
 10
-150.429413
 20
-0.377262
 11
-142.429398
 21
-0.377262
  0
LINE
  8
0
 10
-150.429398
 20
47.622738
 11
-142.429398
 21
47.622738
  0
LINE
  8
0
 10
-124.929451
 20
38.722744
 11
-124.929451
 21
42.067410
  0
LINE
  8
0
 10
-126.429390
 20
44.522732
 11
-125.587349
 21
44.522732
  0
LINE
  8
0
 10
-126.429390
 20
38.722744
 11
-124.929390
 21
38.722744
  0
LINE
  8
0
 10
-153.729446
 20
13.622738
 11
-151.229431
 21
13.622738
  0
LINE
  8
0
 10
-153.729385
 20
33.622768
 11
-151.229416
 21
33.622768
  0
LINE
  8
0
 10
-152.729401
 20
26.022762
 11
-151.229401
 21
26.022762
  0
LINE
  8
0
 10
-152.729401
 20
21.222744
 11
-151.229401
 21
21.222744
  0
LINE
  8
0
 10
-151.229446
 20
-0.377386
 11
-151.229446
 21
47.622612
  0
LINE
  8
0
 10
-142.229431
 20
46.622616
 11
-150.229416
 21
46.622616
  0
LINE
  8
0
 10
-142.229431
 20
0.622616
 11
-150.229431
 21
0.622616
  0
LINE
  8
0
 10
-151.829422
 20
38.622738
 11
-151.229416
 21
38.622738
  0
LINE
  8
0
 10
-151.829422
 20
44.622738
 11
-151.229416
 21
44.622738
  0
LINE
  8
0
 10
-151.829453
 20
35.622734
 11
-151.829453
 21
47.622704
  0
LINE
  8
0
 10
-153.329453
 20
35.622734
 11
-153.329453
 21
47.622612
  0
LINE
  8
0
 10
-153.729416
 20
36.622738
 11
-153.329422
 21
36.622738
  0
LINE
  8
0
 10
-153.729416
 20
46.622738
 11
-153.329422
 21
46.622738
  0
LINE
  8
0
 10
-153.329422
 20
35.622738
 11
-151.829422
 21
35.622738
  0
LINE
  8
0
 10
-160.429443
 20
33.122734
 11
-160.429443
 21
50.122734
  0
LINE
  8
0
 10
-160.429413
 20
50.122738
 11
-159.429413
 21
50.122738
  0
LINE
  8
0
 10
-160.429413
 20
33.122738
 11
-159.429413
 21
33.122738
  0
LINE
  8
0
 10
-75.629280
 20
1.622555
 11
-76.229286
 21
1.622555
  0
LINE
  8
0
 10
-75.629280
 20
9.622555
 11
-76.229286
 21
9.622555
  0
LINE
  8
0
 10
-64.029305
 20
39.122555
 11
-52.929295
 21
39.122555
  0
LINE
  8
0
 10
-64.029305
 20
44.122555
 11
-52.929295
 21
44.122555
  0
LINE
  8
0
 62
     2
 10
-64.029305
 20
43.522549
 11
-52.929295
 21
43.522549
  0
LINE
  8
0
 62
     2
 10
-64.029305
 20
39.722561
 11
-52.929295
 21
39.722561
  0
LINE
  8
0
 10
-52.929295
 20
39.122559
 11
-52.929295
 21
44.122559
  0
LINE
  8
0
 10
-64.029305
 20
45.622589
 11
-64.029305
 21
37.622192
  0
LINE
  8
0
 10
-64.386551
 20
46.241299
 11
-68.029305
 21
46.241299
  0
LINE
  8
0
 10
-64.028755
 20
45.622795
 11
-64.386017
 21
46.241577
  0
LINE
  8
0
 10
-64.386551
 20
43.931911
 11
-68.029305
 21
43.931911
  0
LINE
  8
0
 10
-64.386581
 20
39.313107
 11
-68.029305
 21
39.313107
  0
LINE
  8
0
 10
-64.029083
 20
37.622322
 11
-64.386345
 21
37.003544
  0
LINE
  8
0
 10
-64.386581
 20
37.003719
 11
-68.029305
 21
37.003719
  0
LINE
  8
0
 10
-153.729477
 20
2.872738
 11
-151.229507
 21
2.872738
  0
LINE
  8
0
 10
-153.729446
 20
8.372738
 11
-151.229477
 21
8.372738
  0
LINE
  8
0
 10
-126.429451
 20
2.872524
 11
-124.073479
 21
2.872524
  0
LINE
  8
0
 10
-126.429459
 20
8.372524
 11
-125.547195
 21
8.372524
  0
LINE
  8
0
 10
-101.029305
 20
44.372768
 11
-102.022804
 21
44.372768
  0
LINE
  8
0
 10
-112.929329
 20
44.372768
 11
-112.929329
 21
38.872768
  0
LINE
  8
0
 10
-101.932510
 20
38.872768
 11
-112.929329
 21
38.872768
  0
LINE
  8
0
 10
-73.729286
 20
44.372555
 11
-76.229256
 21
44.372555
  0
LINE
  8
0
 10
-73.729317
 20
38.872555
 11
-76.229286
 21
38.872555
  0
LINE
  8
0
  6
CENTER
 62
     2
 10
-146.229401
 20
61.916893
 11
-146.229401
 21
49.969994
  0
LINE
  8
0
  6
CENTER
 62
     2
 10
-146.229401
 20
-2.627356
 11
-146.229401
 21
-15.127357
  0
LINE
  8
0
  6
CENTER
 62
     2
 10
-81.229332
 20
-3.877474
 11
-81.229332
 21
-13.877472
  0
LINE
  8
0
  6
CENTER
 62
     2
 10
-81.229286
 20
61.122528
 11
-81.229286
 21
51.122528
  0
LINE
  8
0
  6
CENTER
 62
     2
 10
-141.229370
 20
56.122707
 11
-151.229385
 21
56.122707
  0
LINE
  8
0
  6
CENTER
 62
     2
 10
-141.229401
 20
-8.877323
 11
-151.229385
 21
-8.877323
  0
LINE
  8
0
  6
CENTER
 62
     2
 10
-76.229332
 20
-8.877476
 11
-86.229332
 21
-8.877476
  0
LINE
  8
0
  6
CENTER
 62
     2
 10
-76.229286
 20
56.122524
 11
-86.229286
 21
56.122524
  0
LINE
  8
0
 62
     4
 10
-67.720772
 20
-8.377227
 11
-66.970764
 21
-11.377254
  0
LINE
  8
0
 10
-101.029282
 20
4.814590
 11
-102.410065
 21
9.967767
  0
LINE
  8
0
 10
-103.302208
 20
44.372768
 11
-112.929329
 21
44.372768
  0
LINE
  8
0
 10
-124.267792
 20
8.372524
 11
-114.529427
 21
8.372524
  0
LINE
  8
0
 10
-122.794075
 20
2.872524
 11
-114.529427
 21
2.872524
  0
LINE
  8
0
  6
CENTER
 62
     2
 10
-99.921753
 20
9.807735
 11
-127.352318
 21
9.807735
  0
LINE
  8
0
  6
CENTER
 62
     2
 10
-99.795547
 20
1.737301
 11
-127.350693
 21
1.737301
  0
LINE
  8
0
  6
CENTER
 62
     2
 10
-100.852882
 20
2.355217
 11
-126.429443
 21
2.355217
  0
LINE
  8
0
  6
CENTER
 62
     2
 10
-100.852882
 20
1.119385
 11
-126.429443
 21
1.119385
  0
LINE
  8
0
  6
CENTER
 62
     2
 10
-101.029305
 20
9.189819
 11
-126.429451
 21
9.189819
  0
LINE
  8
0
  6
CENTER
 62
     2
 10
-101.029305
 20
10.425652
 11
-126.429451
 21
10.425652
  0
LINE
  8
0
  6
CENTER
 62
     2
 10
-99.795547
 20
5.772518
 11
-127.419807
 21
5.772518
  0
LINE
  8
0
  6
CENTER
 62
     2
 10
-99.921761
 20
45.657955
 11
-127.352325
 21
45.657955
  0
LINE
  8
0
  6
CENTER
 62
     2
 10
-99.795555
 20
37.587521
 11
-127.350693
 21
37.587521
  0
LINE
  8
0
  6
CENTER
 62
     2
 10
-100.852882
 20
38.205437
 11
-126.429451
 21
38.205437
  0
LINE
  8
0
  6
CENTER
 62
     2
 10
-100.852882
 20
36.969604
 11
-126.429451
 21
36.969604
  0
LINE
  8
0
  6
CENTER
 62
     2
 10
-101.029312
 20
46.275871
 11
-126.429459
 21
46.275871
  0
LINE
  8
0
  6
CENTER
 62
     2
 10
-99.795555
 20
41.622738
 11
-127.419807
 21
41.622738
  0
LINE
  8
0
  6
CENTER
 62
     2
 10
-101.029312
 20
45.040039
 11
-126.429459
 21
45.040039
  0
LINE
  8
0
 10
-122.520988
 20
37.853699
 11
-124.654999
 21
45.817932
  0
LINE
  8
0
 10
-123.738808
 20
37.623875
 11
-125.848701
 21
45.498112
  0
LINE
  8
0
 10
-103.606049
 20
9.656598
 11
-101.570160
 21
1.586164
  0
LINE
  8
0
 10
-103.606049
 20
45.506813
 11
-101.570160
 21
37.436378
  0
LINE
  8
0
 10
-101.029320
 20
40.344807
 11
-102.407776
 21
45.809097
  0
LINE
  8
0
 10
-56.729298
 20
-8.977451
 11
-66.529289
 21
-8.977451
  0
ARC
  8
0
 10
153.926041
 20
9.086437
 40
2.044567
 50
325.614227
 51
34.385857
  0
ARC
  8
0
 10
148.327881
 20
5.622375
 40
7.642714
 50
342.411957
 51
17.588039
  0
ARC
  8
0
 10
58.615116
 20
45.087009
 40
2.044570
 50
145.614288
 51
214.385803
  0
ARC
  8
0
 10
64.213272
 20
41.622879
 40
7.642715
 50
162.411957
 51
197.588043
  0
ARC
  8
0
 10
58.615116
 20
38.158817
 40
2.044570
 50
145.614288
 51
214.385803
  0
CIRCLE
  8
0
 62
     2
 10
73.770615
 20
56.122654
 40
2.000000
  0
CIRCLE
  8
0
 10
73.770615
 20
56.122654
 40
1.500000
  0
CIRCLE
  8
0
 62
     2
 10
73.770584
 20
-8.877357
 40
2.000000
  0
CIRCLE
  8
0
 10
73.770584
 20
-8.877357
 40
1.500000
  0
CIRCLE
  8
0
 62
     2
 10
138.770584
 20
56.122646
 40
2.000000
  0
CIRCLE
  8
0
 10
138.770584
 20
56.122646
 40
1.500000
  0
CIRCLE
  8
0
 62
     2
 10
138.770599
 20
-8.877365
 40
2.000000
  0
CIRCLE
  8
0
 10
138.770599
 20
-8.877365
 40
1.500000
  0
CIRCLE
  8
0
 10
106.270569
 20
-8.877357
 40
3.000000
  0
ARC
  8
0
 10
106.270630
 20
55.122650
 40
3.000000
 50
180.000000
 51
0.000000
  0
ARC
  8
0
 10
152.964890
 20
21.241085
 40
1.405694
 50
325.616119
 51
34.383888
  0
ARC
  8
0
 10
152.964890
 20
26.004177
 40
1.405694
 50
325.616119
 51
34.383888
  0
ARC
  8
0
 10
149.116211
 20
23.622646
 40
5.254363
 50
342.412048
 51
17.401569
  0
ARC
  8
0
 10
59.576279
 20
21.241108
 40
1.405700
 50
145.616287
 51
214.383713
  0
ARC
  8
0
 10
59.576279
 20
26.004200
 40
1.405700
 50
145.616287
 51
214.383713
  0
ARC
  8
0
 10
63.424942
 20
23.622669
 40
5.254366
 50
162.598434
 51
197.587921
  0
ARC
  8
0
 10
56.170483
 20
-7.200592
 40
5.776711
 50
249.743759
 51
290.256104
  0
ARC
  8
0
 10
52.170483
 20
-7.200592
 40
5.776711
 50
249.743851
 51
290.256195
  0
CIRCLE
  8
0
 10
54.170452
 20
-4.977341
 40
2.000000
  0
CIRCLE
  8
0
 10
54.170452
 20
-4.977341
 40
5.000000
  0
ARC
  8
0
 10
160.370605
 20
54.446098
 40
5.776711
 50
69.743851
 51
110.256149
  0
ARC
  8
0
 10
156.370605
 20
54.446098
 40
5.776707
 50
69.743835
 51
110.256149
  0
CIRCLE
  8
0
 10
158.370636
 20
52.222862
 40
5.000000
  0
CIRCLE
  8
0
 10
158.370636
 20
52.222862
 40
2.000000
  0
ARC
  8
0
 10
153.926041
 20
2.158245
 40
2.044567
 50
325.614227
 51
34.385857
  0
CIRCLE
  8
0
 62
     2
 10
1.261856
 20
41.622627
 40
1.800000
  0
ARC
  8
0
 62
     4
 10
-3.838131
 20
-13.377365
 40
0.300000
 50
89.999954
 51
180.000000
  0
ARC
  8
0
 62
     4
 10
-5.738125
 20
-13.349487
 40
1.827885
 50
279.446350
 51
343.213989
  0
CIRCLE
  8
0
 62
     2
 10
-11.238155
 20
38.622635
 40
2.000000
  0
CIRCLE
  8
0
 10
-11.238155
 20
38.622635
 40
1.500000
  0
CIRCLE
  8
0
 10
-11.238140
 20
8.622635
 40
1.500000
  0
CIRCLE
  8
0
 62
     2
 10
-11.238140
 20
8.622635
 40
2.000000
  0
CIRCLE
  8
0
 10
1.261841
 20
41.622658
 40
4.000000
  0
ARC
  8
0
 10
1.261864
 20
5.622658
 40
5.000000
 50
315.572906
 51
224.427078
  0
ARC
  8
0
 10
-2.202238
 20
-10.932709
 40
2.044656
 50
235.615707
 51
304.384338
  0
ARC
  8
0
 10
4.725984
 20
-10.932701
 40
2.044656
 50
235.615646
 51
304.384277
  0
ARC
  8
0
 10
1.261869
 20
-5.334633
 40
7.642726
 50
252.411957
 51
287.587982
  0
ARC
  8
0
 10
1.561867
 20
5.622658
 40
6.000000
 50
299.450226
 51
156.181076
  0
CIRCLE
  8
0
 10
-4.253304
 20
4.144871
 40
0.400000
  0
ARC
  8
0
 10
-4.253304
 20
4.144871
 40
1.000000
 50
95.000114
 51
289.038727
  0
ARC
  8
0
 10
1.561867
 20
5.622658
 40
6.000000
 50
203.818893
 51
233.724640
  0
ARC
  8
0
 10
-4.253305
 20
7.100437
 40
1.000000
 50
70.961136
 51
265.000610
  0
CIRCLE
  8
0
 10
-4.253305
 20
7.100437
 40
0.400000
  0
ARC
  8
0
 62
     4
 10
-7.638119
 20
-13.377365
 40
0.300000
 50
0.000000
 51
90.000000
  0
ARC
  8
0
 62
     4
 10
-5.738125
 20
-13.349487
 40
1.827885
 50
196.785934
 51
260.553589
  0
ARC
  8
0
 62
     4
 10
-4.238127
 20
-9.877365
 40
1.500000
 50
66.420921
 51
305.977844
  0
ARC
  8
0
 10
-7.649343
 20
51.122635
 40
0.500000
 50
89.999947
 51
149.999527
  0
ARC
  8
0
 10
-11.738171
 20
59.622650
 40
4.000000
 50
89.999985
 51
151.044952
  0
ARC
  8
0
 10
-11.738125
 20
-12.377350
 40
4.000000
 50
208.955078
 51
270.000031
  0
ARC
  8
0
 10
-7.649309
 20
-3.877350
 40
0.500000
 50
210.000381
 51
270.000000
  0
CIRCLE
  8
0
 10
-2.638142
 20
23.622654
 40
2.750000
  0
CIRCLE
  8
0
 10
-2.638142
 20
23.622654
 40
1.500000
  0
CIRCLE
  8
0
 62
     2
 10
-2.638142
 20
23.622654
 40
1.000000
  0
ARC
  8
0
 10
-10.536091
 20
48.122635
 40
0.500000
 50
270.000000
 51
330.000000
  0
ARC
  8
0
 10
-10.536060
 20
-0.877350
 40
0.500000
 50
29.999996
 51
90.000000
  0
CIRCLE
  8
0
 10
1.261856
 20
41.622627
 40
2.500000
  0
ARC
  8
0
 10
4.725984
 20
58.178001
 40
2.044655
 50
55.615719
 51
118.133713
  0
ARC
  8
0
 10
150.400131
 20
-77.195152
 40
3.970436
 50
339.738251
 51
20.261757
  0
ARC
  8
0
 10
150.400131
 20
-74.445152
 40
3.970436
 50
339.738251
 51
342.786316
  0
CIRCLE
  8
0
 10
54.570572
 20
-71.620079
 40
2.500000
  0
CIRCLE
  8
0
 10
54.570572
 20
-71.620079
 40
4.000000
  0
CIRCLE
  8
0
 10
54.570572
 20
-71.620079
 40
4.900000
  0
ARC
  8
0
 10
151.533875
 20
-73.620125
 40
4.436687
 50
333.205383
 51
26.794176
  0
CIRCLE
  8
0
 62
     4
 10
126.223785
 20
-78.620132
 40
1.750000
  0
ARC
  8
0
 10
151.533875
 20
-69.620125
 40
4.436687
 50
333.205811
 51
26.794176
  0
ARC
  8
0
 10
62.140995
 20
-77.195137
 40
3.970437
 50
171.673172
 51
200.261749
  0
CIRCLE
  8
0
 10
-103.006897
 20
9.807737
 40
0.617916
  0
CIRCLE
  8
0
 10
-125.251869
 20
9.807734
 40
0.617916
  0
ARC
  8
0
 10
-66.073837
 20
45.086548
 40
2.044573
 50
325.614349
 51
34.385857
  0
CIRCLE
  8
0
 10
-146.229385
 20
-8.877327
 40
1.650000
  0
ARC
  8
0
 10
-71.672005
 20
41.622498
 40
7.642715
 50
342.411957
 51
17.587988
  0
ARC
  8
0
 10
-66.073837
 20
38.158386
 40
2.044573
 50
325.614349
 51
34.385857
  0
ARC
  8
0
 10
-155.786758
 20
5.622795
 40
7.642715
 50
162.411942
 51
197.588013
  0
ARC
  8
0
 10
-161.384918
 20
9.086937
 40
2.044567
 50
145.614212
 51
214.385834
  0
CIRCLE
  8
0
 10
-81.229294
 20
56.122528
 40
4.000000
  0
ARC
  8
0
 10
-161.384918
 20
2.158745
 40
2.044567
 50
145.614197
 51
214.385834
  0
ARC
  8
0
 10
-70.883659
 20
23.622528
 40
5.254363
 50
342.412048
 51
17.401590
  0
CIRCLE
  8
0
 10
-81.229324
 20
-8.877472
 40
4.000000
  0
ARC
  8
0
 10
-67.034996
 20
26.004059
 40
1.405700
 50
325.616302
 51
34.383713
  0
ARC
  8
0
 10
-67.034996
 20
21.240967
 40
1.405700
 50
325.616302
 51
34.383713
  0
ARC
  8
0
 10
-63.629322
 20
-7.200775
 40
5.776710
 50
249.743881
 51
290.256195
  0
ARC
  8
0
 10
-59.629322
 20
-7.200775
 40
5.776711
 50
249.743805
 51
290.256104
  0
CIRCLE
  8
0
 10
-146.229385
 20
-8.877327
 40
4.000000
  0
ARC
  8
0
 10
-113.729424
 20
-8.877323
 40
2.999999
 50
164.533951
 51
15.466003
  0
ARC
  8
0
 10
-156.575012
 20
23.622673
 40
5.254363
 50
162.412033
 51
197.401550
  0
CIRCLE
  8
0
 10
-146.229385
 20
56.122704
 40
4.000000
  0
ARC
  8
0
 10
-160.423691
 20
21.241142
 40
1.405694
 50
145.616119
 51
214.383881
  0
ARC
  8
0
 10
-160.423691
 20
26.004234
 40
1.405695
 50
145.616043
 51
214.383881
  0
ARC
  8
0
 10
-163.829376
 20
54.445976
 40
5.776711
 50
69.743851
 51
110.256149
  0
ARC
  8
0
 10
-167.829376
 20
54.445976
 40
5.776711
 50
69.743851
 51
110.256149
  0
CIRCLE
  8
0
 10
-146.229385
 20
56.122704
 40
1.650000
  0
CIRCLE
  8
0
 10
-123.097847
 20
1.737301
 40
0.617916
  0
ARC
  8
0
 10
-100.971008
 20
1.737305
 40
0.617916
 50
95.413521
 51
264.586487
  0
CIRCLE
  8
0
 10
-123.097855
 20
37.587521
 40
0.617916
  0
ARC
  8
0
 10
-100.971016
 20
37.587521
 40
0.617918
 50
95.413506
 51
264.586487
  0
CIRCLE
  8
0
 10
-103.006905
 20
45.657955
 40
0.617916
  0
CIRCLE
  8
0
 10
-125.251877
 20
45.657955
 40
0.617916
  0
TEXT
  8
0
 10
115.907150
 20
122.050003
 40
4.500000
  1
DATE : MAY ,1993
 50
0.000000
 41
1.052631
 51
0.000000
  7
STANDARD
  0
TEXT
  8
0
 10
113.700279
 20
-130.669998
 40
6.300000
  1
KOGANEI CORP.
 50
0.000000
 41
1.052632
 51
0.000000
  7
STANDARD
  0
TEXT
  8
0
 10
-185.892654
 20
122.050003
 40
4.500000
  1
HANDLING MODULE
 50
0.000000
 41
1.052632
 51
0.000000
  7
STANDARD
  0
TEXT
  8
0
 10
-186.892654
 20
104.550003
 40
4.500000
  1
MODEL:SHM71M
 50
0.000000
 41
1.052632
 51
0.000000
  7
STANDARD
  0
ENDSEC
  0
EOF
