  0
SECTION
  2
HEADER
  0
ENDSEC
  0
SECTION
  2
TABLES
  0
TABLE
  2
LTYPE
 70
     4
  0
LTYPE
  2
CONTINUOUS
 70
    64
  3
Solid line
 72
    65
 73
     0
 40
0.000000
  0
LTYPE
  2
DASHED
 70
    64
  3
__ __ __ __ __ __ __ __ __ __ __ __ __ __ __
 72
    65
 73
     2
 40
3.500000
 49
2.000000
 49
-1.500000
  0
LTYPE
  2
CENTER
 70
    64
  3
____ _ ____ _ ____ _ ____ _ ____ _ ____ _ ____
 72
    65
 73
     4
 40
17.500000
 49
13.000000
 49
-1.500000
 49
1.500000
 49
-1.500000
  0
LTYPE
  2
PHANTOM
 70
    64
  3
_____ _ _ _____ _ _ _____ _ _ _____ _ _ ____  
 72
    65
 73
     6
 40
15.500000
 49
8.000000
 49
-1.500000
 49
1.500000
 49
-1.500000
 49
1.500000
 49
-1.500000
  0
LTYPE
  2
DASHED1
 70
    64
  3
__ __ __ __ __ __ __ __ __ __ __ __ __ __ __
 72
    65
 73
     2
 40
1.500000
 49
1.000000
 49
-0.500000
  0
LTYPE
  2
DASHED2
 70
    64
  3
__ __ __ __ __ __ __ __ __ __ __ __ __ __ __
 72
    65
 73
     2
 40
3.500000
 49
2.500000
 49
-1.000000
  0
LTYPE
  2
DASHED3
 70
    64
  3
__ __ __ __ __ __ __ __ __ __ __ __ __ __ __
 72
    65
 73
     2
 40
6.000000
 49
4.000000
 49
-2.000000
  0
LTYPE
  2
DASHED4
 70
    64
  3
__ __ __ __ __ __ __ __ __ __ __ __ __ __ __
 72
    65
 73
     2
 40
12.000000
 49
10.000000
 49
-2.000000
  0
LTYPE
  2
DASHED5
 70
    64
  3
__ __ __ __ __ __ __ __ __ __ __ __ __ __ __
 72
    65
 73
     2
 40
17.000000
 49
15.000000
 49
-2.000000
  0
LTYPE
  2
DASHED6
 70
    64
  3
__ __ __ __ __ __ __ __ __ __ __ __ __ __ __
 72
    65
 73
     2
 40
29.000000
 49
27.000000
 49
-2.000000
  0
LTYPE
  2
PHANTOM1
 70
    64
  3
_____ _ _ _____ _ _ _____ _ _ _____ _ _ ____  
 72
    65
 73
     6
 40
31.000000
 49
25.000000
 49
-1.500000
 49
1.000000
 49
-1.000000
 49
1.000000
 49
-1.500000
  0
LTYPE
  2
PHANTOM2
 70
    64
  3
_____ _ _ _____ _ _ _____ _ _ _____ _ _ ____  
 72
    65
 73
     6
 40
36.000000
 49
27.000000
 49
-1.500000
 49
2.500000
 49
-1.000000
 49
2.500000
 49
-1.500000
  0
LTYPE
  2
PHANTOM3
 70
    64
  3
_____ _ _ _____ _ _ _____ _ _ _____ _ _ ____  
 72
    65
 73
     6
 40
78.000000
 49
64.000000
 49
-2.000000
 49
4.000000
 49
-2.000000
 49
4.000000
 49
-2.000000
  0
LTYPE
  2
CENTER1
 70
    64
  3
____ _ ____ _ ____ _ ____ _ ____ _ ____ _ ____
 72
    65
 73
     4
 40
19.000000
 49
14.000000
 49
-1.000000
 49
3.000000
 49
-1.000000
  0
LTYPE
  2
CENTER2
 70
    64
  3
____ _ ____ _ ____ _ ____ _ ____ _ ____ _ ____
 72
    65
 73
     4
 40
28.500000
 49
25.000000
 49
-1.000000
 49
1.500000
 49
-1.000000
  0
LTYPE
  2
CENTER3
 70
    64
  3
____ _ ____ _ ____ _ ____ _ ____ _ ____ _ ____
 72
    65
 73
     4
 40
31.500000
 49
27.000000
 49
-1.000000
 49
2.500000
 49
-1.000000
  0
LTYPE
  2
CENTER4
 70
    64
  3
____ _ ____ _ ____ _ ____ _ ____ _ ____ _ ____
 72
    65
 73
     4
 40
50.000000
 49
45.000000
 49
-1.000000
 49
3.000000
 49
-1.000000
  0
LTYPE
  2
CENTER5
 70
    64
  3
____ _ ____ _ ____ _ ____ _ ____ _ ____ _ ____
 72
    65
 73
     4
 40
100.000000
 49
92.000000
 49
-2.000000
 49
4.000000
 49
-2.000000
  0
LTYPE
  2
SBK1
 70
    64
  3
______ _ _ _ ______ _ _ _ ______ _ _ _ _____  
 72
    65
 73
     8
 40
60.500000
 49
45.000000
 49
-2.000000
 49
2.500000
 49
-2.000000
 49
2.500000
 49
-2.000000
 49
2.500000
 49
-2.000000
  0
LTYPE
  2
SBK2
 70
    64
  3
______ _ _ _ ______ _ _ _ ______ _ _ _ _____  
 72
    65
 73
     8
 40
84.000000
 49
64.000000
 49
-2.000000
 49
4.000000
 49
-2.000000
 49
4.000000
 49
-2.000000
 49
4.000000
 49
-2.000000
  0
LTYPE
  2
STCH
 70
    64
  3
__ __ __ __ __ __ __ __ __ __ __ __ __ __ __
 72
    65
 73
     2
 40
3.000000
 49
1.000000
 49
-2.000000
  0
LTYPE
  2
MTCH
 70
    64
  3
_____ _ _ _____ _ _ _____ _ _ _____ _ _ ____  
 72
    65
 73
     6
 40
80.000000
 49
66.000000
 49
-2.000000
 49
4.000000
 49
-2.000000
 49
4.000000
 49
-2.000000
  0
ENDTAB
  0
TABLE
  2
LAYER
 70
     1
  0
LAYER
  2
0
 70
     0
 62
     7
  6
CONTINUOUS
  0
ENDTAB
  0
TABLE
  2
STYLE
 70
     1
  0
STYLE
  2
STANDARD
 70
     0
 40
0.000000
 41
1.000000
 50
0.000000
 71
     0
 42
0.200000
  3
txt
  4
BIGFONT
  0
ENDTAB
  0
TABLE
  2
VIEW
 70
     0
  0
ENDTAB
  0
ENDSEC
  0
SECTION
  2
BLOCKS
  0
ENDSEC
  0
SECTION
  2
ENTITIES
  0
LINE
  8
0
 10
-194.250000
 20
132.600006
 11
194.800003
 21
132.600006
  0
LINE
  8
0
 10
194.800003
 20
132.600006
 11
194.800003
 21
-133.500000
  0
LINE
  8
0
 10
-194.250000
 20
132.600006
 11
-194.250000
 21
-133.500000
  0
LINE
  8
0
 10
-194.250000
 20
-133.500000
 11
194.800003
 21
-133.500000
  0
LINE
  8
0
 10
109.800003
 20
-118.500000
 11
109.800003
 21
-133.500000
  0
LINE
  8
0
 10
109.800003
 20
-118.500000
 11
194.800003
 21
-118.500000
  0
LINE
  8
0
 10
109.800003
 20
132.600006
 11
109.800003
 21
117.600006
  0
LINE
  8
0
 10
109.800003
 20
117.600006
 11
194.800003
 21
117.600006
  0
LINE
  8
0
 10
-194.250000
 20
117.600006
 11
-109.250000
 21
117.600006
  0
LINE
  8
0
 10
-109.250000
 20
132.600006
 11
-109.250000
 21
117.600006
  0
LINE
  8
0
  6
CENTER
 62
     2
 10
107.256325
 20
64.811172
 11
107.256325
 21
-3.713879
  0
LINE
  8
0
 10
142.956329
 20
0.288881
 11
142.956329
 21
59.888878
  0
LINE
  8
0
 10
77.256371
 20
60.088863
 11
137.256378
 21
60.088863
  0
LINE
  8
0
 10
77.256340
 20
0.088840
 11
137.256363
 21
0.088840
  0
LINE
  8
0
 10
137.256332
 20
0.088854
 11
137.256332
 21
60.088844
  0
LINE
  8
0
 10
142.956329
 20
0.288898
 11
137.256363
 21
0.288898
  0
LINE
  8
0
 10
142.956360
 20
59.888912
 11
137.256378
 21
59.888912
  0
LINE
  8
0
 10
104.256325
 20
60.088848
 11
104.256325
 21
54.088848
  0
LINE
  8
0
 10
110.256317
 20
60.088848
 11
110.256317
 21
54.088848
  0
LINE
  8
0
  6
CENTER
 62
     2
 10
161.017975
 20
30.088871
 11
53.140942
 21
30.088871
  0
LINE
  8
0
 10
71.556320
 20
59.888855
 11
71.556320
 21
0.288855
  0
LINE
  8
0
 10
77.256325
 20
60.088852
 11
77.256325
 21
0.088858
  0
LINE
  8
0
 10
71.556374
 20
59.888851
 11
77.256371
 21
59.888851
  0
LINE
  8
0
 10
71.556343
 20
0.288837
 11
77.256340
 21
0.288837
  0
LINE
  8
0
 10
71.556351
 20
26.913441
 11
69.401978
 21
26.913441
  0
LINE
  8
0
 10
69.401978
 20
28.501148
 11
71.556351
 21
28.501148
  0
LINE
  8
0
 10
69.156342
 20
27.631065
 11
69.156342
 21
32.061943
  0
LINE
  8
0
 10
71.556351
 20
33.264240
 11
69.401978
 21
33.264240
  0
LINE
  8
0
 10
69.156342
 20
32.546654
 11
69.156342
 21
28.115807
  0
LINE
  8
0
 10
69.401978
 20
31.676563
 11
71.556351
 21
31.676563
  0
LINE
  8
0
 10
57.956310
 20
28.588844
 11
57.956310
 21
31.588860
  0
LINE
  8
0
 10
69.156342
 20
31.588856
 11
57.956310
 21
31.588856
  0
LINE
  8
0
 10
69.156357
 20
28.588840
 11
57.956310
 21
28.588840
  0
LINE
  8
0
 62
     2
 10
69.156342
 20
31.188862
 11
57.956348
 21
31.188862
  0
LINE
  8
0
 62
     2
 10
69.156357
 20
28.988850
 11
57.956348
 21
28.988850
  0
LINE
  8
0
 10
142.956345
 20
26.913441
 11
145.110718
 21
26.913441
  0
LINE
  8
0
 10
145.110718
 20
28.501148
 11
142.956345
 21
28.501148
  0
LINE
  8
0
 10
145.356308
 20
27.631058
 11
145.356308
 21
32.061905
  0
LINE
  8
0
 10
142.956345
 20
33.264240
 11
145.110718
 21
33.264240
  0
LINE
  8
0
 10
145.356308
 20
32.546646
 11
145.356308
 21
28.115768
  0
LINE
  8
0
 10
145.110718
 20
31.676563
 11
142.956345
 21
31.676563
  0
LINE
  8
0
 10
156.556335
 20
28.588837
 11
156.556335
 21
31.588852
  0
LINE
  8
0
 10
145.356308
 20
31.588856
 11
156.556335
 21
31.588856
  0
LINE
  8
0
 10
145.356339
 20
28.588840
 11
156.556335
 21
28.588840
  0
LINE
  8
0
 62
     2
 10
145.356308
 20
31.188862
 11
156.556366
 21
31.188862
  0
LINE
  8
0
 62
     2
 10
145.356339
 20
28.988850
 11
156.556366
 21
28.988850
  0
LINE
  8
0
 10
137.256378
 20
45.588871
 11
77.256355
 21
45.588871
  0
LINE
  8
0
 10
137.256363
 20
14.588856
 11
77.256348
 21
14.588856
  0
LINE
  8
0
 10
70.556335
 20
20.588856
 11
60.756321
 21
20.588856
  0
LINE
  8
0
 10
62.756332
 20
-15.511143
 11
67.756332
 21
-15.511143
  0
LINE
  8
0
 10
67.756332
 20
-15.511139
 11
67.756332
 21
-11.511131
  0
LINE
  8
0
 10
62.756336
 20
-15.511139
 11
62.756336
 21
-11.511131
  0
LINE
  8
0
 10
62.756332
 20
-11.511135
 11
67.756332
 21
-11.511135
  0
LINE
  8
0
 10
61.356350
 20
11.488850
 11
69.156357
 21
11.488850
  0
LINE
  8
0
 10
61.256340
 20
-3.011135
 11
69.256340
 21
-3.011135
  0
LINE
  8
0
 10
61.256332
 20
-3.811123
 11
69.256332
 21
-3.811123
  0
LINE
  8
0
 10
61.256332
 20
-6.311123
 11
69.256332
 21
-6.311123
  0
LINE
  8
0
 10
69.256332
 20
-6.311119
 11
69.256332
 21
-3.811119
  0
LINE
  8
0
 10
61.256336
 20
-6.311119
 11
61.256336
 21
-3.811119
  0
LINE
  8
0
 10
67.756332
 20
-3.811165
 11
67.756332
 21
-3.011177
  0
LINE
  8
0
 10
62.756336
 20
-3.811165
 11
62.756336
 21
-3.011177
  0
LINE
  8
0
 10
63.756336
 20
-11.511169
 11
63.756336
 21
-6.311165
  0
LINE
  8
0
 10
66.756332
 20
-11.511169
 11
66.756332
 21
-6.311165
  0
LINE
  8
0
 62
     2
 10
66.485840
 20
-11.511169
 11
66.485840
 21
-6.311165
  0
LINE
  8
0
 62
     2
 10
64.026840
 20
-11.511169
 11
64.026840
 21
-6.311165
  0
LINE
  8
0
 10
68.506332
 20
9.988823
 11
68.506332
 21
11.488823
  0
LINE
  8
0
 10
62.006329
 20
9.988823
 11
62.006329
 21
11.488823
  0
LINE
  8
0
 10
69.156342
 20
11.488823
 11
69.156342
 21
12.088829
  0
LINE
  8
0
 10
61.356342
 20
11.488823
 11
61.356342
 21
12.088829
  0
LINE
  8
0
 10
60.356346
 20
0.988865
 11
62.256340
 21
0.988865
  0
LINE
  8
0
 10
60.356350
 20
9.988850
 11
70.156342
 21
9.988850
  0
LINE
  8
0
 10
69.256332
 20
-3.011177
 11
69.256332
 21
0.988823
  0
LINE
  8
0
 10
61.256336
 20
-3.011177
 11
61.256336
 21
0.988823
  0
LINE
  8
0
 10
65.256332
 20
-2.653908
 11
65.256332
 21
-0.011116
  0
LINE
  8
0
 10
70.156326
 20
0.988821
 11
70.156326
 21
3.993841
  0
LINE
  8
0
 10
60.356327
 20
0.988823
 11
60.356327
 21
3.993858
  0
LINE
  8
0
 10
60.756321
 20
12.088829
 11
60.756321
 21
20.588860
  0
LINE
  8
0
 10
70.556335
 20
10.588856
 11
69.656357
 21
10.588856
  0
LINE
  8
0
 10
70.556366
 20
24.088871
 11
71.556366
 21
24.088871
  0
LINE
  8
0
 10
70.556366
 20
7.088871
 11
71.556366
 21
7.088871
  0
LINE
  8
0
 10
70.556335
 20
7.088858
 11
70.556335
 21
24.088860
  0
LINE
  8
0
 10
69.656326
 20
10.588842
 11
69.656326
 21
12.088842
  0
LINE
  8
0
 10
144.856308
 20
49.588783
 11
144.856308
 21
48.088799
  0
LINE
  8
0
 10
153.756317
 20
48.088814
 11
153.756317
 21
40.588821
  0
LINE
  8
0
 10
143.956299
 20
39.588795
 11
153.756317
 21
39.588795
  0
LINE
  8
0
 10
144.856354
 20
48.088787
 11
153.756363
 21
48.088787
  0
LINE
  8
0
 10
151.756317
 20
75.688797
 11
146.756317
 21
75.688797
  0
LINE
  8
0
 10
146.756302
 20
75.688789
 11
146.756302
 21
71.688789
  0
LINE
  8
0
 10
151.756302
 20
75.688789
 11
151.756302
 21
71.688789
  0
LINE
  8
0
 10
151.756317
 20
71.688797
 11
146.756317
 21
71.688797
  0
LINE
  8
0
 10
153.156357
 20
48.688793
 11
145.356369
 21
48.688793
  0
LINE
  8
0
 10
153.256378
 20
63.188793
 11
145.256378
 21
63.188793
  0
LINE
  8
0
 10
153.256317
 20
63.988781
 11
145.256317
 21
63.988781
  0
LINE
  8
0
 10
153.256317
 20
66.488785
 11
145.256317
 21
66.488785
  0
LINE
  8
0
 10
145.256302
 20
66.488777
 11
145.256302
 21
63.988777
  0
LINE
  8
0
 10
153.256317
 20
66.488777
 11
153.256317
 21
63.988777
  0
LINE
  8
0
 10
146.756302
 20
63.988808
 11
146.756302
 21
63.188820
  0
LINE
  8
0
 10
151.756302
 20
63.988808
 11
151.756302
 21
63.188820
  0
LINE
  8
0
 10
150.756302
 20
71.688820
 11
150.756302
 21
66.488808
  0
LINE
  8
0
 10
147.756302
 20
71.688820
 11
147.756302
 21
66.488808
  0
LINE
  8
0
 62
     2
 10
148.026810
 20
71.688820
 11
148.026810
 21
66.488808
  0
LINE
  8
0
 62
     2
 10
150.485794
 20
71.688820
 11
150.485794
 21
66.488808
  0
LINE
  8
0
 10
146.006317
 20
50.188820
 11
146.006317
 21
48.688820
  0
LINE
  8
0
 10
152.506302
 20
50.188820
 11
152.506302
 21
48.688820
  0
LINE
  8
0
 10
145.356308
 20
48.688820
 11
145.356308
 21
48.088814
  0
LINE
  8
0
 10
153.156296
 20
48.688820
 11
153.156296
 21
48.088814
  0
LINE
  8
0
 10
154.156372
 20
59.188793
 11
152.256378
 21
59.188793
  0
LINE
  8
0
 10
154.156357
 20
50.188793
 11
144.356369
 21
50.188793
  0
LINE
  8
0
 10
145.256302
 20
63.188820
 11
145.256302
 21
59.188820
  0
LINE
  8
0
 10
153.256317
 20
63.188820
 11
153.256317
 21
59.188820
  0
LINE
  8
0
 10
149.256317
 20
62.831551
 11
149.256317
 21
60.188789
  0
LINE
  8
0
 10
144.356308
 20
59.188820
 11
144.356308
 21
56.183815
  0
LINE
  8
0
 10
154.156311
 20
59.188820
 11
154.156311
 21
56.183815
  0
LINE
  8
0
 10
153.756317
 20
48.088814
 11
153.756317
 21
39.588791
  0
LINE
  8
0
 10
144.056366
 20
49.588818
 11
144.856354
 21
49.588818
  0
LINE
  8
0
 10
143.956329
 20
36.088779
 11
142.956329
 21
36.088779
  0
LINE
  8
0
 10
143.956345
 20
53.088787
 11
142.956345
 21
53.088787
  0
LINE
  8
0
 10
143.956299
 20
53.088783
 11
143.956299
 21
36.088776
  0
LINE
  8
0
 10
69.656357
 20
12.088856
 11
60.756344
 21
12.088856
  0
LINE
  8
0
 10
146.256348
 20
59.188793
 11
144.356384
 21
59.188793
  0
LINE
  8
0
 10
144.356308
 20
54.193794
 11
144.356308
 21
50.188820
  0
LINE
  8
0
 10
154.156311
 20
54.193794
 11
154.156311
 21
50.188820
  0
LINE
  8
0
 10
60.356327
 20
5.983879
 11
60.356327
 21
9.988823
  0
LINE
  8
0
 10
70.156326
 20
5.983877
 11
70.156326
 21
9.988821
  0
LINE
  8
0
 10
68.256371
 20
0.988865
 11
70.156334
 21
0.988865
  0
LINE
  8
0
 10
57.256336
 20
42.088856
 11
67.556335
 21
42.088856
  0
LINE
  8
0
 62
     2
 10
57.256321
 20
42.688862
 11
67.556335
 21
42.688862
  0
LINE
  8
0
 10
67.913589
 20
46.898235
 11
71.556320
 21
46.898235
  0
LINE
  8
0
 10
57.256336
 20
47.088848
 11
67.556335
 21
47.088848
  0
LINE
  8
0
 62
     2
 10
57.256321
 20
46.488842
 11
67.556335
 21
46.488842
  0
LINE
  8
0
 10
67.556335
 20
40.588814
 11
67.556335
 21
47.533051
  0
LINE
  8
0
 10
57.256336
 20
42.088860
 11
57.256336
 21
47.088852
  0
LINE
  8
0
 10
67.913589
 20
39.970066
 11
71.556320
 21
39.970066
  0
LINE
  8
0
 10
67.556198
 20
40.588734
 11
67.913460
 21
39.969955
  0
LINE
  8
0
 10
67.913589
 20
42.279469
 11
71.556320
 21
42.279469
  0
LINE
  8
0
 10
67.556335
 20
48.588882
 11
67.556335
 21
41.644661
  0
LINE
  8
0
 10
67.913589
 20
49.207638
 11
71.556320
 21
49.207638
  0
LINE
  8
0
 10
67.556107
 20
48.588959
 11
67.913368
 21
49.207737
  0
LINE
  8
0
 10
157.256332
 20
18.088917
 11
146.956299
 21
18.088917
  0
LINE
  8
0
 62
     2
 10
157.256332
 20
17.488911
 11
146.956299
 21
17.488911
  0
LINE
  8
0
 10
146.599045
 20
13.279514
 11
142.956329
 21
13.279514
  0
LINE
  8
0
 10
157.256332
 20
13.088917
 11
146.956299
 21
13.088917
  0
LINE
  8
0
 62
     2
 10
157.256332
 20
13.688923
 11
146.956299
 21
13.688923
  0
LINE
  8
0
 10
146.956314
 20
19.588913
 11
146.956314
 21
12.644684
  0
LINE
  8
0
 10
157.256332
 20
18.088913
 11
157.256332
 21
13.088913
  0
LINE
  8
0
 10
146.599045
 20
20.207706
 11
142.956329
 21
20.207706
  0
LINE
  8
0
 10
146.956467
 20
19.588968
 11
146.599213
 21
20.207748
  0
LINE
  8
0
 10
146.599045
 20
17.898304
 11
142.956329
 21
17.898304
  0
LINE
  8
0
 10
146.956314
 20
11.588852
 11
146.956314
 21
18.533081
  0
LINE
  8
0
 10
146.599045
 20
10.970112
 11
142.956329
 21
10.970112
  0
LINE
  8
0
 10
146.956421
 20
11.588809
 11
146.599167
 21
10.970043
  0
LINE
  8
0
  6
CENTER
 62
     2
 10
82.256348
 20
2.588888
 11
82.256348
 21
7.588888
  0
LINE
  8
0
  6
CENTER
 62
     2
 10
82.256363
 20
52.588852
 11
82.256363
 21
57.588852
  0
LINE
  8
0
  6
CENTER
 62
     2
 10
132.256363
 20
52.588844
 11
132.256363
 21
57.588844
  0
LINE
  8
0
  6
CENTER
 62
     2
 10
132.256348
 20
2.588884
 11
132.256348
 21
7.588884
  0
LINE
  8
0
  6
CENTER
 62
     2
 10
79.756348
 20
5.088886
 11
84.756348
 21
5.088886
  0
LINE
  8
0
  6
CENTER
 62
     2
 10
103.256348
 20
5.088856
 11
111.256348
 21
5.088856
  0
LINE
  8
0
  6
CENTER
 62
     2
 10
129.756348
 20
5.088886
 11
134.756348
 21
5.088886
  0
LINE
  8
0
  6
CENTER
 62
     2
 10
129.756363
 20
55.088848
 11
134.756363
 21
55.088848
  0
LINE
  8
0
  6
CENTER
 62
     2
 10
79.756363
 20
55.088848
 11
84.756363
 21
55.088848
  0
LINE
  8
0
 10
-13.743652
 20
46.088913
 11
-13.743652
 21
33.088913
  0
LINE
  8
0
 10
-10.043720
 20
60.088844
 11
-6.293736
 21
60.088844
  0
LINE
  8
0
 10
-11.743736
 20
54.288857
 11
-13.743736
 21
54.288857
  0
LINE
  8
0
 10
-11.743652
 20
55.438881
 11
-11.743652
 21
54.288887
  0
LINE
  8
0
 10
-9.243732
 20
55.438850
 11
-11.743732
 21
55.438850
  0
LINE
  8
0
 10
-9.243652
 20
49.738899
 11
-9.243652
 21
55.438911
  0
LINE
  8
0
 10
-9.243736
 20
49.738853
 11
-11.743736
 21
49.738853
  0
LINE
  8
0
 10
-11.743652
 20
49.738899
 11
-11.743652
 21
50.888893
  0
LINE
  8
0
 10
-11.743736
 20
50.888878
 11
-13.743736
 21
50.888878
  0
LINE
  8
0
 10
-5.093674
 20
53.588905
 11
-5.093674
 21
56.288902
  0
LINE
  8
0
 10
-6.293686
 20
58.788902
 11
-6.293686
 21
60.088905
  0
LINE
  8
0
 10
-2.493668
 20
58.788872
 11
-2.493668
 21
60.088905
  0
LINE
  8
0
 10
-7.243652
 20
56.288902
 11
-7.243652
 21
58.788902
  0
LINE
  8
0
 10
-7.243732
 20
58.788857
 11
-6.293736
 21
58.788857
  0
LINE
  8
0
 10
-7.243732
 20
56.288857
 11
-5.093739
 21
56.288857
  0
LINE
  8
0
 10
11.256348
 20
45.588989
 11
11.256348
 21
60.088921
  0
LINE
  8
0
  6
CENTER
 62
     2
 10
16.557602
 20
30.088882
 11
-18.134598
 21
30.088882
  0
LINE
  8
0
 10
11.256349
 20
45.588821
 11
11.056399
 21
45.388863
  0
LINE
  8
0
 10
11.256268
 20
60.088844
 11
-2.493664
 21
60.088844
  0
LINE
  8
0
 10
-6.743736
 20
27.088882
 11
-13.743736
 21
27.088882
  0
LINE
  8
0
 10
-6.743736
 20
33.088882
 11
-13.743736
 21
33.088882
  0
LINE
  8
0
 10
-6.743668
 20
27.088913
 11
-6.743668
 21
33.088913
  0
LINE
  8
0
 10
10.756268
 20
59.888863
 11
-0.793705
 21
59.888863
  0
LINE
  8
0
 10
1.256178
 20
39.970364
 11
5.256210
 21
42.279781
  0
LINE
  8
0
 10
-2.743735
 20
42.279461
 11
1.256256
 21
39.970051
  0
LINE
  8
0
 10
-2.743668
 20
46.898293
 11
-2.743668
 21
42.279510
  0
LINE
  8
0
 10
-2.743891
 20
46.898705
 11
1.256117
 21
49.208107
  0
LINE
  8
0
 10
1.256248
 20
49.207752
 11
5.256275
 21
46.898335
  0
LINE
  8
0
 10
5.256332
 20
46.898323
 11
5.256332
 21
42.279510
  0
LINE
  8
0
 10
4.826973
 20
12.088898
 11
-2.314445
 21
12.088898
  0
LINE
  8
0
 10
6.156326
 20
0.988907
 11
6.156326
 21
1.588913
  0
LINE
  8
0
 10
-3.643661
 20
0.988907
 11
-3.643661
 21
9.988907
  0
LINE
  8
0
 10
-3.643730
 20
9.988876
 11
6.156258
 21
9.988876
  0
LINE
  8
0
 10
-3.643734
 20
0.988876
 11
6.156254
 21
0.988876
  0
LINE
  8
0
 10
1.256260
 20
4.288864
 11
8.756260
 21
4.288864
  0
LINE
  8
0
 10
1.256264
 20
5.688858
 11
8.756264
 21
5.688858
  0
LINE
  8
0
 10
6.156248
 20
1.588920
 11
4.856260
 21
4.288918
  0
LINE
  8
0
 10
6.156233
 20
8.388957
 11
4.856222
 21
5.688936
  0
LINE
  8
0
 10
6.156326
 20
8.388901
 11
6.156326
 21
9.988907
  0
LINE
  8
0
 10
8.756260
 20
0.088882
 11
13.056293
 21
0.088882
  0
LINE
  8
0
 10
15.956337
 20
-0.011093
 11
15.956337
 21
9.988907
  0
LINE
  8
0
 10
14.356331
 20
-0.011093
 11
14.356331
 21
9.988907
  0
LINE
  8
0
 10
6.156254
 20
1.588882
 11
7.256260
 21
1.588882
  0
LINE
  8
0
 10
8.756332
 20
0.088913
 11
8.756332
 21
9.888901
  0
LINE
  8
0
 10
7.256332
 20
1.588913
 11
7.256332
 21
4.288895
  0
LINE
  8
0
 10
13.056335
 20
0.088913
 11
13.056335
 21
9.888901
  0
LINE
  8
0
 10
14.356251
 20
-0.011124
 11
15.956257
 21
-0.011124
  0
LINE
  8
0
 10
14.356255
 20
9.988876
 11
15.956261
 21
9.988876
  0
LINE
  8
0
 10
8.756264
 20
9.888870
 11
13.056297
 21
9.888870
  0
LINE
  8
0
 10
6.156258
 20
8.388870
 11
7.256264
 21
8.388870
  0
LINE
  8
0
 10
13.056263
 20
1.738876
 11
14.356251
 21
1.738876
  0
LINE
  8
0
 10
13.056267
 20
8.238876
 11
14.356255
 21
8.238876
  0
LINE
  8
0
 10
7.256332
 20
5.688904
 11
7.256332
 21
8.388901
  0
LINE
  8
0
 10
8.756205
 20
0.088858
 11
7.256203
 21
1.588860
  0
LINE
  8
0
 10
8.756226
 20
9.888844
 11
7.256240
 21
8.388859
  0
LINE
  8
0
 10
-2.643730
 20
11.488876
 11
5.156258
 21
11.488876
  0
LINE
  8
0
 10
-2.643730
 20
12.088898
 11
5.156258
 21
12.088898
  0
LINE
  8
0
 10
4.506332
 20
9.988907
 11
4.506332
 21
11.488907
  0
LINE
  8
0
 10
-1.993668
 20
9.988907
 11
-1.993668
 21
11.488907
  0
LINE
  8
0
 10
5.156326
 20
11.488907
 11
5.156326
 21
12.088913
  0
LINE
  8
0
 10
-2.643661
 20
11.488907
 11
-2.643661
 21
12.088913
  0
LINE
  8
0
 10
-1.243671
 20
-15.511131
 11
3.756329
 21
-15.511131
  0
LINE
  8
0
 10
3.756332
 20
-15.511131
 11
3.756332
 21
-11.511124
  0
LINE
  8
0
 10
-1.243668
 20
-15.511131
 11
-1.243668
 21
-11.511124
  0
LINE
  8
0
 10
-1.243671
 20
-11.511124
 11
3.756329
 21
-11.511124
  0
LINE
  8
0
 10
-2.207851
 20
-3.011124
 11
4.720371
 21
-3.011124
  0
LINE
  8
0
 10
-2.743671
 20
-3.811111
 11
5.256329
 21
-3.811111
  0
LINE
  8
0
 10
-2.743671
 20
-6.311111
 11
5.256329
 21
-6.311111
  0
LINE
  8
0
 10
5.256332
 20
-6.311111
 11
5.256332
 21
-3.811111
  0
LINE
  8
0
 10
-2.743668
 20
-6.311111
 11
-2.743668
 21
-3.811111
  0
LINE
  8
0
 10
5.875137
 20
-2.653824
 11
5.875137
 21
0.988907
  0
LINE
  8
0
 10
3.565720
 20
-2.653824
 11
3.565720
 21
0.988907
  0
LINE
  8
0
 10
-1.053085
 20
-2.653824
 11
-1.053085
 21
0.988907
  0
LINE
  8
0
 10
-3.362473
 20
-2.653824
 11
-3.362473
 21
0.988907
  0
LINE
  8
0
 10
3.756332
 20
-3.811081
 11
3.756332
 21
-3.011093
  0
LINE
  8
0
 10
-1.243668
 20
-3.811081
 11
-1.243668
 21
-3.011093
  0
LINE
  8
0
 10
-0.243668
 20
-11.511093
 11
-0.243668
 21
-6.311081
  0
LINE
  8
0
 10
2.756332
 20
-11.511093
 11
2.756332
 21
-6.311081
  0
LINE
  8
0
 62
     2
 10
2.485825
 20
-11.511093
 11
2.485825
 21
-6.311081
  0
LINE
  8
0
 62
     2
 10
0.026840
 20
-11.511093
 11
0.026840
 21
-6.311081
  0
LINE
  8
0
 10
-3.725427
 20
15.161639
 11
-4.346042
 21
15.107341
  0
LINE
  8
0
 10
-3.725369
 20
16.016384
 11
-4.346019
 21
16.070679
  0
LINE
  8
0
 10
-5.243668
 20
6.788910
 11
-5.243668
 21
53.388908
  0
LINE
  8
0
 10
11.256233
 20
14.588856
 11
11.056249
 21
14.788841
  0
LINE
  8
0
 10
11.256348
 20
14.588837
 11
11.256348
 21
9.888901
  0
LINE
  8
0
 10
8.756153
 20
0.088882
 11
5.875065
 21
0.088882
  0
LINE
  8
0
 10
-0.793686
 20
53.388893
 11
-0.793686
 21
59.888878
  0
LINE
  8
0
 10
-0.793686
 20
53.588844
 11
-5.093742
 21
53.588844
  0
LINE
  8
0
 10
-5.093674
 20
6.588921
 11
-5.093674
 21
3.888916
  0
LINE
  8
0
 10
-6.293686
 20
1.388916
 11
-6.293686
 21
0.088913
  0
LINE
  8
0
 10
-7.243652
 20
3.888916
 11
-7.243652
 21
1.388916
  0
LINE
  8
0
 10
-7.243755
 20
1.388885
 11
-6.293758
 21
1.388885
  0
LINE
  8
0
 10
-7.243755
 20
3.888885
 11
-5.093746
 21
3.888885
  0
LINE
  8
0
 10
-6.799191
 20
50.838875
 11
-9.108587
 21
46.838871
  0
LINE
  8
0
 10
-6.243668
 20
46.088898
 11
-6.243668
 21
50.588905
  0
LINE
  8
0
 10
-5.243736
 20
51.088860
 11
-6.366234
 21
51.088860
  0
LINE
  8
0
 10
-5.243736
 20
50.588860
 11
-6.243736
 21
50.588860
  0
LINE
  8
0
 10
-13.743652
 20
14.088928
 11
-13.743652
 21
27.088913
  0
LINE
  8
0
 10
-10.043743
 20
0.088882
 11
-6.293758
 21
0.088882
  0
LINE
  8
0
 10
-11.743752
 20
5.888870
 11
-13.743736
 21
5.888870
  0
LINE
  8
0
 10
-11.743652
 20
4.738937
 11
-11.743652
 21
5.888931
  0
LINE
  8
0
 10
-9.243755
 20
4.738892
 11
-11.743755
 21
4.738892
  0
LINE
  8
0
 10
-9.243652
 20
10.438919
 11
-9.243652
 21
4.738907
  0
LINE
  8
0
 10
-9.243752
 20
10.438904
 11
-11.743752
 21
10.438904
  0
LINE
  8
0
 10
-11.743652
 20
10.438919
 11
-11.743652
 21
9.288925
  0
LINE
  8
0
 10
-11.743752
 20
9.288879
 11
-13.743736
 21
9.288879
  0
LINE
  8
0
 10
-6.799246
 20
9.338947
 11
-9.108649
 21
13.338949
  0
LINE
  8
0
 10
-6.243668
 20
14.088913
 11
-6.243668
 21
9.588913
  0
LINE
  8
0
 10
-5.243736
 20
9.088882
 11
-6.366234
 21
9.088882
  0
LINE
  8
0
 10
-5.243736
 20
9.588867
 11
-6.243736
 21
9.588867
  0
LINE
  8
0
 10
-2.143702
 20
26.913565
 11
0.606275
 21
28.501265
  0
LINE
  8
0
 10
-4.893759
 20
28.501165
 11
-2.143743
 21
26.913443
  0
LINE
  8
0
 10
-4.893661
 20
31.676620
 11
-4.893661
 21
28.501205
  0
LINE
  8
0
 10
-4.893729
 20
31.676884
 11
-2.143714
 21
33.264606
  0
LINE
  8
0
 10
-2.143678
 20
33.264324
 11
0.606306
 21
31.676620
  0
LINE
  8
0
 10
0.606339
 20
31.676620
 11
0.606339
 21
28.501205
  0
LINE
  8
0
 10
-13.743652
 20
50.888908
 11
-13.743652
 21
46.588890
  0
LINE
  8
0
 10
-13.743652
 20
54.288918
 11
-13.743652
 21
57.608772
  0
LINE
  8
0
 10
-13.743652
 20
9.288910
 11
-13.743652
 21
13.588913
  0
LINE
  8
0
 10
-13.743652
 20
5.888901
 11
-13.743652
 21
2.569046
  0
LINE
  8
0
 10
-9.541649
 20
46.588860
 11
-13.743736
 21
46.588860
  0
LINE
  8
0
 10
-9.541664
 20
13.588867
 11
-13.743736
 21
13.588867
  0
LINE
  8
0
 10
-6.243736
 20
14.088882
 11
-13.743736
 21
14.088882
  0
LINE
  8
0
 10
-6.243736
 20
46.088867
 11
-13.743736
 21
46.088867
  0
LINE
  8
0
 10
-5.743668
 20
50.588905
 11
-5.743668
 21
9.588913
  0
LINE
  8
0
 10
-0.793739
 20
53.388863
 11
-5.243736
 21
53.388863
  0
LINE
  8
0
 10
-3.643730
 20
6.788895
 11
-5.243736
 21
6.788895
  0
LINE
  8
0
 10
-0.793682
 20
58.788857
 11
-2.493656
 21
58.788857
  0
LINE
  8
0
 10
11.056335
 20
14.788834
 11
11.056335
 21
45.388977
  0
LINE
  8
0
 10
10.756348
 20
9.888901
 11
10.756348
 21
59.888908
  0
LINE
  8
0
  6
CENTER
 62
     2
 10
-12.243736
 20
20.088898
 11
-7.243736
 21
20.088898
  0
LINE
  8
0
  6
CENTER
 62
     2
 10
-12.243721
 20
40.088928
 11
-7.243721
 21
40.088928
  0
LINE
  8
0
  6
CENTER
 62
     2
 10
-9.743736
 20
17.588898
 11
-9.743736
 21
22.588898
  0
LINE
  8
0
  6
CENTER
 62
     2
 10
-9.743721
 20
37.588928
 11
-9.743721
 21
42.588928
  0
LINE
  8
0
 10
-3.643661
 20
6.588921
 11
-5.093742
 21
6.588921
  0
LINE
  8
0
 10
-1.243664
 20
75.688896
 11
3.756336
 21
75.688896
  0
LINE
  8
0
 10
3.756332
 20
75.688896
 11
3.756332
 21
71.688889
  0
LINE
  8
0
 10
-1.243668
 20
75.688896
 11
-1.243668
 21
71.688889
  0
LINE
  8
0
 10
-1.243664
 20
71.688889
 11
3.756336
 21
71.688889
  0
LINE
  8
0
 10
-2.207844
 20
63.188889
 11
4.720379
 21
63.188889
  0
LINE
  8
0
 10
-2.743664
 20
63.988876
 11
5.256336
 21
63.988876
  0
LINE
  8
0
 10
-2.743664
 20
66.488876
 11
5.256336
 21
66.488876
  0
LINE
  8
0
 10
5.256332
 20
66.488876
 11
5.256332
 21
63.988876
  0
LINE
  8
0
 10
-2.743668
 20
66.488876
 11
-2.743668
 21
63.988876
  0
LINE
  8
0
 10
5.875137
 20
62.831589
 11
5.875137
 21
60.088844
  0
LINE
  8
0
 10
3.565720
 20
62.831589
 11
3.565720
 21
60.088844
  0
LINE
  8
0
 10
-1.053085
 20
62.831589
 11
-1.053085
 21
60.088844
  0
LINE
  8
0
 10
-3.362473
 20
62.831589
 11
-3.362473
 21
59.188858
  0
LINE
  8
0
 10
3.756332
 20
63.988846
 11
3.756332
 21
63.188858
  0
LINE
  8
0
 10
-1.243668
 20
63.988846
 11
-1.243668
 21
63.188858
  0
LINE
  8
0
 10
-0.243668
 20
71.688858
 11
-0.243668
 21
66.488846
  0
LINE
  8
0
 10
2.756332
 20
71.688858
 11
2.756332
 21
66.488846
  0
LINE
  8
0
 62
     2
 10
2.485825
 20
71.688858
 11
2.485825
 21
66.488846
  0
LINE
  8
0
 62
     2
 10
0.026840
 20
71.688858
 11
0.026840
 21
66.488846
  0
LINE
  8
0
 10
-3.643661
 20
59.188858
 11
-3.643661
 21
53.588844
  0
LINE
  8
0
 10
-3.643658
 20
59.188858
 11
-2.493664
 21
59.188858
  0
LINE
  8
0
 62
     4
 10
-6.143627
 20
0.588951
 11
-3.362473
 21
0.588951
  0
LINE
  8
0
 62
     4
 10
-4.693653
 20
-0.011070
 11
-4.693653
 21
-0.686287
  0
LINE
  8
0
 62
     4
 10
-4.893650
 20
6.588921
 11
-4.893650
 21
2.588921
  0
LINE
  8
0
 62
     4
 10
-5.393627
 20
2.588951
 11
-3.643661
 21
2.588951
  0
LINE
  8
0
 62
     4
 10
-5.393650
 20
2.588921
 11
-5.393650
 21
1.988930
  0
LINE
  8
0
 62
     4
 10
-6.993618
 20
1.988945
 11
-3.643661
 21
1.988945
  0
LINE
  8
0
 62
     4
 10
-6.993641
 20
1.988914
 11
-6.993641
 21
1.388939
  0
LINE
  8
0
 62
     4
 10
-5.993618
 20
0.788948
 11
-3.362473
 21
0.788948
  0
LINE
  8
0
 62
     4
 10
-5.993641
 20
1.088921
 11
-5.993641
 21
0.788933
  0
LINE
  8
0
 62
     4
 10
-4.093678
 20
-0.011070
 11
-4.093678
 21
-0.686287
  0
LINE
  8
0
 62
     4
 10
-4.093655
 20
-0.011055
 11
-4.693630
 21
-0.011055
  0
LINE
  8
0
 62
     4
 10
-5.393650
 20
0.788933
 11
-5.393650
 21
0.588921
  0
LINE
  8
0
 62
     4
 10
-3.393681
 20
0.788933
 11
-3.393681
 21
0.588921
  0
LINE
  8
0
 10
157.356323
 20
-68.867943
 11
157.356323
 21
-73.867943
  0
LINE
  8
0
 62
     2
 10
146.956299
 20
-73.267944
 11
157.356323
 21
-73.267944
  0
LINE
  8
0
 62
     2
 10
146.956299
 20
-69.467941
 11
157.356323
 21
-69.467941
  0
LINE
  8
0
 10
137.256317
 20
-61.367954
 11
137.256317
 21
-75.117958
  0
LINE
  8
0
 10
142.956314
 20
-61.867954
 11
142.956314
 21
-77.867958
  0
LINE
  8
0
 10
142.956329
 20
-61.867950
 11
137.256317
 21
-61.867950
  0
LINE
  8
0
 10
154.156311
 20
-68.867943
 11
154.156311
 21
-59.567932
  0
LINE
  8
0
 10
144.356323
 20
-67.367943
 11
144.356323
 21
-59.567928
  0
LINE
  8
0
 10
154.156311
 20
-59.567932
 11
144.356308
 21
-59.567932
  0
LINE
  8
0
 10
144.256317
 20
-58.267941
 11
144.256317
 21
-56.667938
  0
LINE
  8
0
 10
154.256317
 20
-58.267944
 11
144.256317
 21
-58.267944
  0
LINE
  8
0
 10
154.256317
 20
-56.667938
 11
144.256317
 21
-56.667938
  0
LINE
  8
0
 10
154.256317
 20
-58.267952
 11
154.256317
 21
-56.667946
  0
LINE
  8
0
 10
152.506317
 20
-59.567940
 11
152.506317
 21
-58.267952
  0
LINE
  8
0
 10
146.006317
 20
-59.567940
 11
146.006317
 21
-58.267952
  0
LINE
  8
0
 10
71.556328
 20
-65.367920
 11
70.556328
 21
-65.367920
  0
LINE
  8
0
 10
77.256325
 20
-61.367950
 11
137.256317
 21
-61.367950
  0
LINE
  8
0
 10
77.256317
 20
-61.367947
 11
77.256317
 21
-75.117943
  0
LINE
  8
0
 10
71.556328
 20
-61.867950
 11
77.256325
 21
-61.867950
  0
LINE
  8
0
  6
CENTER
 62
     2
 10
107.256317
 20
-56.436371
 11
107.256317
 21
-91.655258
  0
LINE
  8
0
 10
69.256172
 20
-73.677109
 11
65.256111
 21
-75.986549
  0
LINE
  8
0
 10
65.256165
 20
-66.748802
 11
61.256187
 21
-69.058189
  0
LINE
  8
0
 10
61.256317
 20
-73.677307
 11
61.256317
 21
-69.058502
  0
LINE
  8
0
 10
69.256317
 20
-73.677338
 11
69.256317
 21
-69.058533
  0
LINE
  8
0
 10
65.256111
 20
-75.986549
 11
61.256355
 21
-73.677284
  0
LINE
  8
0
 10
69.256325
 20
-69.058563
 11
65.256325
 21
-66.749161
  0
LINE
  8
0
 10
60.356308
 20
-71.367920
 11
60.356308
 21
-59.567924
  0
LINE
  8
0
 10
60.256317
 20
-56.667938
 11
70.256317
 21
-56.667938
  0
LINE
  8
0
 10
60.256317
 20
-58.267944
 11
70.256317
 21
-58.267944
  0
LINE
  8
0
 10
61.856331
 20
-67.839478
 11
61.856331
 21
-65.367928
  0
LINE
  8
0
 10
60.356331
 20
-63.867943
 11
70.156319
 21
-63.867943
  0
LINE
  8
0
 10
61.856331
 20
-65.367935
 11
68.656319
 21
-65.367935
  0
LINE
  8
0
 10
60.356308
 20
-59.567932
 11
70.156296
 21
-59.567932
  0
LINE
  8
0
 10
60.256317
 20
-58.267929
 11
60.256317
 21
-56.667923
  0
LINE
  8
0
 10
70.256317
 20
-58.267941
 11
70.256317
 21
-56.667931
  0
LINE
  8
0
 10
70.156303
 20
-71.367928
 11
70.156303
 21
-59.567928
  0
LINE
  8
0
 10
68.656311
 20
-67.839478
 11
68.656311
 21
-65.367928
  0
LINE
  8
0
 10
62.006310
 20
-59.567917
 11
62.006310
 21
-58.267929
  0
LINE
  8
0
 10
68.506310
 20
-59.567917
 11
68.506310
 21
-58.267929
  0
LINE
  8
0
 10
60.355957
 20
-63.868313
 11
61.855949
 21
-65.368309
  0
LINE
  8
0
 10
70.156006
 20
-63.867607
 11
68.655991
 21
-65.367615
  0
LINE
  8
0
 10
60.356308
 20
-68.867935
 11
57.156296
 21
-68.867935
  0
LINE
  8
0
 10
57.956329
 20
-73.867935
 11
57.156296
 21
-73.867935
  0
LINE
  8
0
 10
57.156296
 20
-68.867935
 11
57.156296
 21
-73.867935
  0
LINE
  8
0
 62
     2
 10
57.956329
 20
-73.267944
 11
57.156319
 21
-73.267944
  0
LINE
  8
0
 62
     2
 10
60.356308
 20
-69.467941
 11
57.156319
 21
-69.467941
  0
LINE
  8
0
 10
70.556313
 20
-66.367928
 11
70.156319
 21
-66.367928
  0
LINE
  8
0
 10
60.756302
 20
-73.267929
 11
60.756302
 21
-73.306992
  0
LINE
  8
0
 10
71.556320
 20
-61.867939
 11
71.556320
 21
-74.017944
  0
LINE
  8
0
 10
137.256317
 20
-77.867950
 11
137.256317
 21
-86.367950
  0
LINE
  8
0
 62
     4
 10
129.709534
 20
-75.117935
 11
129.709534
 21
-78.917946
  0
LINE
  8
0
 62
     4
 10
124.709534
 20
-75.117935
 11
124.709534
 21
-78.917946
  0
LINE
  8
0
 10
77.256317
 20
-86.367950
 11
137.256317
 21
-86.367950
  0
LINE
  8
0
 10
71.556320
 20
-77.867950
 11
77.256325
 21
-77.867950
  0
LINE
  8
0
 10
146.956299
 20
-68.867935
 11
157.356323
 21
-68.867935
  0
LINE
  8
0
 10
154.156311
 20
-63.867943
 11
144.356323
 21
-63.867943
  0
LINE
  8
0
 10
154.156570
 20
-63.868217
 11
152.656586
 21
-65.368210
  0
LINE
  8
0
 10
152.656311
 20
-65.367935
 11
145.856323
 21
-65.367935
  0
LINE
  8
0
 10
144.356537
 20
-63.867779
 11
145.856537
 21
-65.367767
  0
LINE
  8
0
 10
145.856323
 20
-66.367935
 11
145.856323
 21
-65.367943
  0
LINE
  8
0
 10
152.656311
 20
-66.367935
 11
152.656311
 21
-65.367943
  0
LINE
  8
0
 62
     4
 10
139.662750
 20
-77.517952
 11
139.662750
 21
-73.517952
  0
LINE
  8
0
 62
     4
 10
138.662750
 20
-77.517944
 11
138.662750
 21
-73.517952
  0
LINE
  8
0
 10
142.956329
 20
-77.867950
 11
137.256317
 21
-77.867950
  0
LINE
  8
0
 10
77.256325
 20
-78.917946
 11
137.256317
 21
-78.917946
  0
LINE
  8
0
 10
77.256325
 20
-75.117950
 11
137.256317
 21
-75.117950
  0
LINE
  8
0
 62
     4
 10
124.709518
 20
-77.517944
 11
114.209534
 21
-77.517944
  0
LINE
  8
0
 62
     4
 10
139.662750
 20
-77.517944
 11
129.709518
 21
-77.517944
  0
LINE
  8
0
 10
77.256325
 20
-63.367943
 11
137.256317
 21
-63.367943
  0
LINE
  8
0
 10
77.256325
 20
-64.367943
 11
137.256317
 21
-64.367943
  0
LINE
  8
0
 10
129.709534
 20
-77.717941
 11
137.256317
 21
-77.717941
  0
LINE
  8
0
 10
77.256325
 20
-77.717941
 11
124.709534
 21
-77.717941
  0
LINE
  8
0
 10
70.556313
 20
-74.017944
 11
70.556313
 21
-65.367912
  0
LINE
  8
0
 10
142.956329
 20
-73.367950
 11
137.256317
 21
-73.367950
  0
LINE
  8
0
 10
71.556328
 20
-73.367950
 11
77.256325
 21
-73.367950
  0
LINE
  8
0
 10
146.956299
 20
-67.367943
 11
146.956299
 21
-75.367943
  0
LINE
  8
0
 10
142.956314
 20
-67.367935
 11
146.956299
 21
-67.367935
  0
LINE
  8
0
 10
142.956314
 20
-71.367935
 11
146.599060
 21
-71.367935
  0
LINE
  8
0
 62
     4
 10
114.209534
 20
-77.517944
 11
114.209534
 21
-75.117950
  0
LINE
  8
0
 10
146.956299
 20
-73.867935
 11
157.356323
 21
-73.867935
  0
LINE
  8
0
 62
     4
 10
139.662750
 20
-73.517944
 11
137.256317
 21
-73.517944
  0
LINE
  8
0
 10
137.256317
 20
-77.517944
 11
137.256317
 21
-77.867950
  0
LINE
  8
0
 10
71.556320
 20
-77.017937
 11
71.556320
 21
-77.867935
  0
LINE
  8
0
 10
77.256317
 20
-77.017937
 11
77.256317
 21
-86.367950
  0
LINE
  8
0
 10
156.556305
 20
-76.267944
 11
156.556305
 21
-73.867943
  0
LINE
  8
0
 10
142.956314
 20
-75.367935
 11
146.956299
 21
-75.367935
  0
LINE
  8
0
 10
142.956314
 20
-77.517937
 11
145.356323
 21
-77.517937
  0
LINE
  8
0
 10
145.356323
 20
-75.367943
 11
145.356323
 21
-77.517944
  0
LINE
  8
0
 10
145.356323
 20
-76.267937
 11
156.556305
 21
-76.267937
  0
LINE
  8
0
 62
     2
 10
145.356323
 20
-75.767937
 11
156.556305
 21
-75.767937
  0
LINE
  8
0
 62
     4
 10
128.058105
 20
-77.866455
 11
126.361046
 21
-76.169403
  0
LINE
  8
0
  6
CENTER
 62
     2
 10
82.256317
 20
-56.436367
 11
82.256317
 21
-91.655258
  0
LINE
  8
0
  6
CENTER
 62
     2
 10
132.256317
 20
-56.436375
 11
132.256317
 21
-91.655258
  0
LINE
  8
0
 62
     4
 10
126.361038
 20
-77.866486
 11
128.058090
 21
-76.169434
  0
LINE
  8
0
 62
     4
 10
114.209534
 20
-77.017944
 11
71.209930
 21
-77.017944
  0
LINE
  8
0
 62
     4
 10
71.209915
 20
-77.017952
 11
70.406059
 21
-74.017952
  0
LINE
  8
0
 62
     4
 10
77.256317
 20
-74.017944
 11
70.406097
 21
-74.017944
  0
LINE
  8
0
 10
57.956329
 20
-76.267929
 11
57.956329
 21
-73.267929
  0
LINE
  8
0
 10
71.556320
 20
-77.517937
 11
69.156311
 21
-77.517937
  0
LINE
  8
0
 10
69.156311
 20
-76.367920
 11
69.156311
 21
-77.517929
  0
LINE
  8
0
 10
57.956329
 20
-73.267937
 11
60.756302
 21
-73.267937
  0
LINE
  8
0
 62
     2
 10
60.756329
 20
-75.767937
 11
57.956326
 21
-75.767937
  0
LINE
  8
0
 62
     2
 10
57.956329
 20
-73.767937
 11
60.984329
 21
-73.767937
  0
LINE
  8
0
 10
57.956326
 20
-76.267929
 11
60.756298
 21
-76.267929
  0
LINE
  8
0
 10
57.956326
 20
-76.267929
 11
60.756298
 21
-76.267929
  0
LINE
  8
0
 10
70.556351
 20
-76.367928
 11
60.756329
 21
-76.367928
  0
LINE
  8
0
 10
60.756332
 20
-76.367920
 11
60.756332
 21
-73.307007
  0
LINE
  8
0
 10
57.956326
 20
-76.267937
 11
60.756329
 21
-76.267937
  0
LINE
  8
0
 10
71.556320
 20
-77.367920
 11
70.556320
 21
-77.367920
  0
LINE
  8
0
 10
70.556328
 20
-77.367912
 11
70.556328
 21
-74.578743
  0
LINE
  8
0
 10
154.156311
 20
-66.367928
 11
144.356323
 21
-66.367928
  0
LINE
  8
0
 62
     4
 10
-76.697273
 20
6.088934
 11
-75.893425
 21
3.088937
  0
LINE
  8
0
 62
     4
 10
-82.743698
 20
6.088930
 11
-76.697266
 21
6.088930
  0
LINE
  8
0
 10
-112.743683
 20
13.588888
 11
-122.243713
 21
13.588888
  0
LINE
  8
0
 10
-66.243683
 20
12.088861
 11
-66.243683
 21
19.588861
  0
LINE
  8
0
 10
-76.043701
 20
20.588934
 11
-66.243683
 21
20.588934
  0
LINE
  8
0
 10
-75.143677
 20
12.088919
 11
-66.243668
 21
12.088919
  0
LINE
  8
0
 10
-68.243698
 20
-15.511076
 11
-73.243698
 21
-15.511076
  0
LINE
  8
0
 10
-73.243698
 20
-15.511072
 11
-73.243698
 21
-11.511065
  0
LINE
  8
0
 10
-68.243698
 20
-15.511072
 11
-68.243698
 21
-11.511065
  0
LINE
  8
0
 10
-68.243698
 20
-11.511068
 11
-73.243698
 21
-11.511068
  0
LINE
  8
0
 10
-66.843674
 20
11.488897
 11
-74.643661
 21
11.488897
  0
LINE
  8
0
 10
-66.743675
 20
-3.011072
 11
-74.743668
 21
-3.011072
  0
LINE
  8
0
 10
-66.743698
 20
-3.811060
 11
-74.743698
 21
-3.811060
  0
LINE
  8
0
 10
-66.743698
 20
-6.311060
 11
-74.743698
 21
-6.311060
  0
LINE
  8
0
 10
-74.743698
 20
-6.311056
 11
-74.743698
 21
-3.811056
  0
LINE
  8
0
 10
-66.743698
 20
-6.311056
 11
-66.743698
 21
-3.811056
  0
LINE
  8
0
 10
-73.243698
 20
-3.811132
 11
-73.243698
 21
-3.011145
  0
LINE
  8
0
 10
-68.243698
 20
-3.811132
 11
-68.243698
 21
-3.011145
  0
LINE
  8
0
 10
-69.243698
 20
-11.511141
 11
-69.243698
 21
-6.311132
  0
LINE
  8
0
 10
-72.243698
 20
-11.511141
 11
-72.243698
 21
-6.311132
  0
LINE
  8
0
 62
     2
 10
-71.973206
 20
-11.511141
 11
-71.973206
 21
-6.311132
  0
LINE
  8
0
 62
     2
 10
-69.514206
 20
-11.511141
 11
-69.514206
 21
-6.311132
  0
LINE
  8
0
 10
-73.993698
 20
9.988855
 11
-73.993698
 21
11.488855
  0
LINE
  8
0
 10
-67.493698
 20
9.988855
 11
-67.493698
 21
11.488855
  0
LINE
  8
0
 10
-74.643707
 20
11.488855
 11
-74.643707
 21
12.088861
  0
LINE
  8
0
 10
-66.843704
 20
11.488855
 11
-66.843704
 21
12.088861
  0
LINE
  8
0
 10
-65.843681
 20
0.988928
 11
-75.643661
 21
0.988928
  0
LINE
  8
0
 10
-65.843674
 20
9.988928
 11
-75.643661
 21
9.988928
  0
LINE
  8
0
 10
-74.743698
 20
-3.011145
 11
-74.743698
 21
0.988855
  0
LINE
  8
0
 10
-66.743698
 20
-3.011145
 11
-66.743698
 21
0.988855
  0
LINE
  8
0
 10
-70.743698
 20
-2.653875
 11
-70.743698
 21
0.988855
  0
LINE
  8
0
 10
-66.243683
 20
12.088861
 11
-66.243683
 21
20.588938
  0
LINE
  8
0
 10
-82.743698
 20
0.088875
 11
-82.743698
 21
60.088882
  0
LINE
  8
0
 10
-76.043701
 20
10.588934
 11
-75.143677
 21
10.588934
  0
LINE
  8
0
 10
-104.743683
 20
17.988914
 11
-104.743683
 21
13.588873
  0
LINE
  8
0
 10
-82.743675
 20
0.588934
 11
-77.043686
 21
0.588934
  0
LINE
  8
0
 10
-82.743660
 20
59.588909
 11
-77.043678
 21
59.588909
  0
LINE
  8
0
 10
-84.943657
 20
46.588932
 11
-82.743660
 21
46.588932
  0
LINE
  8
0
 10
-104.293663
 20
21.388922
 11
-103.243675
 21
21.388922
  0
LINE
  8
0
 10
-104.293655
 20
38.788914
 11
-103.243668
 21
38.788914
  0
LINE
  8
0
 10
-104.293655
 20
33.588902
 11
-121.193680
 21
33.588902
  0
LINE
  8
0
 10
-104.293663
 20
26.588903
 11
-121.193680
 21
26.588903
  0
LINE
  8
0
 10
-84.943665
 20
21.388922
 11
-82.743668
 21
21.388922
  0
LINE
  8
0
 10
-84.943665
 20
38.788914
 11
-82.743668
 21
38.788914
  0
LINE
  8
0
 10
-84.943680
 20
13.588875
 11
-84.943680
 21
46.588860
  0
LINE
  8
0
 10
-103.243683
 20
46.588871
 11
-103.243683
 21
13.588873
  0
LINE
  8
0
 10
-109.743690
 20
60.088879
 11
-109.743690
 21
54.288868
  0
LINE
  8
0
 10
-142.743652
 20
60.088909
 11
-82.743675
 21
60.088909
  0
LINE
  8
0
 10
-142.743683
 20
0.088903
 11
-82.743690
 21
0.088903
  0
LINE
  8
0
 10
-82.743675
 20
53.588886
 11
-77.043678
 21
53.588886
  0
LINE
  8
0
 10
-82.743683
 20
6.588903
 11
-77.043686
 21
6.588903
  0
LINE
  8
0
 10
-142.743668
 20
50.888889
 11
-82.743675
 21
50.888889
  0
LINE
  8
0
 10
-142.743668
 20
46.588902
 11
-82.743675
 21
46.588902
  0
LINE
  8
0
 10
-84.593666
 20
54.288883
 11
-82.743675
 21
54.288883
  0
LINE
  8
0
 10
-109.852295
 20
54.288883
 11
-90.893661
 21
54.288883
  0
LINE
  8
0
 10
-109.852318
 20
5.888906
 11
-90.893661
 21
5.888906
  0
LINE
  8
0
 10
-84.593674
 20
5.888906
 11
-82.743683
 21
5.888906
  0
LINE
  8
0
 10
-142.743668
 20
9.288900
 11
-82.743683
 21
9.288900
  0
LINE
  8
0
 10
-142.743668
 20
13.588903
 11
-82.743683
 21
13.588903
  0
LINE
  8
0
 10
-77.043671
 20
26.913488
 11
-74.889297
 21
26.913488
  0
LINE
  8
0
 10
-74.889297
 20
28.501196
 11
-77.043671
 21
28.501196
  0
LINE
  8
0
 10
-74.643707
 20
27.631065
 11
-74.643707
 21
32.061928
  0
LINE
  8
0
 10
-77.043671
 20
33.264286
 11
-74.889297
 21
33.264286
  0
LINE
  8
0
 10
-74.643707
 20
32.546654
 11
-74.643707
 21
28.115776
  0
LINE
  8
0
 10
-74.889297
 20
31.676611
 11
-77.043671
 21
31.676611
  0
LINE
  8
0
 10
-63.443676
 20
28.588892
 11
-63.443676
 21
31.588907
  0
LINE
  8
0
 10
-83.443665
 20
31.588903
 11
-82.743683
 21
31.588903
  0
LINE
  8
0
 10
-83.443665
 20
28.588888
 11
-82.743683
 21
28.588888
  0
LINE
  8
0
 62
     2
 10
-83.443665
 20
31.188910
 11
-82.743683
 21
31.188910
  0
LINE
  8
0
 62
     2
 10
-83.443665
 20
28.988897
 11
-82.743683
 21
28.988897
  0
LINE
  8
0
 10
-83.443680
 20
32.488869
 11
-83.443680
 21
27.688866
  0
LINE
  8
0
 10
-74.643677
 20
31.588903
 11
-63.443676
 21
31.588903
  0
LINE
  8
0
 62
     2
 10
-74.643677
 20
31.188910
 11
-63.443668
 21
31.188910
  0
LINE
  8
0
 62
     2
 10
-74.643677
 20
28.988897
 11
-63.443668
 21
28.988897
  0
LINE
  8
0
 10
-74.643677
 20
28.588888
 11
-63.443676
 21
28.588888
  0
LINE
  8
0
 10
-104.046989
 20
17.988928
 11
-104.743645
 21
17.988928
  0
LINE
  8
0
 10
-91.743690
 20
13.588875
 11
-91.743690
 21
46.588860
  0
LINE
  8
0
 10
-104.293671
 20
38.788887
 11
-104.293671
 21
21.388893
  0
LINE
  8
0
 10
-84.943665
 20
32.488895
 11
-83.443665
 21
32.488895
  0
LINE
  8
0
 10
-84.943665
 20
27.688910
 11
-83.443665
 21
27.688910
  0
LINE
  8
0
 10
-76.043686
 20
24.088934
 11
-77.043686
 21
24.088934
  0
LINE
  8
0
 10
-76.043686
 20
7.088934
 11
-77.043686
 21
7.088934
  0
LINE
  8
0
 10
-76.043701
 20
7.088905
 11
-76.043701
 21
24.088905
  0
LINE
  8
0
 10
-75.143692
 20
10.588890
 11
-75.143692
 21
12.088890
  0
LINE
  8
0
 10
-112.743645
 20
13.588903
 11
-122.243675
 21
13.588903
  0
LINE
  8
0
 10
-148.443680
 20
59.588879
 11
-148.443680
 21
0.588871
  0
LINE
  8
0
 10
-159.243668
 20
48.088871
 11
-159.243668
 21
40.588886
  0
LINE
  8
0
 10
-149.443665
 20
39.588856
 11
-159.243668
 21
39.588856
  0
LINE
  8
0
 10
-150.343658
 20
48.088856
 11
-159.243668
 21
48.088856
  0
LINE
  8
0
 10
-157.243668
 20
75.688858
 11
-152.243668
 21
75.688858
  0
LINE
  8
0
 10
-152.243668
 20
75.688858
 11
-152.243668
 21
71.688858
  0
LINE
  8
0
 10
-157.243668
 20
75.688858
 11
-157.243668
 21
71.688858
  0
LINE
  8
0
 10
-157.243668
 20
71.688858
 11
-152.243668
 21
71.688858
  0
LINE
  8
0
 10
-158.643661
 20
48.688847
 11
-150.843674
 21
48.688847
  0
LINE
  8
0
 10
-158.743668
 20
63.188858
 11
-150.743652
 21
63.188858
  0
LINE
  8
0
 10
-158.743683
 20
63.988846
 11
-150.743668
 21
63.988846
  0
LINE
  8
0
 10
-158.743683
 20
66.488846
 11
-150.743668
 21
66.488846
  0
LINE
  8
0
 10
-150.743668
 20
66.488846
 11
-150.743668
 21
63.988846
  0
LINE
  8
0
 10
-158.743668
 20
66.488846
 11
-158.743668
 21
63.988846
  0
LINE
  8
0
 10
-152.243668
 20
63.988876
 11
-152.243668
 21
63.188889
  0
LINE
  8
0
 10
-157.243668
 20
63.988876
 11
-157.243668
 21
63.188889
  0
LINE
  8
0
 10
-156.243668
 20
71.688889
 11
-156.243668
 21
66.488876
  0
LINE
  8
0
 10
-153.243668
 20
71.688889
 11
-153.243668
 21
66.488876
  0
LINE
  8
0
 62
     2
 10
-153.514175
 20
71.688889
 11
-153.514175
 21
66.488876
  0
LINE
  8
0
 62
     2
 10
-155.973160
 20
71.688889
 11
-155.973160
 21
66.488876
  0
LINE
  8
0
 10
-151.493683
 20
50.188877
 11
-151.493683
 21
48.688877
  0
LINE
  8
0
 10
-157.993668
 20
50.188877
 11
-157.993668
 21
48.688877
  0
LINE
  8
0
 10
-150.843674
 20
48.688877
 11
-150.843674
 21
48.088871
  0
LINE
  8
0
 10
-158.643661
 20
48.688877
 11
-158.643661
 21
48.088871
  0
LINE
  8
0
 10
-159.643661
 20
59.188854
 11
-149.843658
 21
59.188854
  0
LINE
  8
0
 10
-159.643661
 20
50.188847
 11
-149.843674
 21
50.188847
  0
LINE
  8
0
 10
-150.743668
 20
63.188889
 11
-150.743668
 21
59.188885
  0
LINE
  8
0
 10
-158.743668
 20
63.188889
 11
-158.743668
 21
59.188885
  0
LINE
  8
0
 10
-154.743683
 20
62.831619
 11
-154.743683
 21
59.188885
  0
LINE
  8
0
 10
-149.843674
 20
59.188885
 11
-149.843674
 21
50.188877
  0
LINE
  8
0
 10
-159.643661
 20
59.188885
 11
-159.643661
 21
50.188877
  0
LINE
  8
0
 10
-159.243668
 20
48.088871
 11
-159.243668
 21
39.588856
  0
LINE
  8
0
 10
-142.743668
 20
60.088879
 11
-142.743668
 21
0.088871
  0
LINE
  8
0
 10
-149.443665
 20
49.588856
 11
-150.343658
 21
49.588856
  0
LINE
  8
0
 10
-142.743652
 20
59.588848
 11
-148.443649
 21
59.588848
  0
LINE
  8
0
 10
-142.743683
 20
0.588873
 11
-148.443649
 21
0.588873
  0
LINE
  8
0
 10
-140.543671
 20
13.588858
 11
-142.743668
 21
13.588858
  0
LINE
  8
0
 10
-121.193680
 20
38.788853
 11
-122.243668
 21
38.788853
  0
LINE
  8
0
 10
-121.193680
 20
21.388861
 11
-122.243668
 21
21.388861
  0
LINE
  8
0
 10
-140.543671
 20
38.788853
 11
-142.743668
 21
38.788853
  0
LINE
  8
0
 10
-140.543671
 20
21.388861
 11
-142.743668
 21
21.388861
  0
LINE
  8
0
 10
-140.543686
 20
46.588871
 11
-140.543686
 21
13.588871
  0
LINE
  8
0
 10
-122.243683
 20
13.588873
 11
-122.243683
 21
46.588871
  0
LINE
  8
0
 10
-115.743683
 20
60.088879
 11
-115.743683
 21
54.288868
  0
LINE
  8
0
 10
-133.743668
 20
27.088888
 11
-139.743668
 21
27.088888
  0
LINE
  8
0
 10
-133.743668
 20
33.088871
 11
-139.743668
 21
33.088871
  0
LINE
  8
0
 10
-142.743652
 20
6.588873
 11
-148.443649
 21
6.588873
  0
LINE
  8
0
 10
-142.743652
 20
53.588886
 11
-148.443649
 21
53.588886
  0
LINE
  8
0
 10
-140.893661
 20
5.888891
 11
-142.743652
 21
5.888891
  0
LINE
  8
0
 10
-115.635040
 20
5.888891
 11
-134.593674
 21
5.888891
  0
LINE
  8
0
 10
-115.743668
 20
54.288868
 11
-134.593674
 21
54.288868
  0
LINE
  8
0
 10
-140.893661
 20
54.288868
 11
-142.743652
 21
54.288868
  0
LINE
  8
0
 10
-148.443665
 20
33.264286
 11
-150.598038
 21
33.264286
  0
LINE
  8
0
 10
-150.598038
 20
31.676596
 11
-148.443665
 21
31.676596
  0
LINE
  8
0
 10
-150.843674
 20
32.546680
 11
-150.843674
 21
28.115803
  0
LINE
  8
0
 10
-148.443665
 20
26.913488
 11
-150.598038
 21
26.913488
  0
LINE
  8
0
 10
-150.843674
 20
27.631092
 11
-150.843674
 21
32.061954
  0
LINE
  8
0
 10
-150.598038
 20
28.501165
 11
-148.443665
 21
28.501165
  0
LINE
  8
0
 10
-162.043686
 20
31.588884
 11
-162.043686
 21
28.588869
  0
LINE
  8
0
 10
-142.043671
 20
28.588873
 11
-142.743652
 21
28.588873
  0
LINE
  8
0
 10
-142.043671
 20
31.588888
 11
-142.743652
 21
31.588888
  0
LINE
  8
0
 62
     2
 10
-142.043671
 20
28.988882
 11
-142.743652
 21
28.988882
  0
LINE
  8
0
 62
     2
 10
-142.043671
 20
31.188879
 11
-142.743652
 21
31.188879
  0
LINE
  8
0
 10
-142.043686
 20
27.688877
 11
-142.043686
 21
32.488865
  0
LINE
  8
0
 10
-150.843658
 20
28.588873
 11
-162.043686
 21
28.588873
  0
LINE
  8
0
 62
     2
 10
-150.843658
 20
28.988882
 11
-162.043686
 21
28.988882
  0
LINE
  8
0
 62
     2
 10
-150.843658
 20
31.188879
 11
-162.043686
 21
31.188879
  0
LINE
  8
0
 10
-150.843658
 20
31.588888
 11
-162.043686
 21
31.588888
  0
LINE
  8
0
 10
-110.743660
 20
13.588888
 11
-110.743660
 21
17.838903
  0
LINE
  8
0
 10
-139.743683
 20
46.588871
 11
-139.743683
 21
13.588871
  0
LINE
  8
0
 10
-121.193695
 20
21.388859
 11
-121.193695
 21
38.788853
  0
LINE
  8
0
 10
-140.543686
 20
27.688879
 11
-142.043686
 21
27.688879
  0
LINE
  8
0
 10
-140.543671
 20
32.488880
 11
-142.043671
 21
32.488880
  0
LINE
  8
0
 10
-149.443649
 20
36.088840
 11
-148.443649
 21
36.088840
  0
LINE
  8
0
 10
-149.443649
 20
53.088840
 11
-148.443649
 21
53.088840
  0
LINE
  8
0
 10
-149.443665
 20
53.088840
 11
-149.443665
 21
36.088840
  0
LINE
  8
0
 10
-150.343674
 20
49.588856
 11
-150.343674
 21
48.088856
  0
LINE
  8
0
 10
-85.743690
 20
13.588875
 11
-85.743690
 21
46.588860
  0
LINE
  8
0
 10
-91.743668
 20
46.088871
 11
-85.743668
 21
46.088871
  0
LINE
  8
0
 10
-91.743668
 20
14.088903
 11
-85.743668
 21
14.088903
  0
LINE
  8
0
 10
-133.743683
 20
46.588871
 11
-133.743683
 21
13.588871
  0
LINE
  8
0
 10
-133.743668
 20
46.088871
 11
-139.743668
 21
46.088871
  0
LINE
  8
0
 10
-133.743668
 20
14.088903
 11
-139.743683
 21
14.088903
  0
LINE
  8
0
 10
-91.743675
 20
33.088902
 11
-85.743675
 21
33.088902
  0
LINE
  8
0
 10
-91.743675
 20
27.088903
 11
-85.743675
 21
27.088903
  0
LINE
  8
0
 10
-162.743668
 20
18.088903
 11
-152.443665
 21
18.088903
  0
LINE
  8
0
 62
     2
 10
-162.743698
 20
17.488897
 11
-152.443665
 21
17.488897
  0
LINE
  8
0
 10
-152.086411
 20
13.279509
 11
-148.443680
 21
13.279509
  0
LINE
  8
0
 10
-162.743668
 20
13.088903
 11
-152.443665
 21
13.088903
  0
LINE
  8
0
 62
     2
 10
-162.743698
 20
13.688910
 11
-152.443665
 21
13.688910
  0
LINE
  8
0
 10
-152.443665
 20
19.588947
 11
-152.443665
 21
12.644701
  0
LINE
  8
0
 10
-162.743668
 20
18.088900
 11
-162.743668
 21
13.088900
  0
LINE
  8
0
 10
-152.086411
 20
20.207693
 11
-148.443680
 21
20.207693
  0
LINE
  8
0
 10
-152.443893
 20
19.589067
 11
-152.086639
 21
20.207846
  0
LINE
  8
0
 10
-152.086411
 20
17.898291
 11
-148.443680
 21
17.898291
  0
LINE
  8
0
 10
-152.443665
 20
11.588869
 11
-152.443665
 21
18.533100
  0
LINE
  8
0
 10
-152.086411
 20
10.970114
 11
-148.443680
 21
10.970114
  0
LINE
  8
0
 10
-152.443893
 20
11.588801
 11
-152.086639
 21
10.970035
  0
LINE
  8
0
 10
-62.743687
 20
42.088840
 11
-73.043701
 21
42.088840
  0
LINE
  8
0
 62
     2
 10
-62.743687
 20
42.688847
 11
-73.043701
 21
42.688847
  0
LINE
  8
0
 10
-73.400955
 20
46.898243
 11
-77.043671
 21
46.898243
  0
LINE
  8
0
 10
-62.743687
 20
47.088840
 11
-73.043701
 21
47.088840
  0
LINE
  8
0
 62
     2
 10
-62.743687
 20
46.488834
 11
-73.043701
 21
46.488834
  0
LINE
  8
0
 10
-73.043686
 20
40.588844
 11
-73.043686
 21
47.533077
  0
LINE
  8
0
 10
-62.743687
 20
42.088848
 11
-62.743687
 21
47.088848
  0
LINE
  8
0
 10
-73.400955
 20
39.970051
 11
-77.043671
 21
39.970051
  0
LINE
  8
0
 10
-73.043617
 20
40.588810
 11
-73.400879
 21
39.970032
  0
LINE
  8
0
 10
-73.400955
 20
42.279453
 11
-77.043671
 21
42.279453
  0
LINE
  8
0
 10
-73.043686
 20
48.588909
 11
-73.043686
 21
41.644676
  0
LINE
  8
0
 10
-73.400955
 20
49.207645
 11
-77.043671
 21
49.207645
  0
LINE
  8
0
 10
-73.043564
 20
48.588955
 11
-73.400818
 21
49.207722
  0
LINE
  8
0
 10
-77.043701
 20
0.588936
 11
-77.043701
 21
3.088930
  0
LINE
  8
0
 10
-103.243713
 20
14.990976
 11
-104.226692
 21
18.659508
  0
LINE
  8
0
 10
-119.832726
 20
13.588894
 11
-121.260742
 21
18.918346
  0
LINE
  8
0
 10
-120.868011
 20
13.588895
 11
-122.226677
 21
18.659527
  0
LINE
  8
0
 10
-110.743660
 20
17.838903
 11
-120.971504
 21
17.838903
  0
LINE
  8
0
 10
-112.743690
 20
46.588886
 11
-103.243660
 21
46.588886
  0
LINE
  8
0
 10
-120.743683
 20
42.188862
 11
-120.743683
 21
46.588902
  0
LINE
  8
0
 10
-121.440392
 20
42.188847
 11
-120.743736
 21
42.188847
  0
LINE
  8
0
 10
-114.743706
 20
46.588886
 11
-114.743706
 21
42.338871
  0
LINE
  8
0
 10
-122.243706
 20
45.186813
 11
-121.260727
 21
41.518284
  0
LINE
  8
0
 10
-105.654663
 20
46.588913
 11
-104.226639
 21
41.259460
  0
LINE
  8
0
 10
-104.619400
 20
46.588898
 11
-103.260727
 21
41.518265
  0
LINE
  8
0
 10
-114.743706
 20
42.338871
 11
-104.515869
 21
42.338871
  0
LINE
  8
0
  6
CENTER
 62
     2
 10
-166.373749
 20
30.088888
 11
-59.458897
 21
30.088888
  0
LINE
  8
0
  6
CENTER
 62
     2
 10
-78.899269
 20
40.088886
 11
-94.021240
 21
40.088886
  0
LINE
  8
0
  6
CENTER
 62
     2
 10
-78.899269
 20
20.088888
 11
-94.021240
 21
20.088888
  0
LINE
  8
0
  6
CENTER
 62
     2
 10
-131.286087
 20
40.088886
 11
-141.367401
 21
40.088886
  0
LINE
  8
0
  6
CENTER
 62
     2
 10
-131.106064
 20
20.088888
 11
-141.367401
 21
20.088888
  0
LINE
  8
0
  6
CENTER
 62
     2
 10
-132.226532
 20
55.088871
 11
-143.424225
 21
55.088871
  0
LINE
  8
0
  6
CENTER
 62
     2
 10
-137.743668
 20
59.518337
 11
-137.743668
 21
50.126720
  0
LINE
  8
0
  6
CENTER
 62
     2
 10
-132.226532
 20
5.088903
 11
-143.424225
 21
5.088903
  0
LINE
  8
0
  6
CENTER
 62
     2
 10
-137.743668
 20
0.659437
 11
-137.743668
 21
10.051050
  0
LINE
  8
0
  6
CENTER
 62
     2
 10
-87.743683
 20
0.659441
 11
-87.743683
 21
10.051054
  0
LINE
  8
0
  6
CENTER
 62
     2
 10
-93.260818
 20
5.088903
 11
-82.063126
 21
5.088903
  0
LINE
  8
0
  6
CENTER
 62
     2
 10
-93.260818
 20
55.088871
 11
-82.063126
 21
55.088871
  0
LINE
  8
0
  6
CENTER
 62
     2
 10
-87.743683
 20
59.518337
 11
-87.743683
 21
50.126728
  0
LINE
  8
0
  6
CENTER
 62
     2
 10
-103.243683
 20
18.288916
 11
-122.243683
 21
18.288916
  0
LINE
  8
0
  6
CENTER
 62
     2
 10
-103.243683
 20
19.288916
 11
-122.243683
 21
19.288916
  0
LINE
  8
0
  6
CENTER
 62
     2
 10
-103.243690
 20
41.888859
 11
-122.243690
 21
41.888859
  0
LINE
  8
0
  6
CENTER
 62
     2
 10
-103.243690
 20
40.888859
 11
-122.243690
 21
40.888859
  0
LINE
  8
0
  6
CENTER
 62
     2
 10
-102.076859
 20
41.388859
 11
-123.270782
 21
41.388859
  0
LINE
  8
0
  6
CENTER
 62
     2
 10
-102.167816
 20
18.788916
 11
-123.361740
 21
18.788916
  0
LINE
  8
0
  6
CENTER
 62
     2
 10
-125.919937
 20
15.588903
 11
-100.663506
 21
15.588903
  0
LINE
  8
0
  6
CENTER
 62
     2
 10
-125.919937
 20
44.588871
 11
-100.663506
 21
44.588871
  0
LINE
  8
0
 62
     4
 10
-82.743668
 20
3.088930
 11
-75.893425
 21
3.088930
  0
LINE
  8
0
 10
-77.043701
 20
6.088930
 11
-77.043701
 21
59.588913
  0
LINE
  8
0
 10
-75.643692
 20
0.988930
 11
-75.643692
 21
9.988853
  0
LINE
  8
0
 10
-65.843689
 20
0.988932
 11
-65.843689
 21
9.988855
  0
LINE
  8
0
  6
CENTER
 62
     2
 10
-112.743683
 20
63.933662
 11
-112.743683
 21
-4.135500
  0
CIRCLE
  8
0
 10
149.256348
 20
55.188789
 40
2.000000
  0
ARC
  8
0
 10
144.911652
 20
12.124773
 40
2.044656
 50
325.615845
 51
34.384033
  0
CIRCLE
  8
0
 10
107.256348
 20
5.088856
 40
3.000000
  0
ARC
  8
0
 10
107.256363
 20
54.088848
 40
3.000000
 50
180.000000
 51
0.000000
  0
CIRCLE
  8
0
 62
     2
 10
82.256363
 20
55.088852
 40
2.000000
  0
CIRCLE
  8
0
 62
     2
 10
132.256363
 20
55.088844
 40
2.000000
  0
CIRCLE
  8
0
 62
     2
 10
82.256348
 20
5.088888
 40
2.000000
  0
CIRCLE
  8
0
 62
     2
 10
132.256348
 20
5.088884
 40
2.000000
  0
ARC
  8
0
 10
70.562057
 20
27.707329
 40
1.405700
 50
145.616287
 51
214.383713
  0
ARC
  8
0
 10
70.562057
 20
32.470421
 40
1.405701
 50
145.616226
 51
214.383713
  0
ARC
  8
0
 10
74.410728
 20
30.088888
 40
5.254366
 50
162.598434
 51
197.587906
  0
ARC
  8
0
 10
143.950638
 20
32.470413
 40
1.405694
 50
325.616119
 51
34.383823
  0
ARC
  8
0
 10
140.101974
 20
30.088884
 40
5.254363
 50
342.412048
 51
17.401590
  0
ARC
  8
0
 10
143.950638
 20
27.707321
 40
1.405694
 50
325.616119
 51
34.383888
  0
ARC
  8
0
 10
147.256378
 20
57.412086
 40
5.776712
 50
69.743690
 51
110.256142
  0
ARC
  8
0
 10
151.256378
 20
57.412086
 40
5.776711
 50
69.743851
 51
110.256149
  0
ARC
  8
0
 10
67.256340
 20
2.765526
 40
5.776710
 50
249.743759
 51
290.256073
  0
ARC
  8
0
 10
63.256340
 20
2.765526
 40
5.776711
 50
249.743805
 51
290.256165
  0
CIRCLE
  8
0
 10
149.256348
 20
55.188789
 40
5.000000
  0
CIRCLE
  8
0
 10
65.256302
 20
4.988953
 40
2.000000
  0
CIRCLE
  8
0
 10
65.256363
 20
4.988853
 40
5.000000
  0
ARC
  8
0
 10
69.600983
 20
48.052963
 40
2.044651
 50
145.615707
 51
214.383987
  0
ARC
  8
0
 10
75.199043
 20
44.588890
 40
7.642715
 50
162.411957
 51
197.587830
  0
ARC
  8
0
 10
69.600983
 20
41.124748
 40
2.044655
 50
145.615921
 51
214.383987
  0
ARC
  8
0
 10
75.199043
 20
44.588814
 40
7.642713
 50
162.411987
 51
197.587860
  0
ARC
  8
0
 10
144.911652
 20
19.052994
 40
2.044656
 50
325.615875
 51
34.384033
  0
ARC
  8
0
 10
139.313599
 20
15.588914
 40
7.642712
 50
342.412018
 51
17.587885
  0
ARC
  8
0
 10
139.313599
 20
15.588838
 40
7.642713
 50
342.411987
 51
17.587824
  0
CIRCLE
  8
0
 10
82.256363
 20
55.088852
 40
1.600000
  0
CIRCLE
  8
0
 10
132.256363
 20
55.088844
 40
1.600000
  0
CIRCLE
  8
0
 10
132.256348
 20
5.088884
 40
1.600000
  0
CIRCLE
  8
0
 10
82.256348
 20
5.088888
 40
1.600000
  0
ARC
  8
0
 10
-9.541632
 20
47.088890
 40
0.500000
 50
270.000000
 51
330.000000
  0
ARC
  8
0
 10
-9.541651
 20
13.088913
 40
0.500000
 50
29.999985
 51
89.999893
  0
CIRCLE
  8
0
 62
     2
 10
1.256310
 20
44.588882
 40
1.800000
  0
CIRCLE
  8
0
 10
1.256310
 20
44.588882
 40
2.500000
  0
CIRCLE
  8
0
 62
     2
 10
-9.743721
 20
40.088928
 40
2.000000
  0
CIRCLE
  8
0
 10
1.256271
 20
44.588913
 40
4.000000
  0
ARC
  8
0
 10
-4.258888
 20
14.111130
 40
1.000000
 50
94.999977
 51
289.038727
  0
ARC
  8
0
 10
1.256279
 20
15.588913
 40
5.000000
 50
315.572845
 51
224.427078
  0
ARC
  8
0
 10
1.256277
 20
4.631638
 40
7.642726
 50
252.411957
 51
287.587921
  0
ARC
  8
0
 10
4.720381
 20
-0.966446
 40
2.044655
 50
235.615585
 51
304.384216
  0
CIRCLE
  8
0
 10
-4.258888
 20
17.066681
 40
0.400000
  0
CIRCLE
  8
0
 10
-4.258888
 20
14.111130
 40
0.400000
  0
ARC
  8
0
 10
-2.207842
 20
-0.966446
 40
2.044655
 50
235.615646
 51
304.384338
  0
ARC
  8
0
 10
1.556282
 20
15.588913
 40
6.000000
 50
299.450226
 51
156.181076
  0
ARC
  8
0
 10
-4.258888
 20
17.066681
 40
1.000000
 50
70.961136
 51
265.000519
  0
ARC
  8
0
 10
1.556282
 20
15.588913
 40
6.000000
 50
203.818893
 51
233.724609
  0
ARC
  8
0
 10
-6.366217
 20
50.588905
 40
0.500000
 50
89.999947
 51
150.000015
  0
ARC
  8
0
 10
-10.043707
 20
56.088905
 40
4.000000
 50
89.999962
 51
157.668320
  0
CIRCLE
  8
0
 62
     2
 10
-9.743736
 20
20.088898
 40
2.000000
  0
ARC
  8
0
 10
-6.366220
 20
9.588913
 40
0.500000
 50
209.999893
 51
269.999939
  0
ARC
  8
0
 10
-10.043741
 20
4.088913
 40
4.000000
 50
202.331650
 51
269.999969
  0
CIRCLE
  8
0
 10
-2.143715
 20
30.088913
 40
2.750000
  0
CIRCLE
  8
0
 10
-2.143715
 20
30.088913
 40
1.500000
  0
CIRCLE
  8
0
 62
     2
 10
-2.143715
 20
30.088913
 40
1.000000
  0
CIRCLE
  8
0
 10
-9.743736
 20
20.088898
 40
1.600000
  0
CIRCLE
  8
0
 10
-9.743721
 20
40.088928
 40
1.600000
  0
ARC
  8
0
 10
1.256281
 20
55.546127
 40
7.642725
 50
72.412094
 51
107.588058
  0
ARC
  8
0
 10
4.720385
 20
61.144211
 40
2.044654
 50
55.615761
 51
124.384438
  0
ARC
  8
0
 10
-2.207838
 20
61.144211
 40
2.044656
 50
55.615685
 51
124.384346
  0
ARC
  8
0
 62
     4
 10
-4.393642
 20
1.116814
 40
1.827885
 50
279.446350
 51
304.342102
  0
ARC
  8
0
 62
     4
 10
-6.293636
 20
1.088936
 40
0.300000
 50
0.000023
 51
90.000000
  0
ARC
  8
0
 62
     4
 10
-4.393642
 20
1.116814
 40
1.827885
 50
196.785950
 51
260.553589
  0
ARC
  8
0
 62
     4
 10
-2.893646
 20
4.588936
 40
1.500000
 50
120.000679
 51
239.999298
  0
ARC
  8
0
 10
141.179459
 20
-73.367943
 40
5.776857
 50
339.744385
 51
20.255615
  0
ARC
  8
0
 10
141.386017
 20
-76.142944
 40
3.970293
 50
339.737488
 51
11.256405
  0
CIRCLE
  8
0
 10
65.256325
 20
-71.367920
 40
2.500000
  0
CIRCLE
  8
0
 10
65.256325
 20
-71.367920
 40
4.000000
  0
CIRCLE
  8
0
 10
65.256325
 20
-71.367920
 40
4.900000
  0
CIRCLE
  8
0
 62
     4
 10
127.209534
 20
-77.017944
 40
1.750000
  0
ARC
  8
0
 10
141.179459
 20
-69.367943
 40
5.776857
 50
339.744385
 51
20.255615
  0
ARC
  8
0
 10
73.126617
 20
-76.142929
 40
3.970293
 50
183.248611
 51
200.262512
  0
CIRCLE
  8
0
 10
-121.743668
 20
41.388859
 40
0.500000
  0
CIRCLE
  8
0
 10
-103.743668
 20
41.388863
 40
0.500000
  0
ARC
  8
0
 10
-72.743668
 20
2.765574
 40
5.776710
 50
249.743927
 51
290.256226
  0
CIRCLE
  8
0
 10
-87.743675
 20
5.088875
 40
3.250000
  0
ARC
  8
0
 10
-79.898041
 20
30.088875
 40
5.254370
 50
342.412079
 51
17.401590
  0
ARC
  8
0
 10
-76.049377
 20
32.470406
 40
1.405700
 50
325.616302
 51
34.383774
  0
ARC
  8
0
 10
-76.049377
 20
27.707314
 40
1.405700
 50
325.616302
 51
34.383713
  0
CIRCLE
  8
0
 10
-87.743668
 20
55.088875
 40
3.250000
  0
ARC
  8
0
 10
-68.743675
 20
2.765574
 40
5.776711
 50
249.743851
 51
290.256165
  0
ARC
  8
0
 10
-152.743668
 20
57.412197
 40
5.776711
 50
69.743851
 51
110.256149
  0
CIRCLE
  8
0
 10
-103.743706
 20
18.788918
 40
0.500000
  0
CIRCLE
  8
0
 10
-137.743668
 20
55.088871
 40
3.250000
  0
ARC
  8
0
 10
-112.743675
 20
5.088873
 40
2.999999
 50
164.533966
 51
15.465605
  0
ARC
  8
0
 10
-145.589294
 20
30.088871
 40
5.254363
 50
162.412033
 51
197.401566
  0
ARC
  8
0
 10
-149.437958
 20
27.707340
 40
1.405694
 50
145.616119
 51
214.383881
  0
ARC
  8
0
 10
-149.437958
 20
32.470432
 40
1.405695
 50
145.616043
 51
214.383881
  0
CIRCLE
  8
0
 10
-137.743668
 20
5.088871
 40
3.250000
  0
ARC
  8
0
 10
-156.743668
 20
57.412182
 40
5.776711
 50
69.743851
 51
110.256149
  0
CIRCLE
  8
0
 10
-87.743668
 20
55.088875
 40
1.650000
  0
CIRCLE
  8
0
 10
-87.743675
 20
5.088875
 40
1.650000
  0
CIRCLE
  8
0
 10
-137.743668
 20
5.088871
 40
1.650000
  0
CIRCLE
  8
0
 10
-137.743668
 20
55.088871
 40
1.650000
  0
ARC
  8
0
 10
-150.399017
 20
12.124790
 40
2.044655
 50
145.615921
 51
214.384094
  0
ARC
  8
0
 10
-144.800964
 20
15.588862
 40
7.642709
 50
162.412094
 51
197.587967
  0
ARC
  8
0
 10
-150.399017
 20
19.053013
 40
2.044655
 50
145.615921
 51
214.384079
  0
ARC
  8
0
 10
-144.800964
 20
15.588939
 40
7.642710
 50
162.412064
 51
197.587952
  0
ARC
  8
0
 10
-75.088348
 20
41.124763
 40
2.044655
 50
325.615936
 51
34.384079
  0
ARC
  8
0
 10
-80.686401
 20
44.588844
 40
7.642717
 50
342.412079
 51
17.587915
  0
ARC
  8
0
 10
-80.686401
 20
44.588921
 40
7.642716
 50
342.412109
 51
17.587961
  0
ARC
  8
0
 10
-75.088348
 20
48.052986
 40
2.044655
 50
325.615936
 51
34.384079
  0
CIRCLE
  8
0
 10
-121.743706
 20
18.788914
 40
0.500000
  0
TEXT
  8
0
 10
115.907150
 20
122.050003
 40
4.500000
  1
DATE : MAY ,1993
 50
0.000000
 41
1.052631
 51
0.000000
  7
STANDARD
  0
TEXT
  8
0
 10
113.700279
 20
-130.669998
 40
6.300000
  1
KOGANEI CORP.
 50
0.000000
 41
1.052632
 51
0.000000
  7
STANDARD
  0
TEXT
  8
0
 10
-185.892654
 20
122.050003
 40
4.500000
  1
HANDLING MODULE
 50
0.000000
 41
1.052632
 51
0.000000
  7
STANDARD
  0
TEXT
  8
0
 10
-186.892654
 20
104.550003
 40
4.500000
  1
MODEL:SHM71S
 50
0.000000
 41
1.052632
 51
0.000000
  7
STANDARD
  0
ENDSEC
  0
EOF
