  0
SECTION
  2
HEADER
  0
ENDSEC
  0
SECTION
  2
TABLES
  0
TABLE
  2
LTYPE
 70
     4
  0
LTYPE
  2
CONTINUOUS
 70
    64
  3
Solid line
 72
    65
 73
     0
 40
0.000000
  0
LTYPE
  2
DASHED
 70
    64
  3
__ __ __ __ __ __ __ __ __ __ __ __ __ __ __
 72
    65
 73
     2
 40
3.500000
 49
2.000000
 49
-1.500000
  0
LTYPE
  2
CENTER
 70
    64
  3
____ _ ____ _ ____ _ ____ _ ____ _ ____ _ ____
 72
    65
 73
     4
 40
17.500000
 49
13.000000
 49
-1.500000
 49
1.500000
 49
-1.500000
  0
LTYPE
  2
PHANTOM
 70
    64
  3
_____ _ _ _____ _ _ _____ _ _ _____ _ _ ____  
 72
    65
 73
     6
 40
15.500000
 49
8.000000
 49
-1.500000
 49
1.500000
 49
-1.500000
 49
1.500000
 49
-1.500000
  0
LTYPE
  2
DASHED1
 70
    64
  3
__ __ __ __ __ __ __ __ __ __ __ __ __ __ __
 72
    65
 73
     2
 40
1.500000
 49
1.000000
 49
-0.500000
  0
LTYPE
  2
DASHED2
 70
    64
  3
__ __ __ __ __ __ __ __ __ __ __ __ __ __ __
 72
    65
 73
     2
 40
3.500000
 49
2.500000
 49
-1.000000
  0
LTYPE
  2
DASHED3
 70
    64
  3
__ __ __ __ __ __ __ __ __ __ __ __ __ __ __
 72
    65
 73
     2
 40
6.000000
 49
4.000000
 49
-2.000000
  0
LTYPE
  2
DASHED4
 70
    64
  3
__ __ __ __ __ __ __ __ __ __ __ __ __ __ __
 72
    65
 73
     2
 40
12.000000
 49
10.000000
 49
-2.000000
  0
LTYPE
  2
DASHED5
 70
    64
  3
__ __ __ __ __ __ __ __ __ __ __ __ __ __ __
 72
    65
 73
     2
 40
17.000000
 49
15.000000
 49
-2.000000
  0
LTYPE
  2
DASHED6
 70
    64
  3
__ __ __ __ __ __ __ __ __ __ __ __ __ __ __
 72
    65
 73
     2
 40
29.000000
 49
27.000000
 49
-2.000000
  0
LTYPE
  2
PHANTOM1
 70
    64
  3
_____ _ _ _____ _ _ _____ _ _ _____ _ _ ____  
 72
    65
 73
     6
 40
31.000000
 49
25.000000
 49
-1.500000
 49
1.000000
 49
-1.000000
 49
1.000000
 49
-1.500000
  0
LTYPE
  2
PHANTOM2
 70
    64
  3
_____ _ _ _____ _ _ _____ _ _ _____ _ _ ____  
 72
    65
 73
     6
 40
36.000000
 49
27.000000
 49
-1.500000
 49
2.500000
 49
-1.000000
 49
2.500000
 49
-1.500000
  0
LTYPE
  2
PHANTOM3
 70
    64
  3
_____ _ _ _____ _ _ _____ _ _ _____ _ _ ____  
 72
    65
 73
     6
 40
78.000000
 49
64.000000
 49
-2.000000
 49
4.000000
 49
-2.000000
 49
4.000000
 49
-2.000000
  0
LTYPE
  2
CENTER1
 70
    64
  3
____ _ ____ _ ____ _ ____ _ ____ _ ____ _ ____
 72
    65
 73
     4
 40
19.000000
 49
14.000000
 49
-1.000000
 49
3.000000
 49
-1.000000
  0
LTYPE
  2
CENTER2
 70
    64
  3
____ _ ____ _ ____ _ ____ _ ____ _ ____ _ ____
 72
    65
 73
     4
 40
28.500000
 49
25.000000
 49
-1.000000
 49
1.500000
 49
-1.000000
  0
LTYPE
  2
CENTER3
 70
    64
  3
____ _ ____ _ ____ _ ____ _ ____ _ ____ _ ____
 72
    65
 73
     4
 40
31.500000
 49
27.000000
 49
-1.000000
 49
2.500000
 49
-1.000000
  0
LTYPE
  2
CENTER4
 70
    64
  3
____ _ ____ _ ____ _ ____ _ ____ _ ____ _ ____
 72
    65
 73
     4
 40
50.000000
 49
45.000000
 49
-1.000000
 49
3.000000
 49
-1.000000
  0
LTYPE
  2
CENTER5
 70
    64
  3
____ _ ____ _ ____ _ ____ _ ____ _ ____ _ ____
 72
    65
 73
     4
 40
100.000000
 49
92.000000
 49
-2.000000
 49
4.000000
 49
-2.000000
  0
LTYPE
  2
SBK1
 70
    64
  3
______ _ _ _ ______ _ _ _ ______ _ _ _ _____  
 72
    65
 73
     8
 40
60.500000
 49
45.000000
 49
-2.000000
 49
2.500000
 49
-2.000000
 49
2.500000
 49
-2.000000
 49
2.500000
 49
-2.000000
  0
LTYPE
  2
SBK2
 70
    64
  3
______ _ _ _ ______ _ _ _ ______ _ _ _ _____  
 72
    65
 73
     8
 40
84.000000
 49
64.000000
 49
-2.000000
 49
4.000000
 49
-2.000000
 49
4.000000
 49
-2.000000
 49
4.000000
 49
-2.000000
  0
LTYPE
  2
STCH
 70
    64
  3
__ __ __ __ __ __ __ __ __ __ __ __ __ __ __
 72
    65
 73
     2
 40
3.000000
 49
1.000000
 49
-2.000000
  0
LTYPE
  2
MTCH
 70
    64
  3
_____ _ _ _____ _ _ _____ _ _ _____ _ _ ____  
 72
    65
 73
     6
 40
80.000000
 49
66.000000
 49
-2.000000
 49
4.000000
 49
-2.000000
 49
4.000000
 49
-2.000000
  0
ENDTAB
  0
TABLE
  2
LAYER
 70
     1
  0
LAYER
  2
0
 70
     0
 62
     7
  6
CONTINUOUS
  0
ENDTAB
  0
TABLE
  2
STYLE
 70
     1
  0
STYLE
  2
STANDARD
 70
     0
 40
0.000000
 41
1.000000
 50
0.000000
 71
     0
 42
0.200000
  3
txt
  4
BIGFONT
  0
ENDTAB
  0
TABLE
  2
VIEW
 70
     0
  0
ENDTAB
  0
ENDSEC
  0
SECTION
  2
BLOCKS
  0
ENDSEC
  0
SECTION
  2
ENTITIES
  0
LINE
  8
0
 10
-281.250000
 20
195.500000
 11
282.099976
 21
195.500000
  0
LINE
  8
0
 10
-281.250000
 20
195.500000
 11
-281.250000
 21
-195.000000
  0
LINE
  8
0
 10
282.099976
 20
195.500000
 11
282.099976
 21
-195.000000
  0
LINE
  8
0
 10
-281.250000
 20
-195.000000
 11
282.099976
 21
-195.000000
  0
LINE
  8
0
 10
162.099976
 20
-175.000000
 11
162.099976
 21
-195.000000
  0
LINE
  8
0
 10
162.099976
 20
-175.000000
 11
282.099976
 21
-175.000000
  0
LINE
  8
0
 10
162.099976
 20
175.500000
 11
282.099976
 21
175.500000
  0
LINE
  8
0
 10
-281.250000
 20
175.500000
 11
-161.250015
 21
175.500000
  0
LINE
  8
0
 10
162.099976
 20
195.500000
 11
162.099976
 21
175.500000
  0
LINE
  8
0
 10
-161.250015
 20
195.500000
 11
-161.250015
 21
175.500000
  0
LINE
  8
0
  6
CENTER
 62
     2
 10
43.565704
 20
142.557343
 11
43.565704
 21
56.877296
  0
LINE
  8
0
 10
149.265717
 20
59.437248
 11
149.265717
 21
139.037262
  0
LINE
  8
0
 10
143.565720
 20
59.237251
 11
143.565720
 21
139.237274
  0
LINE
  8
0
  6
CENTER
 62
     2
 10
-69.258530
 20
99.237297
 11
154.622787
 21
99.237297
  0
LINE
  8
0
 10
149.265686
 20
59.437302
 11
143.565704
 21
59.437302
  0
LINE
  8
0
 10
149.265717
 20
139.037323
 11
143.565735
 21
139.037323
  0
LINE
  8
0
 10
40.565708
 20
139.237335
 11
40.565708
 21
130.737335
  0
LINE
  8
0
 10
46.565704
 20
139.237335
 11
46.565704
 21
130.737335
  0
LINE
  8
0
  6
CENTER
 62
     2
 10
38.581177
 20
66.737297
 11
48.311295
 21
66.737297
  0
LINE
  8
0
 10
167.165695
 20
83.737312
 11
153.265656
 21
83.737312
  0
LINE
  8
0
 62
     2
 10
167.165680
 20
83.137306
 11
153.265656
 21
83.137306
  0
LINE
  8
0
 10
152.908417
 20
78.927917
 11
149.265701
 21
78.927917
  0
LINE
  8
0
 10
167.165695
 20
78.737305
 11
153.265656
 21
78.737305
  0
LINE
  8
0
 62
     2
 10
167.165680
 20
79.337311
 11
153.265656
 21
79.337311
  0
LINE
  8
0
 10
153.265701
 20
85.237289
 11
153.265701
 21
77.236931
  0
LINE
  8
0
 10
167.165695
 20
83.737289
 11
167.165695
 21
78.737289
  0
LINE
  8
0
 10
152.908417
 20
85.856102
 11
149.265701
 21
85.856102
  0
LINE
  8
0
 10
153.265854
 20
85.237358
 11
152.908600
 21
85.856125
  0
LINE
  8
0
 10
152.908417
 20
83.546700
 11
149.265701
 21
83.546700
  0
LINE
  8
0
 10
153.266037
 20
77.237053
 11
152.908783
 21
76.618279
  0
LINE
  8
0
 10
152.908417
 20
76.618515
 11
149.265701
 21
76.618515
  0
LINE
  8
0
 10
160.165848
 20
120.737244
 11
160.165848
 21
112.237274
  0
LINE
  8
0
 10
150.265854
 20
112.237289
 11
160.165848
 21
112.237289
  0
LINE
  8
0
 10
150.265854
 20
122.237289
 11
151.165802
 21
122.237289
  0
LINE
  8
0
 10
151.165817
 20
122.237244
 11
151.165817
 21
120.737244
  0
LINE
  8
0
 10
151.165802
 20
120.737289
 11
160.165802
 21
120.737289
  0
LINE
  8
0
 10
151.765808
 20
120.737289
 11
159.565796
 21
120.737289
  0
LINE
  8
0
 10
158.165863
 20
148.337311
 11
153.165863
 21
148.337311
  0
LINE
  8
0
 10
153.165848
 20
148.337311
 11
153.165848
 21
144.337311
  0
LINE
  8
0
 10
158.165848
 20
148.337296
 11
158.165848
 21
144.337296
  0
LINE
  8
0
 10
158.165863
 20
144.337311
 11
153.165863
 21
144.337311
  0
LINE
  8
0
 10
159.565796
 20
121.337296
 11
151.765808
 21
121.337296
  0
LINE
  8
0
 10
159.665802
 20
135.837311
 11
151.665802
 21
135.837311
  0
LINE
  8
0
 10
159.665863
 20
136.637299
 11
151.665863
 21
136.637299
  0
LINE
  8
0
 10
159.665863
 20
139.137299
 11
151.665863
 21
139.137299
  0
LINE
  8
0
 10
151.665848
 20
139.137268
 11
151.665848
 21
136.637268
  0
LINE
  8
0
 10
159.665848
 20
139.137268
 11
159.665848
 21
136.637268
  0
LINE
  8
0
 10
153.165848
 20
136.637238
 11
153.165848
 21
135.837250
  0
LINE
  8
0
 10
158.165848
 20
136.637238
 11
158.165848
 21
135.837250
  0
LINE
  8
0
 10
157.165848
 20
144.337280
 11
157.165848
 21
139.137238
  0
LINE
  8
0
 10
154.165848
 20
144.337280
 11
154.165848
 21
139.137238
  0
LINE
  8
0
 62
     2
 10
154.436356
 20
144.337280
 11
154.436356
 21
139.137238
  0
LINE
  8
0
 62
     2
 10
156.895340
 20
144.337280
 11
156.895340
 21
139.137238
  0
LINE
  8
0
 10
152.415848
 20
122.837212
 11
152.415848
 21
121.337219
  0
LINE
  8
0
 10
158.915848
 20
122.837212
 11
158.915848
 21
121.337219
  0
LINE
  8
0
 10
151.765854
 20
121.337219
 11
151.765854
 21
120.737244
  0
LINE
  8
0
 10
159.565842
 20
121.337219
 11
159.565842
 21
120.737244
  0
LINE
  8
0
 10
159.565796
 20
120.737289
 11
151.765808
 21
120.737289
  0
LINE
  8
0
 10
160.565796
 20
131.837311
 11
158.665833
 21
131.837311
  0
LINE
  8
0
 10
160.565796
 20
122.837288
 11
150.765808
 21
122.837288
  0
LINE
  8
0
 10
151.665848
 20
135.837250
 11
151.665848
 21
131.837219
  0
LINE
  8
0
 10
159.665848
 20
135.837250
 11
159.665848
 21
131.837219
  0
LINE
  8
0
 10
155.665848
 20
135.479980
 11
155.665848
 21
132.837250
  0
LINE
  8
0
 10
150.765854
 20
131.837219
 11
150.765854
 21
128.832275
  0
LINE
  8
0
 10
160.565842
 20
131.837219
 11
160.565842
 21
128.832275
  0
LINE
  8
0
 10
150.265854
 20
108.737274
 11
150.265854
 21
125.737267
  0
LINE
  8
0
 10
150.265839
 20
125.737312
 11
149.265839
 21
125.737312
  0
LINE
  8
0
 10
150.265839
 20
108.737320
 11
149.265823
 21
108.737320
  0
LINE
  8
0
 10
152.665833
 20
131.837311
 11
150.765808
 21
131.837311
  0
LINE
  8
0
 10
160.565842
 20
126.842232
 11
160.565842
 21
122.837212
  0
LINE
  8
0
 10
150.765854
 20
126.842232
 11
150.765854
 21
122.837212
  0
LINE
  8
0
 10
55.765808
 20
48.337273
 11
55.765808
 21
48.937279
  0
LINE
  8
0
 10
65.565796
 20
48.337254
 11
65.565796
 21
57.337254
  0
LINE
  8
0
 10
65.565765
 20
57.337280
 11
55.765778
 21
57.337280
  0
LINE
  8
0
 10
65.565765
 20
48.337280
 11
55.765778
 21
48.337280
  0
LINE
  8
0
 10
60.665771
 20
51.637299
 11
53.165771
 21
51.637299
  0
LINE
  8
0
 10
60.665771
 20
53.037292
 11
53.165771
 21
53.037292
  0
LINE
  8
0
 10
55.765732
 20
48.937298
 11
57.065735
 21
51.637249
  0
LINE
  8
0
 10
55.765617
 20
55.737167
 11
57.065624
 21
53.037140
  0
LINE
  8
0
 10
55.765808
 20
55.737267
 11
55.765808
 21
57.337273
  0
LINE
  8
0
 10
53.165771
 20
47.437286
 11
48.865768
 21
47.437286
  0
LINE
  8
0
 10
45.965801
 20
47.337273
 11
45.965801
 21
57.337273
  0
LINE
  8
0
 10
47.565807
 20
47.337273
 11
47.565807
 21
57.337273
  0
LINE
  8
0
 10
55.765778
 20
48.937286
 11
54.665771
 21
48.937286
  0
LINE
  8
0
 10
53.165802
 20
47.437279
 11
53.165802
 21
57.237267
  0
LINE
  8
0
 10
54.665802
 20
48.937279
 11
54.665802
 21
51.637260
  0
LINE
  8
0
 10
48.865795
 20
47.437279
 11
48.865795
 21
57.237267
  0
LINE
  8
0
 10
47.565781
 20
47.337280
 11
45.965775
 21
47.337280
  0
LINE
  8
0
 10
47.565765
 20
57.337280
 11
45.965759
 21
57.337280
  0
LINE
  8
0
 10
53.165771
 20
57.237305
 11
48.865753
 21
57.237305
  0
LINE
  8
0
 10
55.765778
 20
55.737305
 11
54.665771
 21
55.737305
  0
LINE
  8
0
 10
48.865768
 20
49.087280
 11
47.565781
 21
49.087280
  0
LINE
  8
0
 10
48.865753
 20
55.587280
 11
47.565765
 21
55.587280
  0
LINE
  8
0
 10
54.665802
 20
53.037285
 11
54.665802
 21
55.737267
  0
LINE
  8
0
 10
53.165890
 20
47.437115
 11
54.665886
 21
48.937122
  0
LINE
  8
0
 10
53.165749
 20
57.237240
 11
54.665745
 21
55.737251
  0
LINE
  8
0
 10
64.565765
 20
58.837280
 11
56.765778
 21
58.837280
  0
LINE
  8
0
 10
57.415802
 20
57.337269
 11
57.415802
 21
58.837269
  0
LINE
  8
0
 10
63.915802
 20
57.337269
 11
63.915802
 21
58.837269
  0
LINE
  8
0
 10
56.765808
 20
58.837269
 11
56.765808
 21
59.237293
  0
LINE
  8
0
 10
64.565796
 20
58.837254
 11
64.565796
 21
59.237278
  0
LINE
  8
0
 10
63.165794
 20
31.837280
 11
58.165791
 21
31.837280
  0
LINE
  8
0
 10
58.165802
 20
31.837280
 11
58.165802
 21
35.837276
  0
LINE
  8
0
 10
63.165802
 20
31.837280
 11
63.165802
 21
35.837276
  0
LINE
  8
0
 10
63.165794
 20
35.837280
 11
58.165794
 21
35.837280
  0
LINE
  8
0
 10
64.129883
 20
44.337280
 11
57.201660
 21
44.337280
  0
LINE
  8
0
 10
64.665794
 20
43.537292
 11
56.665794
 21
43.537292
  0
LINE
  8
0
 10
64.665794
 20
41.037292
 11
56.665794
 21
41.037292
  0
LINE
  8
0
 10
56.665802
 20
41.037289
 11
56.665802
 21
43.537289
  0
LINE
  8
0
 10
64.665802
 20
41.037289
 11
64.665802
 21
43.537289
  0
LINE
  8
0
 10
56.046997
 20
44.694542
 11
56.046997
 21
48.337273
  0
LINE
  8
0
 10
58.356415
 20
44.694538
 11
58.356415
 21
48.337269
  0
LINE
  8
0
 10
62.975220
 20
44.694538
 11
62.975220
 21
48.337269
  0
LINE
  8
0
 10
65.284607
 20
44.694523
 11
65.284607
 21
48.337254
  0
LINE
  8
0
 10
58.165802
 20
43.537281
 11
58.165802
 21
44.337269
  0
LINE
  8
0
 10
63.165802
 20
43.537281
 11
63.165802
 21
44.337269
  0
LINE
  8
0
 10
62.165802
 20
35.837269
 11
62.165802
 21
41.037281
  0
LINE
  8
0
 10
59.165802
 20
35.837269
 11
59.165802
 21
41.037281
  0
LINE
  8
0
 62
     2
 10
59.436310
 20
35.837269
 11
59.436310
 21
41.037281
  0
LINE
  8
0
 62
     2
 10
61.895294
 20
35.837269
 11
61.895294
 21
41.037281
  0
LINE
  8
0
 10
-62.134293
 20
139.037323
 11
-62.134293
 21
59.437309
  0
LINE
  8
0
 10
-56.434288
 20
139.237335
 11
143.565735
 21
139.237335
  0
LINE
  8
0
 10
-56.434303
 20
59.237297
 11
143.565674
 21
59.237297
  0
LINE
  8
0
 10
-56.434296
 20
139.237335
 11
-56.434296
 21
59.237312
  0
LINE
  8
0
 10
-56.434296
 20
79.237297
 11
143.565674
 21
79.237297
  0
LINE
  8
0
 10
-56.434296
 20
119.237289
 11
143.565674
 21
119.237289
  0
LINE
  8
0
 10
-62.134285
 20
139.037323
 11
-56.434288
 21
139.037323
  0
LINE
  8
0
 10
-62.134300
 20
59.437294
 11
-56.434303
 21
59.437294
  0
LINE
  8
0
  6
CENTER
 62
     2
 10
8.077175
 20
66.737297
 11
14.234512
 21
66.737297
  0
LINE
  8
0
  6
CENTER
 62
     2
 10
11.065708
 20
63.556156
 11
11.065708
 21
69.713501
  0
LINE
  8
0
 10
-80.034271
 20
114.737289
 11
-66.134247
 21
114.737289
  0
LINE
  8
0
 62
     2
 10
-80.034271
 20
115.337296
 11
-66.134247
 21
115.337296
  0
LINE
  8
0
 10
-65.777008
 20
119.546677
 11
-62.134293
 21
119.546677
  0
LINE
  8
0
 10
-80.034271
 20
119.737289
 11
-66.134247
 21
119.737289
  0
LINE
  8
0
 62
     2
 10
-80.034271
 20
119.137283
 11
-66.134247
 21
119.137283
  0
LINE
  8
0
 10
-66.134277
 20
113.237274
 11
-66.134277
 21
121.237640
  0
LINE
  8
0
 10
-80.034271
 20
114.737305
 11
-80.034271
 21
119.737305
  0
LINE
  8
0
 10
-65.777008
 20
112.618515
 11
-62.134293
 21
112.618515
  0
LINE
  8
0
 10
-66.134445
 20
113.237160
 11
-65.777199
 21
112.618378
  0
LINE
  8
0
 10
-65.777008
 20
114.927902
 11
-62.134293
 21
114.927902
  0
LINE
  8
0
 10
-66.134544
 20
121.237465
 11
-65.777290
 21
121.856247
  0
LINE
  8
0
 10
-65.777008
 20
121.856094
 11
-62.134293
 21
121.856094
  0
LINE
  8
0
 10
-73.034424
 20
77.737335
 11
-73.034424
 21
86.237328
  0
LINE
  8
0
 10
-63.134430
 20
86.237312
 11
-73.034424
 21
86.237312
  0
LINE
  8
0
 10
-63.134430
 20
76.237312
 11
-64.034393
 21
76.237312
  0
LINE
  8
0
 10
-64.034393
 20
76.237335
 11
-64.034393
 21
77.737335
  0
LINE
  8
0
 10
-64.034393
 20
77.737312
 11
-73.034393
 21
77.737312
  0
LINE
  8
0
 10
-64.634399
 20
77.737312
 11
-72.434387
 21
77.737312
  0
LINE
  8
0
 10
-71.034431
 20
50.137306
 11
-66.034431
 21
50.137306
  0
LINE
  8
0
 10
-66.034424
 20
50.137321
 11
-66.034424
 21
54.137321
  0
LINE
  8
0
 10
-71.034424
 20
50.137325
 11
-71.034424
 21
54.137325
  0
LINE
  8
0
 10
-71.034431
 20
54.137306
 11
-66.034431
 21
54.137306
  0
LINE
  8
0
 10
-72.434387
 20
77.137306
 11
-64.634399
 21
77.137306
  0
LINE
  8
0
 10
-72.534401
 20
62.637306
 11
-64.534401
 21
62.637306
  0
LINE
  8
0
 10
-72.534431
 20
61.837318
 11
-64.534431
 21
61.837318
  0
LINE
  8
0
 10
-72.534431
 20
59.337318
 11
-64.534431
 21
59.337318
  0
LINE
  8
0
 10
-64.534424
 20
59.337334
 11
-64.534424
 21
61.837334
  0
LINE
  8
0
 10
-72.534424
 20
59.337337
 11
-72.534424
 21
61.837337
  0
LINE
  8
0
 10
-66.034424
 20
61.837341
 11
-66.034424
 21
62.637329
  0
LINE
  8
0
 10
-71.034424
 20
61.837345
 11
-71.034424
 21
62.637333
  0
LINE
  8
0
 10
-70.034424
 20
54.137329
 11
-70.034424
 21
59.337341
  0
LINE
  8
0
 10
-67.034424
 20
54.137329
 11
-67.034424
 21
59.337341
  0
LINE
  8
0
 62
     2
 10
-67.304932
 20
54.137329
 11
-67.304932
 21
59.337341
  0
LINE
  8
0
 62
     2
 10
-69.763916
 20
54.137329
 11
-69.763916
 21
59.337341
  0
LINE
  8
0
 10
-65.284424
 20
75.637344
 11
-65.284424
 21
77.137344
  0
LINE
  8
0
 10
-71.784424
 20
75.637344
 11
-71.784424
 21
77.137344
  0
LINE
  8
0
 10
-64.634430
 20
77.137344
 11
-64.634430
 21
77.737335
  0
LINE
  8
0
 10
-72.434418
 20
77.137344
 11
-72.434418
 21
77.737335
  0
LINE
  8
0
 10
-72.434387
 20
77.737312
 11
-64.634399
 21
77.737312
  0
LINE
  8
0
 10
-73.434395
 20
66.637306
 11
-71.534431
 21
66.637306
  0
LINE
  8
0
 10
-73.434387
 20
75.637306
 11
-63.634399
 21
75.637306
  0
LINE
  8
0
 10
-64.534424
 20
62.637329
 11
-64.534424
 21
66.637344
  0
LINE
  8
0
 10
-72.534424
 20
62.637333
 11
-72.534424
 21
66.637344
  0
LINE
  8
0
 10
-68.534424
 20
62.994598
 11
-68.534424
 21
65.637321
  0
LINE
  8
0
 10
-63.634430
 20
66.637344
 11
-63.634430
 21
69.642303
  0
LINE
  8
0
 10
-73.434418
 20
66.637344
 11
-73.434418
 21
69.642303
  0
LINE
  8
0
 10
-63.134430
 20
89.737289
 11
-63.134430
 21
72.737289
  0
LINE
  8
0
 10
-63.134438
 20
72.737297
 11
-62.134422
 21
72.737297
  0
LINE
  8
0
 10
-63.134430
 20
89.737297
 11
-62.134415
 21
89.737297
  0
LINE
  8
0
 10
-65.534431
 20
66.637306
 11
-63.634407
 21
66.637306
  0
LINE
  8
0
 10
-73.434418
 20
71.632339
 11
-73.434418
 21
75.637344
  0
LINE
  8
0
 10
-63.634430
 20
71.632339
 11
-63.634430
 21
75.637344
  0
LINE
  8
0
 10
24.165638
 20
150.837357
 11
24.165638
 21
151.037369
  0
LINE
  8
0
 10
31.365620
 20
150.137360
 11
31.365620
 21
149.537354
  0
LINE
  8
0
 10
21.565632
 20
150.137375
 11
21.565632
 21
141.137360
  0
LINE
  8
0
 10
21.565638
 20
141.137360
 11
31.365627
 21
141.137360
  0
LINE
  8
0
 10
21.565639
 20
150.137360
 11
31.365627
 21
150.137360
  0
LINE
  8
0
 10
26.465633
 20
146.837341
 11
33.965633
 21
146.837341
  0
LINE
  8
0
 10
26.465633
 20
145.437347
 11
33.965633
 21
145.437347
  0
LINE
  8
0
 10
31.365791
 20
149.537247
 11
30.065792
 21
146.837280
  0
LINE
  8
0
 10
31.365685
 20
142.737381
 11
30.065678
 21
145.437424
  0
LINE
  8
0
 10
31.365620
 20
142.737366
 11
31.365620
 21
141.137360
  0
LINE
  8
0
 10
33.965633
 20
151.037354
 11
38.265636
 21
151.037354
  0
LINE
  8
0
 10
41.165623
 20
151.137360
 11
41.165623
 21
141.137360
  0
LINE
  8
0
 10
39.565617
 20
151.137360
 11
39.565617
 21
141.137360
  0
LINE
  8
0
 10
31.365627
 20
149.537354
 11
32.465633
 21
149.537354
  0
LINE
  8
0
 10
33.965626
 20
151.037354
 11
33.965626
 21
141.237366
  0
LINE
  8
0
 10
32.465626
 20
149.537354
 11
32.465626
 21
146.837372
  0
LINE
  8
0
 10
38.265629
 20
151.037354
 11
38.265629
 21
141.237366
  0
LINE
  8
0
 10
39.565624
 20
151.137360
 11
41.165630
 21
151.137360
  0
LINE
  8
0
 10
39.565639
 20
141.137360
 11
41.165646
 21
141.137360
  0
LINE
  8
0
 10
33.965633
 20
141.237335
 11
38.265652
 21
141.237335
  0
LINE
  8
0
 10
31.365627
 20
142.737335
 11
32.465633
 21
142.737335
  0
LINE
  8
0
 10
38.265636
 20
149.387360
 11
39.565624
 21
149.387360
  0
LINE
  8
0
 10
38.265652
 20
142.887360
 11
39.565639
 21
142.887360
  0
LINE
  8
0
 10
32.465626
 20
145.437347
 11
32.465626
 21
142.737366
  0
LINE
  8
0
 10
33.965485
 20
151.037460
 11
32.465481
 21
149.537460
  0
LINE
  8
0
 10
33.965580
 20
141.237289
 11
32.465588
 21
142.737305
  0
LINE
  8
0
 10
22.565638
 20
139.637360
 11
30.365625
 21
139.637360
  0
LINE
  8
0
 10
29.715626
 20
141.137360
 11
29.715626
 21
139.637360
  0
LINE
  8
0
 10
23.215626
 20
141.137360
 11
23.215626
 21
139.637360
  0
LINE
  8
0
 10
30.365620
 20
139.637360
 11
30.365620
 21
139.237335
  0
LINE
  8
0
 10
22.565632
 20
139.637360
 11
22.565632
 21
139.237335
  0
LINE
  8
0
 10
31.084431
 20
153.780090
 11
31.084431
 21
150.137360
  0
LINE
  8
0
 10
28.775013
 20
153.780106
 11
28.775013
 21
150.137375
  0
LINE
  8
0
 10
24.156208
 20
153.780106
 11
24.156208
 21
150.137375
  0
LINE
  8
0
 10
21.846821
 20
153.780106
 11
21.846821
 21
150.137375
  0
LINE
  8
0
 10
28.965637
 20
166.637299
 11
23.965635
 21
166.637299
  0
LINE
  8
0
 10
23.965626
 20
166.637299
 11
23.965626
 21
162.637314
  0
LINE
  8
0
 10
28.965626
 20
166.637299
 11
28.965626
 21
162.637314
  0
LINE
  8
0
 10
28.965635
 20
162.637299
 11
23.965635
 21
162.637299
  0
LINE
  8
0
 10
30.465633
 20
154.937286
 11
22.465633
 21
154.937286
  0
LINE
  8
0
 10
22.465626
 20
157.437317
 11
22.465626
 21
154.937302
  0
LINE
  8
0
 10
30.465626
 20
157.437317
 11
30.465626
 21
154.937302
  0
LINE
  8
0
 10
23.965626
 20
154.937317
 11
23.965626
 21
154.137329
  0
LINE
  8
0
 10
28.965626
 20
154.937317
 11
28.965626
 21
154.137329
  0
LINE
  8
0
 10
27.965626
 20
162.637329
 11
27.965626
 21
157.437317
  0
LINE
  8
0
 10
24.965626
 20
162.637329
 11
24.965626
 21
157.437317
  0
LINE
  8
0
 62
     2
 10
25.236134
 20
162.637329
 11
25.236134
 21
157.437317
  0
LINE
  8
0
 62
     2
 10
27.695118
 20
162.637329
 11
27.695118
 21
157.437317
  0
LINE
  8
0
 10
29.929749
 20
154.137360
 11
23.001526
 21
154.137360
  0
LINE
  8
0
 10
30.465633
 20
157.437317
 11
22.465635
 21
157.437317
  0
LINE
  8
0
  6
CENTER
 62
     2
 10
79.054230
 20
66.737297
 11
72.896889
 21
66.737297
  0
LINE
  8
0
  6
CENTER
 62
     2
 10
76.065704
 20
63.556149
 11
76.065704
 21
69.713486
  0
LINE
  8
0
  6
CENTER
 62
     2
 10
76.065704
 20
134.918427
 11
76.065704
 21
128.761093
  0
LINE
  8
0
  6
CENTER
 62
     2
 10
79.054230
 20
131.737305
 11
72.896896
 21
131.737305
  0
LINE
  8
0
  6
CENTER
 62
     2
 10
8.077183
 20
131.737305
 11
14.234524
 21
131.737305
  0
LINE
  8
0
  6
CENTER
 62
     2
 10
11.065708
 20
134.918442
 11
11.065708
 21
128.761108
  0
LINE
  8
0
 10
-154.050430
 20
119.737320
 11
-154.050430
 21
139.237320
  0
LINE
  8
0
 10
-154.050674
 20
119.737541
 11
-154.250717
 21
119.537498
  0
LINE
  8
0
 10
-154.050461
 20
78.737259
 11
-154.250519
 21
78.937279
  0
LINE
  8
0
 10
-154.050430
 20
78.737320
 11
-154.050430
 21
75.637314
  0
LINE
  8
0
 10
-154.050491
 20
139.237259
 11
-160.350464
 21
139.237259
  0
LINE
  8
0
  6
CENTER
 62
     2
 10
-180.050430
 20
111.644989
 11
-180.050430
 21
118.307526
  0
LINE
  8
0
  6
CENTER
 62
     2
 10
-176.627991
 20
114.237267
 11
-182.955444
 21
114.237267
  0
LINE
  8
0
  6
CENTER
 62
     2
 10
-180.050430
 20
86.829651
 11
-180.050430
 21
81.622047
  0
LINE
  8
0
  6
CENTER
 62
     2
 10
-176.627991
 20
84.237274
 11
-182.955444
 21
84.237274
  0
LINE
  8
0
 10
-163.979752
 20
77.737267
 11
-171.121170
 21
77.737267
  0
LINE
  8
0
 10
-162.650436
 20
66.637314
 11
-162.650436
 21
67.237320
  0
LINE
  8
0
 10
-172.450424
 20
66.637314
 11
-172.450424
 21
75.637314
  0
LINE
  8
0
 10
-172.450455
 20
75.637260
 11
-162.650467
 21
75.637260
  0
LINE
  8
0
 10
-172.450455
 20
66.637268
 11
-162.650467
 21
66.637268
  0
LINE
  8
0
 10
-167.550491
 20
69.937248
 11
-160.050491
 21
69.937248
  0
LINE
  8
0
 10
-167.550491
 20
71.337242
 11
-160.050491
 21
71.337242
  0
LINE
  8
0
 10
-162.650620
 20
67.237251
 11
-163.950623
 21
69.937248
  0
LINE
  8
0
 10
-162.650391
 20
74.037354
 11
-163.950439
 21
71.337364
  0
LINE
  8
0
 10
-162.650436
 20
74.037308
 11
-162.650436
 21
75.637314
  0
LINE
  8
0
 10
-160.050491
 20
65.737274
 11
-155.750473
 21
65.737274
  0
LINE
  8
0
 10
-152.850449
 20
65.637314
 11
-152.850449
 21
75.637314
  0
LINE
  8
0
 10
-154.450424
 20
65.637314
 11
-154.450424
 21
75.637314
  0
LINE
  8
0
 10
-162.650467
 20
67.237274
 11
-161.550491
 21
67.237274
  0
LINE
  8
0
 10
-160.050430
 20
65.737320
 11
-160.050430
 21
75.537308
  0
LINE
  8
0
 10
-161.550430
 20
67.237320
 11
-161.550430
 21
69.937302
  0
LINE
  8
0
 10
-155.750412
 20
65.737320
 11
-155.750412
 21
75.537308
  0
LINE
  8
0
 10
-154.450485
 20
65.637268
 11
-152.850479
 21
65.637268
  0
LINE
  8
0
 10
-154.450485
 20
75.637260
 11
-152.850479
 21
75.637260
  0
LINE
  8
0
 10
-160.050491
 20
75.537254
 11
-155.750473
 21
75.537254
  0
LINE
  8
0
 10
-162.650467
 20
74.037254
 11
-161.550491
 21
74.037254
  0
LINE
  8
0
 10
-155.750473
 20
67.387260
 11
-154.450485
 21
67.387260
  0
LINE
  8
0
 10
-155.750473
 20
73.887260
 11
-154.450485
 21
73.887260
  0
LINE
  8
0
 10
-161.550430
 20
71.337296
 11
-161.550430
 21
74.037308
  0
LINE
  8
0
 10
-160.050659
 20
65.737129
 11
-161.550690
 21
67.237183
  0
LINE
  8
0
 10
-160.050842
 20
75.537743
 11
-161.550842
 21
74.037758
  0
LINE
  8
0
 10
-171.450455
 20
77.137260
 11
-163.650467
 21
77.137260
  0
LINE
  8
0
 10
-171.450455
 20
77.737267
 11
-163.650467
 21
77.737267
  0
LINE
  8
0
 10
-164.300430
 20
75.637314
 11
-164.300430
 21
77.137314
  0
LINE
  8
0
 10
-170.800430
 20
75.637314
 11
-170.800430
 21
77.137314
  0
LINE
  8
0
 10
-163.650436
 20
77.137314
 11
-163.650436
 21
77.737320
  0
LINE
  8
0
 10
-171.450424
 20
77.137314
 11
-171.450424
 21
77.737320
  0
LINE
  8
0
 10
-170.050446
 20
50.137272
 11
-165.050446
 21
50.137272
  0
LINE
  8
0
 10
-165.050430
 20
50.137299
 11
-165.050430
 21
54.137299
  0
LINE
  8
0
 10
-170.050430
 20
50.137299
 11
-170.050430
 21
54.137299
  0
LINE
  8
0
 10
-170.050446
 20
54.137268
 11
-165.050446
 21
54.137268
  0
LINE
  8
0
 10
-171.014603
 20
62.637268
 11
-164.086380
 21
62.637268
  0
LINE
  8
0
 10
-171.550446
 20
61.837280
 11
-163.550446
 21
61.837280
  0
LINE
  8
0
 10
-171.550446
 20
59.337280
 11
-163.550446
 21
59.337280
  0
LINE
  8
0
 10
-163.550430
 20
59.337311
 11
-163.550430
 21
61.837311
  0
LINE
  8
0
 10
-171.550430
 20
59.337311
 11
-171.550430
 21
61.837311
  0
LINE
  8
0
 10
-162.931625
 20
62.994583
 11
-162.931625
 21
66.637314
  0
LINE
  8
0
 10
-165.241043
 20
62.994583
 11
-165.241043
 21
66.637314
  0
LINE
  8
0
 10
-169.859848
 20
62.994583
 11
-169.859848
 21
66.637314
  0
LINE
  8
0
 10
-172.169235
 20
62.994583
 11
-172.169235
 21
66.637314
  0
LINE
  8
0
 10
-165.050430
 20
61.837326
 11
-165.050430
 21
62.637314
  0
LINE
  8
0
 10
-170.050430
 20
61.837326
 11
-170.050430
 21
62.637314
  0
LINE
  8
0
 10
-169.050430
 20
54.137329
 11
-169.050430
 21
59.337326
  0
LINE
  8
0
 10
-166.050430
 20
54.137329
 11
-166.050430
 21
59.337326
  0
LINE
  8
0
 62
     2
 10
-166.320938
 20
54.137329
 11
-166.320938
 21
59.337326
  0
LINE
  8
0
 62
     2
 10
-168.779922
 20
54.137329
 11
-168.779922
 21
59.337326
  0
LINE
  8
0
 10
-154.050430
 20
65.637314
 11
-154.050430
 21
59.237320
  0
LINE
  8
0
 10
-154.550430
 20
73.887314
 11
-154.550430
 21
139.037308
  0
LINE
  8
0
 10
-154.550491
 20
139.037247
 11
-159.050491
 21
139.037247
  0
LINE
  8
0
 10
-174.550430
 20
127.576614
 11
-174.550430
 21
126.737320
  0
LINE
  8
0
 10
-176.050491
 20
96.237267
 11
-184.050491
 21
96.237267
  0
LINE
  8
0
 10
-176.050491
 20
102.237267
 11
-184.050491
 21
102.237267
  0
LINE
  8
0
 10
-174.550430
 20
67.937332
 11
-174.550430
 21
130.737320
  0
LINE
  8
0
 10
-176.050430
 20
96.237320
 11
-176.050430
 21
102.237320
  0
LINE
  8
0
 10
-184.050430
 20
130.937347
 11
-184.050430
 21
137.173828
  0
LINE
  8
0
 10
-182.050430
 20
132.087341
 11
-182.050430
 21
131.387329
  0
LINE
  8
0
 10
-184.050430
 20
127.537323
 11
-184.050430
 21
123.237335
  0
LINE
  8
0
 10
-176.450455
 20
139.237259
 11
-180.550491
 21
139.237259
  0
LINE
  8
0
 10
-184.050430
 20
102.237335
 11
-184.050430
 21
122.237335
  0
LINE
  8
0
 10
-174.550491
 20
127.237259
 11
-176.461655
 21
127.237259
  0
LINE
  8
0
 10
-174.550430
 20
127.237320
 11
-174.550430
 21
126.237320
  0
LINE
  8
0
 10
-174.550491
 20
126.737259
 11
-175.550491
 21
126.737259
  0
LINE
  8
0
 10
-182.050491
 20
130.937271
 11
-184.050491
 21
130.937271
  0
LINE
  8
0
 10
-182.050491
 20
127.537247
 11
-184.050491
 21
127.537247
  0
LINE
  8
0
 10
-182.050430
 20
126.387360
 11
-182.050430
 21
127.537354
  0
LINE
  8
0
 10
-179.550491
 20
126.387253
 11
-182.050491
 21
126.387253
  0
LINE
  8
0
 10
-179.550430
 20
132.087311
 11
-179.550430
 21
126.387329
  0
LINE
  8
0
 10
-182.050430
 20
132.087341
 11
-182.050430
 21
130.937347
  0
LINE
  8
0
 10
-179.550491
 20
132.087265
 11
-182.050491
 21
132.087265
  0
LINE
  8
0
 10
-175.250412
 20
130.737320
 11
-175.250412
 21
133.437332
  0
LINE
  8
0
 10
-177.400436
 20
133.437347
 11
-177.400436
 21
135.937347
  0
LINE
  8
0
 10
-175.250473
 20
133.437271
 11
-177.400467
 21
133.437271
  0
LINE
  8
0
 10
-176.450424
 20
135.937347
 11
-176.450424
 21
139.237335
  0
LINE
  8
0
 10
-170.950424
 20
130.537308
 11
-170.950424
 21
139.037308
  0
LINE
  8
0
 10
-172.650436
 20
135.937332
 11
-172.650436
 21
139.237320
  0
LINE
  8
0
 10
-163.750473
 20
139.237259
 11
-172.650467
 21
139.237259
  0
LINE
  8
0
 10
-175.250412
 20
67.737320
 11
-175.250412
 21
65.037308
  0
LINE
  8
0
 10
-177.400436
 20
65.037323
 11
-177.400436
 21
62.537323
  0
LINE
  8
0
 10
-175.250473
 20
65.037262
 11
-177.400467
 21
65.037262
  0
LINE
  8
0
 10
-176.450455
 20
62.537262
 11
-177.400467
 21
62.537262
  0
LINE
  8
0
 10
-176.450424
 20
62.537323
 11
-176.450424
 21
59.237335
  0
LINE
  8
0
 10
-160.350449
 20
61.237320
 11
-160.350449
 21
59.237320
  0
LINE
  8
0
 10
-172.450455
 20
67.737267
 11
-175.250473
 21
67.737267
  0
LINE
  8
0
 10
-163.750473
 20
59.237274
 11
-166.050491
 21
59.237274
  0
LINE
  8
0
 10
-176.894791
 20
126.987389
 11
-178.915512
 21
123.487358
  0
LINE
  8
0
 10
-175.550430
 20
122.237320
 11
-175.550430
 21
126.737320
  0
LINE
  8
0
 10
-184.050430
 20
67.537323
 11
-184.050430
 21
61.300842
  0
LINE
  8
0
 10
-182.050430
 20
66.387329
 11
-182.050430
 21
67.087341
  0
LINE
  8
0
 10
-184.050430
 20
70.937347
 11
-184.050430
 21
75.237335
  0
LINE
  8
0
 10
-176.450455
 20
59.237274
 11
-180.550491
 21
59.237274
  0
LINE
  8
0
 10
-184.050430
 20
96.237335
 11
-184.050430
 21
76.237335
  0
LINE
  8
0
 10
-182.050491
 20
67.537254
 11
-184.050491
 21
67.537254
  0
LINE
  8
0
 10
-182.050491
 20
70.937279
 11
-184.050491
 21
70.937279
  0
LINE
  8
0
 10
-182.050430
 20
72.087311
 11
-182.050430
 21
70.937317
  0
LINE
  8
0
 10
-179.550491
 20
72.087273
 11
-182.050491
 21
72.087273
  0
LINE
  8
0
 10
-179.550430
 20
66.387360
 11
-179.550430
 21
72.087341
  0
LINE
  8
0
 10
-182.050430
 20
66.387329
 11
-182.050430
 21
67.537323
  0
LINE
  8
0
 10
-179.550491
 20
66.387268
 11
-182.050491
 21
66.387268
  0
LINE
  8
0
 10
-176.894485
 20
71.487427
 11
-178.915207
 21
74.987419
  0
LINE
  8
0
 10
-174.550491
 20
71.237267
 11
-176.461655
 21
71.237267
  0
LINE
  8
0
 10
-174.550491
 20
71.737267
 11
-175.550491
 21
71.737267
  0
LINE
  8
0
 10
-175.550430
 20
76.237320
 11
-175.550430
 21
71.737320
  0
LINE
  8
0
 10
-170.050446
 20
31.837013
 11
-165.050446
 21
31.837013
  0
LINE
  8
0
 10
-165.050430
 20
31.837036
 11
-165.050430
 21
35.837036
  0
LINE
  8
0
 10
-170.050430
 20
31.837036
 11
-170.050430
 21
35.837036
  0
LINE
  8
0
 10
-170.050446
 20
35.837009
 11
-165.050446
 21
35.837009
  0
LINE
  8
0
 10
-171.550430
 20
44.337009
 11
-163.550430
 21
44.337009
  0
LINE
  8
0
 10
-171.550446
 20
43.537022
 11
-163.550446
 21
43.537022
  0
LINE
  8
0
 10
-171.550446
 20
41.037022
 11
-163.550446
 21
41.037022
  0
LINE
  8
0
 10
-163.550430
 20
41.037048
 11
-163.550430
 21
43.537048
  0
LINE
  8
0
 10
-171.550430
 20
41.037048
 11
-171.550430
 21
43.537048
  0
LINE
  8
0
 10
-165.050430
 20
43.537140
 11
-165.050430
 21
44.337128
  0
LINE
  8
0
 10
-170.050430
 20
43.537140
 11
-170.050430
 21
44.337128
  0
LINE
  8
0
 10
-169.050430
 20
35.837128
 11
-169.050430
 21
41.037140
  0
LINE
  8
0
 10
-166.050430
 20
35.837128
 11
-166.050430
 21
41.037140
  0
LINE
  8
0
 62
     2
 10
-166.320938
 20
35.837128
 11
-166.320938
 21
41.037140
  0
LINE
  8
0
 62
     2
 10
-168.779922
 20
35.837128
 11
-168.779922
 21
41.037140
  0
LINE
  8
0
 10
-164.300430
 20
57.337112
 11
-164.300430
 21
59.237305
  0
LINE
  8
0
 10
-170.800430
 20
57.337112
 11
-170.800430
 21
59.237305
  0
LINE
  8
0
 10
-172.450424
 20
48.337009
 11
-170.550461
 21
48.337009
  0
LINE
  8
0
 10
-172.450424
 20
57.337006
 11
-169.050446
 21
57.337006
  0
LINE
  8
0
 10
-163.550430
 20
44.337128
 11
-163.550430
 21
48.337128
  0
LINE
  8
0
 10
-171.550430
 20
44.337128
 11
-171.550430
 21
48.337128
  0
LINE
  8
0
 10
-167.550430
 20
44.694366
 11
-167.550430
 21
47.337067
  0
LINE
  8
0
 10
-162.650436
 20
48.337128
 11
-162.650436
 21
51.342072
  0
LINE
  8
0
 10
-172.450424
 20
48.337128
 11
-172.450424
 21
51.342072
  0
LINE
  8
0
 10
-164.550461
 20
48.337009
 11
-162.650436
 21
48.337009
  0
LINE
  8
0
 10
-162.650436
 20
53.332092
 11
-162.650436
 21
57.337112
  0
LINE
  8
0
 10
-172.450424
 20
53.332092
 11
-172.450424
 21
57.337112
  0
LINE
  8
0
 10
-175.550491
 20
76.237267
 11
-184.050491
 21
76.237267
  0
LINE
  8
0
 10
-175.550491
 20
122.237259
 11
-184.050491
 21
122.237259
  0
LINE
  8
0
 10
-179.348404
 20
75.237267
 11
-184.050491
 21
75.237267
  0
LINE
  8
0
 10
-179.348404
 20
123.237259
 11
-184.050491
 21
123.237259
  0
LINE
  8
0
 10
-175.050430
 20
71.737320
 11
-175.050430
 21
126.737320
  0
LINE
  8
0
 10
-174.550491
 20
130.537247
 11
-170.950455
 21
130.537247
  0
LINE
  8
0
 10
-172.450455
 20
67.937279
 11
-174.550491
 21
67.937279
  0
LINE
  8
0
 10
-154.250412
 20
78.937332
 11
-154.250412
 21
119.537308
  0
LINE
  8
0
 10
-154.550430
 20
67.387314
 11
-154.550430
 21
59.437332
  0
LINE
  8
0
 10
-165.050430
 20
134.537308
 11
-165.050430
 21
139.037308
  0
LINE
  8
0
 10
-159.050491
 20
134.537247
 11
-165.050491
 21
134.537247
  0
LINE
  8
0
 10
-159.050430
 20
134.537308
 11
-159.050430
 21
139.037308
  0
LINE
  8
0
 10
-172.650467
 20
135.937271
 11
-170.950455
 21
135.937271
  0
LINE
  8
0
 10
-172.650436
 20
62.537308
 11
-172.650436
 21
59.237320
  0
LINE
  8
0
 10
-172.650467
 20
62.537262
 11
-170.950455
 21
62.537262
  0
LINE
  8
0
 10
-169.050491
 20
59.237274
 11
-172.650467
 21
59.237274
  0
LINE
  8
0
 10
-159.200455
 20
134.737259
 11
-164.900467
 21
134.737259
  0
LINE
  8
0
 10
-159.200424
 20
134.737320
 11
-159.200424
 21
137.237320
  0
LINE
  8
0
 10
-164.900436
 20
134.737320
 11
-164.900436
 21
137.237320
  0
LINE
  8
0
 10
-163.750473
 20
137.237259
 11
-164.900467
 21
137.237259
  0
LINE
  8
0
 10
-165.050491
 20
139.037247
 11
-170.950455
 21
139.037247
  0
LINE
  8
0
 10
-163.750412
 20
137.237320
 11
-163.750412
 21
139.237320
  0
LINE
  8
0
 10
-160.350449
 20
137.237320
 11
-160.350449
 21
139.237320
  0
LINE
  8
0
 10
-160.350479
 20
137.237259
 11
-159.200455
 21
137.237259
  0
LINE
  8
0
 10
-154.050491
 20
59.237274
 11
-160.350479
 21
59.237274
  0
LINE
  8
0
 10
-154.550491
 20
59.437286
 11
-159.050491
 21
59.437286
  0
LINE
  8
0
 10
-159.050430
 20
63.937332
 11
-159.050430
 21
59.437332
  0
LINE
  8
0
 10
-159.200424
 20
63.737320
 11
-159.200424
 21
61.237320
  0
LINE
  8
0
 10
-160.350479
 20
61.237274
 11
-159.200455
 21
61.237274
  0
LINE
  8
0
 10
-159.200455
 20
63.737274
 11
-162.931656
 21
63.737274
  0
LINE
  8
0
 10
-159.050491
 20
63.937286
 11
-162.931656
 21
63.937286
  0
LINE
  8
0
 10
-163.750412
 20
59.337311
 11
-163.750412
 21
59.237320
  0
LINE
  8
0
 10
-166.050446
 20
57.337006
 11
-162.650436
 21
57.337006
  0
LINE
  8
0
 10
-170.050446
 20
166.637543
 11
-165.050446
 21
166.637543
  0
LINE
  8
0
 10
-165.050430
 20
166.637558
 11
-165.050430
 21
162.637558
  0
LINE
  8
0
 10
-170.050430
 20
166.637558
 11
-170.050430
 21
162.637558
  0
LINE
  8
0
 10
-170.050446
 20
162.637527
 11
-165.050446
 21
162.637527
  0
LINE
  8
0
 10
-171.550430
 20
154.137527
 11
-163.550430
 21
154.137527
  0
LINE
  8
0
 10
-171.550446
 20
154.937515
 11
-163.550446
 21
154.937515
  0
LINE
  8
0
 10
-171.550446
 20
157.437515
 11
-163.550446
 21
157.437515
  0
LINE
  8
0
 10
-163.550430
 20
157.437546
 11
-163.550430
 21
154.937546
  0
LINE
  8
0
 10
-171.550430
 20
157.437546
 11
-171.550430
 21
154.937546
  0
LINE
  8
0
 10
-165.050430
 20
154.937531
 11
-165.050430
 21
154.137543
  0
LINE
  8
0
 10
-170.050430
 20
154.937531
 11
-170.050430
 21
154.137543
  0
LINE
  8
0
 10
-169.050430
 20
162.637543
 11
-169.050430
 21
157.437531
  0
LINE
  8
0
 10
-166.050430
 20
162.637543
 11
-166.050430
 21
157.437531
  0
LINE
  8
0
 62
     2
 10
-166.320938
 20
162.637543
 11
-166.320938
 21
157.437531
  0
LINE
  8
0
 62
     2
 10
-168.779922
 20
162.637543
 11
-168.779922
 21
157.437531
  0
LINE
  8
0
 10
-164.300430
 20
141.137527
 11
-164.300430
 21
139.237320
  0
LINE
  8
0
 10
-170.800430
 20
141.137527
 11
-170.800430
 21
139.237320
  0
LINE
  8
0
 10
-172.450424
 20
141.137527
 11
-162.650467
 21
141.137527
  0
LINE
  8
0
 10
-163.550430
 20
154.137543
 11
-163.550430
 21
150.137512
  0
LINE
  8
0
 10
-171.550430
 20
154.137543
 11
-171.550430
 21
150.137512
  0
LINE
  8
0
 10
-167.550430
 20
153.780273
 11
-167.550430
 21
150.137589
  0
LINE
  8
0
 10
-172.450455
 20
150.137527
 11
-162.650436
 21
150.137527
  0
LINE
  8
0
 10
-162.650436
 20
150.137589
 11
-162.650436
 21
141.137527
  0
LINE
  8
0
 10
-172.450424
 20
150.137589
 11
-172.450424
 21
141.137527
  0
LINE
  8
0
 10
-167.550446
 20
112.618492
 11
-163.550446
 21
114.927895
  0
LINE
  8
0
 10
-171.550476
 20
114.927948
 11
-167.550446
 21
112.618530
  0
LINE
  8
0
 10
-171.550430
 20
119.546707
 11
-171.550430
 21
114.927933
  0
LINE
  8
0
 10
-171.550400
 20
119.546768
 11
-167.550385
 21
121.856178
  0
LINE
  8
0
 10
-167.550491
 20
121.856056
 11
-163.550507
 21
119.546677
  0
LINE
  8
0
 10
-163.550430
 20
119.546707
 11
-163.550430
 21
114.927933
  0
LINE
  8
0
 10
-172.532150
 20
80.809761
 11
-173.152725
 21
80.755447
  0
LINE
  8
0
 10
-172.532150
 20
81.664436
 11
-173.152771
 21
81.718727
  0
LINE
  8
0
  6
CENTER
 62
     2
 10
-151.029327
 20
99.237274
 11
-187.082138
 21
99.237274
  0
LINE
  8
0
 62
     4
 10
-171.950424
 20
63.137222
 11
-171.950424
 21
62.537216
  0
LINE
  8
0
 62
     4
 10
-177.150467
 20
63.137283
 11
-175.550491
 21
63.137283
  0
LINE
  8
0
 62
     4
 10
-177.150436
 20
63.137207
 11
-177.150436
 21
62.537201
  0
LINE
  8
0
 62
     4
 10
-172.450424
 20
67.737289
 11
-175.050430
 21
67.737289
  0
LINE
  8
0
 62
     4
 10
-176.150467
 20
61.937302
 11
-175.550491
 21
61.937302
  0
LINE
  8
0
 62
     4
 10
-176.150436
 20
62.237228
 11
-176.150436
 21
61.937241
  0
LINE
  8
0
 62
     4
 10
-172.950424
 20
62.237228
 11
-172.950424
 21
61.937241
  0
LINE
  8
0
 62
     4
 10
-172.950455
 20
61.937302
 11
-173.550491
 21
61.937302
  0
LINE
  8
0
 62
     4
 10
-171.950455
 20
63.137283
 11
-173.550491
 21
63.137283
  0
LINE
  8
0
 62
     4
 10
-174.250412
 20
61.137222
 11
-174.250412
 21
60.462021
  0
LINE
  8
0
 62
     4
 10
-176.450455
 20
62.537277
 11
-177.400467
 21
62.537277
  0
LINE
  8
0
 62
     4
 10
-176.300491
 20
61.737289
 11
-172.800491
 21
61.737289
  0
LINE
  8
0
 62
     4
 10
-174.850449
 20
61.137222
 11
-174.850449
 21
60.462021
  0
LINE
  8
0
 62
     4
 10
-175.050430
 20
67.737228
 11
-175.050430
 21
63.737228
  0
LINE
  8
0
 62
     4
 10
-175.550491
 20
63.737289
 11
-172.169235
 21
63.737289
  0
LINE
  8
0
 62
     4
 10
-173.550430
 20
63.737228
 11
-173.550430
 21
61.737228
  0
LINE
  8
0
 62
     4
 10
-175.550430
 20
63.737228
 11
-175.550430
 21
61.737228
  0
LINE
  8
0
 62
     4
 10
-174.850479
 20
61.137283
 11
-174.250473
 21
61.137283
  0
LINE
  8
0
 10
-177.400436
 20
135.937347
 11
-176.450424
 21
135.937347
  0
LINE
  8
0
 10
-175.250412
 20
130.737320
 11
-170.950424
 21
130.737320
  0
LINE
  8
0
 10
-170.950424
 20
62.637268
 11
-170.950424
 21
61.837280
  0
LINE
  8
0
 10
-62.934250
 20
-10.662653
 11
-62.934250
 21
1.337358
  0
LINE
  8
0
 10
-62.134247
 20
1.337336
 11
-62.934250
 21
1.337336
  0
LINE
  8
0
 10
-56.434250
 20
8.837309
 11
143.565720
 21
8.837309
  0
LINE
  8
0
 10
-56.434258
 20
-21.162687
 11
143.565704
 21
-21.162687
  0
LINE
  8
0
 10
-56.434250
 20
2.537317
 11
143.565720
 21
2.537317
  0
LINE
  8
0
 10
-56.434250
 20
8.837337
 11
-56.434250
 21
-9.762657
  0
LINE
  8
0
 10
-62.134247
 20
8.337309
 11
-56.434250
 21
8.337309
  0
LINE
  8
0
 10
62.974991
 20
-0.662734
 11
65.284378
 21
-4.662646
  0
LINE
  8
0
 10
56.046650
 20
-4.662805
 11
58.356037
 21
-8.662777
  0
LINE
  8
0
 10
62.975067
 20
-8.662634
 11
58.356258
 21
-8.662634
  0
LINE
  8
0
 10
62.975098
 20
-0.662636
 11
58.356293
 21
-0.662636
  0
LINE
  8
0
 10
65.284416
 20
-4.662667
 11
62.975052
 21
-8.662623
  0
LINE
  8
0
 10
58.356243
 20
-0.662615
 11
56.046837
 21
-4.662619
  0
LINE
  8
0
 10
60.665680
 20
-9.562597
 11
48.865673
 21
-9.562597
  0
LINE
  8
0
 10
45.965683
 20
-9.662664
 11
45.965683
 21
0.337336
  0
LINE
  8
0
 10
47.565689
 20
-9.662664
 11
47.565689
 21
0.337335
  0
LINE
  8
0
 10
57.137234
 20
-8.062599
 11
54.665676
 21
-8.062599
  0
LINE
  8
0
 10
53.165680
 20
-9.562632
 11
53.165680
 21
0.237356
  0
LINE
  8
0
 10
54.665680
 20
-8.062632
 11
54.665680
 21
-1.262644
  0
LINE
  8
0
 10
48.865677
 20
-9.562628
 11
48.865677
 21
0.237359
  0
LINE
  8
0
 10
47.565685
 20
-9.662634
 11
45.965679
 21
-9.662634
  0
LINE
  8
0
 10
47.565689
 20
0.337366
 11
45.965683
 21
0.337366
  0
LINE
  8
0
 10
60.665680
 20
0.237391
 11
48.865677
 21
0.237391
  0
LINE
  8
0
 10
57.137238
 20
-1.262611
 11
54.665680
 21
-1.262611
  0
LINE
  8
0
 10
48.865673
 20
-7.912636
 11
47.565685
 21
-7.912636
  0
LINE
  8
0
 10
48.865677
 20
-1.412636
 11
47.565689
 21
-1.412636
  0
LINE
  8
0
 10
53.165955
 20
-9.562923
 11
54.665974
 21
-8.062901
  0
LINE
  8
0
 10
53.165520
 20
0.237133
 11
54.665512
 21
-1.262863
  0
LINE
  8
0
 10
-73.034225
 20
-2.162680
 11
-80.034225
 21
-2.162680
  0
LINE
  8
0
 10
-72.634262
 20
-7.162680
 11
-80.034225
 21
-7.162680
  0
LINE
  8
0
 10
-80.034225
 20
-2.162661
 11
-80.034225
 21
-7.162661
  0
LINE
  8
0
 62
     2
 10
-72.650864
 20
-6.562681
 11
-80.034225
 21
-6.562681
  0
LINE
  8
0
 62
     2
 10
-73.034225
 20
-2.762678
 11
-80.034225
 21
-2.762678
  0
LINE
  8
0
 10
-62.934250
 20
0.337336
 11
-63.234238
 21
0.337336
  0
LINE
  8
0
 10
-72.634262
 20
-6.601721
 11
-72.634262
 21
-9.662649
  0
LINE
  8
0
 10
-56.434250
 20
-0.862688
 11
45.965683
 21
-0.862688
  0
LINE
  8
0
 10
-56.434250
 20
6.837309
 11
143.565720
 21
6.837309
  0
LINE
  8
0
 10
-62.134247
 20
8.337338
 11
-62.134247
 21
-11.662664
  0
LINE
  8
0
 62
     4
 10
-23.934250
 20
-11.894718
 11
-23.934250
 21
-9.762663
  0
LINE
  8
0
 62
     4
 10
-24.934250
 20
-12.162687
 11
-33.887466
 21
-12.162687
  0
LINE
  8
0
 62
     4
 10
-49.934250
 20
-9.762659
 11
-49.934250
 21
-12.162659
  0
LINE
  8
0
 62
     4
 10
-49.934250
 20
-11.662687
 11
-57.846352
 21
-11.662687
  0
LINE
  8
0
 62
     4
 10
-56.434250
 20
-8.662687
 11
-57.042496
 21
-8.662687
  0
LINE
  8
0
 62
     4
 10
-38.887466
 20
-9.762659
 11
-38.887466
 21
-13.562660
  0
LINE
  8
0
 62
     4
 10
-33.887466
 20
-9.762661
 11
-33.887466
 21
-13.562662
  0
LINE
  8
0
 62
     4
 10
-38.887466
 20
-12.162687
 11
-49.934250
 21
-12.162687
  0
LINE
  8
0
 62
     4
 10
-24.934250
 20
-12.162663
 11
-24.934250
 21
-9.762663
  0
LINE
  8
0
 62
     4
 10
-23.934299
 20
-11.894670
 11
-24.934278
 21
-12.162619
  0
LINE
  8
0
 10
-56.434250
 20
-13.562685
 11
143.565720
 21
-13.562685
  0
LINE
  8
0
 10
-33.887466
 20
-12.362688
 11
143.565720
 21
-12.362688
  0
LINE
  8
0
 10
-56.434250
 20
-12.362688
 11
-38.887466
 21
-12.362688
  0
LINE
  8
0
 10
-56.434250
 20
-8.062681
 11
-62.134247
 21
-8.062681
  0
LINE
  8
0
 10
-56.434250
 20
-2.162680
 11
-62.134247
 21
-2.162680
  0
LINE
  8
0
 10
-56.434250
 20
3.837320
 11
-62.134247
 21
3.837320
  0
LINE
  8
0
 62
     4
 10
-57.846310
 20
-11.662685
 11
-57.042458
 21
-8.662688
  0
LINE
  8
0
 10
-56.434250
 20
-11.662659
 11
-56.434250
 21
-21.162664
  0
LINE
  8
0
  6
CENTER
 62
     2
 10
43.565704
 20
12.131105
 11
43.565704
 21
-24.269491
  0
LINE
  8
0
 10
143.565659
 20
-9.762686
 11
-56.434250
 21
-9.762686
  0
LINE
  8
0
 10
150.065659
 20
0.337319
 11
150.065659
 21
1.337325
  0
LINE
  8
0
 10
149.265656
 20
1.337336
 11
150.065659
 21
1.337336
  0
LINE
  8
0
 10
143.565659
 20
8.837307
 11
143.565659
 21
-21.162703
  0
LINE
  8
0
 10
149.265656
 20
8.337309
 11
143.565659
 21
8.337309
  0
LINE
  8
0
 10
160.165619
 20
-2.162697
 11
160.165619
 21
7.137323
  0
LINE
  8
0
 10
160.265656
 20
10.037319
 11
150.265671
 21
10.037319
  0
LINE
  8
0
 10
160.265656
 20
8.437315
 11
150.265671
 21
8.437315
  0
LINE
  8
0
 10
158.665619
 20
0.337303
 11
158.665619
 21
1.337317
  0
LINE
  8
0
 10
160.165619
 20
2.837320
 11
150.365646
 21
2.837320
  0
LINE
  8
0
 10
158.665619
 20
1.337320
 11
151.865646
 21
1.337320
  0
LINE
  8
0
 10
160.165619
 20
7.137327
 11
150.365646
 21
7.137327
  0
LINE
  8
0
 10
160.265656
 20
8.437311
 11
160.265656
 21
10.037317
  0
LINE
  8
0
 10
150.265671
 20
8.437312
 11
150.265671
 21
10.037318
  0
LINE
  8
0
 10
150.365646
 20
-0.662683
 11
150.365646
 21
7.137324
  0
LINE
  8
0
 10
151.865646
 20
0.337304
 11
151.865646
 21
1.337317
  0
LINE
  8
0
 10
158.515656
 20
7.137323
 11
158.515656
 21
8.437311
  0
LINE
  8
0
 10
152.015671
 20
7.137324
 11
152.015671
 21
8.437312
  0
LINE
  8
0
 10
160.165909
 20
2.837045
 11
158.665894
 21
1.337036
  0
LINE
  8
0
 10
150.366028
 20
2.837638
 11
151.866028
 21
1.337641
  0
LINE
  8
0
 10
153.265732
 20
-2.162680
 11
167.165619
 21
-2.162680
  0
LINE
  8
0
 10
153.265732
 20
-7.162680
 11
167.165619
 21
-7.162680
  0
LINE
  8
0
 10
167.165619
 20
-2.162699
 11
167.165619
 21
-7.162699
  0
LINE
  8
0
 62
     2
 10
153.265732
 20
-6.562681
 11
167.165619
 21
-6.562681
  0
LINE
  8
0
 62
     2
 10
153.265732
 20
-2.762678
 11
167.165619
 21
-2.762678
  0
LINE
  8
0
 10
150.065659
 20
0.337336
 11
150.365646
 21
0.337336
  0
LINE
  8
0
 10
143.565659
 20
-0.862688
 11
63.759247
 21
-0.862688
  0
LINE
  8
0
 10
143.565659
 20
-11.662680
 11
149.265656
 21
-11.662680
  0
LINE
  8
0
 10
149.265656
 20
8.337306
 11
149.265656
 21
-11.662695
  0
LINE
  8
0
 10
143.565659
 20
-8.062681
 11
149.265656
 21
-8.062681
  0
LINE
  8
0
 10
143.565659
 20
-2.162680
 11
149.265656
 21
-2.162680
  0
LINE
  8
0
 10
143.565659
 20
3.837320
 11
149.265656
 21
3.837320
  0
LINE
  8
0
 10
149.265656
 20
-8.662666
 11
153.265732
 21
-8.662666
  0
LINE
  8
0
 10
149.265656
 20
-0.662666
 11
153.265732
 21
-0.662666
  0
LINE
  8
0
 10
153.265732
 20
-8.662683
 11
153.265732
 21
-0.662683
  0
LINE
  8
0
 10
152.908463
 20
-4.662666
 11
149.265656
 21
-4.662666
  0
LINE
  8
0
 10
-68.134460
 20
-0.043590
 11
-72.134422
 21
-2.352971
  0
LINE
  8
0
 10
-72.134262
 20
-6.972036
 11
-72.134262
 21
-2.353231
  0
LINE
  8
0
 10
-64.134262
 20
-6.972068
 11
-64.134262
 21
-2.353263
  0
LINE
  8
0
 10
-68.134232
 20
-9.281360
 11
-72.134171
 21
-6.972005
  0
LINE
  8
0
 10
-64.134171
 20
-2.353187
 11
-68.134178
 21
-0.043783
  0
LINE
  8
0
 10
-73.034225
 20
-4.662649
 11
-73.034225
 21
7.137358
  0
LINE
  8
0
 10
-73.134262
 20
10.037319
 11
-63.134262
 21
10.037319
  0
LINE
  8
0
 10
-73.134262
 20
8.437315
 11
-63.134262
 21
8.437315
  0
LINE
  8
0
 10
-71.534225
 20
-1.134207
 11
-71.534225
 21
1.337351
  0
LINE
  8
0
 10
-73.034225
 20
2.837320
 11
-63.234238
 21
2.837320
  0
LINE
  8
0
 10
-71.534225
 20
1.337320
 11
-64.734238
 21
1.337320
  0
LINE
  8
0
 10
-73.034225
 20
7.137327
 11
-63.234238
 21
7.137327
  0
LINE
  8
0
 10
-73.134262
 20
8.437346
 11
-73.134262
 21
10.037352
  0
LINE
  8
0
 10
-63.134262
 20
8.437345
 11
-63.134262
 21
10.037351
  0
LINE
  8
0
 10
-63.234238
 20
-4.662650
 11
-63.234238
 21
7.137357
  0
LINE
  8
0
 10
-64.734238
 20
-1.134208
 11
-64.734238
 21
1.337350
  0
LINE
  8
0
 10
-71.384262
 20
7.137358
 11
-71.384262
 21
8.437346
  0
LINE
  8
0
 10
-64.884262
 20
7.137357
 11
-64.884262
 21
8.437345
  0
LINE
  8
0
 10
-73.034523
 20
2.837099
 11
-71.534508
 21
1.337090
  0
LINE
  8
0
 10
-63.234524
 20
2.837565
 11
-64.734535
 21
1.337571
  0
LINE
  8
0
 10
-68.134224
 20
-9.281455
 11
-64.134293
 21
-6.972103
  0
LINE
  8
0
 62
     4
 10
-35.538960
 20
-10.814126
 11
-37.236012
 21
-12.511177
  0
LINE
  8
0
 62
     4
 10
-35.538960
 20
-12.511198
 11
-37.236015
 21
-10.814140
  0
LINE
  8
0
  6
CENTER
 62
     2
 10
11.065704
 20
12.131110
 11
11.065704
 21
-24.269487
  0
LINE
  8
0
  6
CENTER
 62
     2
 10
76.065704
 20
12.131101
 11
76.065704
 21
-24.269495
  0
LINE
  8
0
 10
-62.934250
 20
-9.662666
 11
-72.634262
 21
-9.662666
  0
LINE
  8
0
 10
-57.846352
 20
-11.662680
 11
-62.134247
 21
-11.662680
  0
LINE
  8
0
 10
-62.134247
 20
-10.662668
 11
-62.934250
 21
-10.662668
  0
LINE
  8
0
 10
150.365646
 20
0.337320
 11
160.165619
 21
0.337320
  0
LINE
  8
0
  6
CENTER
 62
     2
 10
-66.493729
 20
-114.762711
 11
154.813919
 21
-114.762711
  0
LINE
  8
0
 10
-56.434441
 20
-154.762726
 11
143.565643
 21
-154.762726
  0
LINE
  8
0
 10
-56.434425
 20
-74.762711
 11
143.565674
 21
-74.762711
  0
LINE
  8
0
 10
56.165619
 20
-93.262711
 11
56.165619
 21
-101.762711
  0
LINE
  8
0
 10
66.065628
 20
-101.762711
 11
56.165619
 21
-101.762711
  0
LINE
  8
0
 10
64.765610
 20
-93.262711
 11
56.165638
 21
-93.262711
  0
LINE
  8
0
 10
66.065628
 20
-91.762711
 11
64.765625
 21
-91.762711
  0
LINE
  8
0
 10
76.565659
 20
-110.262711
 11
101.665657
 21
-110.262711
  0
LINE
  8
0
 10
76.565659
 20
-119.262711
 11
101.665657
 21
-119.262711
  0
LINE
  8
0
 10
143.565674
 20
-74.962723
 11
149.265686
 21
-74.962723
  0
LINE
  8
0
 10
143.565674
 20
-154.562775
 11
149.265656
 21
-154.562775
  0
LINE
  8
0
 10
74.665634
 20
-100.762711
 11
101.665665
 21
-100.762711
  0
LINE
  8
0
 10
72.765640
 20
-91.762711
 11
73.165634
 21
-91.762711
  0
LINE
  8
0
 10
73.165619
 20
-90.762711
 11
73.165619
 21
-102.762718
  0
LINE
  8
0
 10
74.665619
 20
-90.762711
 11
74.665619
 21
-102.762718
  0
LINE
  8
0
 10
72.765640
 20
-101.762711
 11
73.165634
 21
-101.762711
  0
LINE
  8
0
 10
73.165634
 20
-90.762711
 11
74.665634
 21
-90.762711
  0
LINE
  8
0
 10
73.165634
 20
-102.762711
 11
74.665634
 21
-102.762711
  0
LINE
  8
0
 10
72.765625
 20
-138.762726
 11
72.765625
 21
-90.762711
  0
LINE
  8
0
 10
64.765594
 20
-91.762711
 11
64.765594
 21
-93.262711
  0
LINE
  8
0
 10
67.065628
 20
-104.262711
 11
67.065628
 21
-90.762711
  0
LINE
  8
0
 10
74.665634
 20
-92.762711
 11
101.665665
 21
-92.762711
  0
LINE
  8
0
 10
66.065628
 20
-102.762711
 11
66.065628
 21
-90.762711
  0
LINE
  8
0
 62
     2
 10
74.165680
 20
-130.762711
 11
72.765625
 21
-130.762711
  0
LINE
  8
0
 62
     2
 10
74.165672
 20
-134.762726
 11
72.765617
 21
-134.762726
  0
LINE
  8
0
 10
142.165619
 20
-99.512711
 11
140.665649
 21
-99.512711
  0
LINE
  8
0
 10
142.165604
 20
-99.512787
 11
142.165604
 21
-94.012787
  0
LINE
  8
0
 10
142.165619
 20
-94.012711
 11
140.665649
 21
-94.012711
  0
LINE
  8
0
 10
72.765625
 20
-130.262711
 11
74.165680
 21
-130.262711
  0
LINE
  8
0
 10
72.765617
 20
-135.262726
 11
74.165672
 21
-135.262726
  0
LINE
  8
0
 10
49.165615
 20
-130.262711
 11
58.765656
 21
-130.262711
  0
LINE
  8
0
 62
     2
 10
49.165623
 20
-130.862686
 11
58.765652
 21
-130.862686
  0
LINE
  8
0
 10
49.165615
 20
-135.262726
 11
58.765652
 21
-135.262726
  0
LINE
  8
0
 62
     2
 10
49.165615
 20
-134.662689
 11
58.765652
 21
-134.662689
  0
LINE
  8
0
 10
49.165619
 20
-130.262711
 11
49.165619
 21
-135.262726
  0
LINE
  8
0
 10
67.065659
 20
-102.762711
 11
66.065659
 21
-102.762711
  0
LINE
  8
0
 10
67.065659
 20
-90.762711
 11
66.065659
 21
-90.762711
  0
LINE
  8
0
 10
149.265640
 20
-74.962799
 11
149.265640
 21
-154.562775
  0
LINE
  8
0
 10
160.165649
 20
-136.262802
 11
160.165649
 21
-127.762726
  0
LINE
  8
0
 10
150.265640
 20
-127.762711
 11
160.165649
 21
-127.762711
  0
LINE
  8
0
 10
158.165649
 20
-163.862701
 11
153.165619
 21
-163.862701
  0
LINE
  8
0
 10
153.165634
 20
-163.862701
 11
153.165634
 21
-159.862701
  0
LINE
  8
0
 10
158.165649
 20
-163.862717
 11
158.165649
 21
-159.862717
  0
LINE
  8
0
 10
158.165649
 20
-159.862701
 11
153.165619
 21
-159.862701
  0
LINE
  8
0
 10
159.565689
 20
-136.862701
 11
151.765701
 21
-136.862701
  0
LINE
  8
0
 10
159.665680
 20
-151.362701
 11
151.665680
 21
-151.362701
  0
LINE
  8
0
 10
159.665649
 20
-152.162750
 11
151.665619
 21
-152.162750
  0
LINE
  8
0
 10
159.665649
 20
-154.662750
 11
151.665619
 21
-154.662750
  0
LINE
  8
0
 10
151.665634
 20
-154.662750
 11
151.665634
 21
-152.162750
  0
LINE
  8
0
 10
159.665649
 20
-154.662766
 11
159.665649
 21
-152.162766
  0
LINE
  8
0
 10
153.165634
 20
-152.162750
 11
153.165634
 21
-151.362823
  0
LINE
  8
0
 10
158.165649
 20
-152.162766
 11
158.165649
 21
-151.362839
  0
LINE
  8
0
 10
157.165649
 20
-159.862823
 11
157.165649
 21
-154.662750
  0
LINE
  8
0
 10
154.165634
 20
-159.862823
 11
154.165634
 21
-154.662750
  0
LINE
  8
0
 62
     2
 10
154.436142
 20
-159.862823
 11
154.436142
 21
-154.662750
  0
LINE
  8
0
 62
     2
 10
156.895142
 20
-159.862823
 11
156.895142
 21
-154.662750
  0
LINE
  8
0
 10
152.415634
 20
-138.362778
 11
152.415634
 21
-136.862778
  0
LINE
  8
0
 10
158.915649
 20
-138.362778
 11
158.915649
 21
-136.862778
  0
LINE
  8
0
 10
151.765671
 20
-136.862778
 11
151.765671
 21
-136.262802
  0
LINE
  8
0
 10
159.565674
 20
-136.862778
 11
159.565674
 21
-136.262802
  0
LINE
  8
0
 10
160.565674
 20
-147.362701
 11
157.845123
 21
-147.362701
  0
LINE
  8
0
 10
160.565689
 20
-138.362701
 11
157.845123
 21
-138.362701
  0
LINE
  8
0
 10
151.665634
 20
-151.362823
 11
151.665634
 21
-147.362762
  0
LINE
  8
0
 10
159.665649
 20
-151.362839
 11
159.665649
 21
-147.362778
  0
LINE
  8
0
 10
155.665634
 20
-151.005524
 11
155.665634
 21
-147.862701
  0
LINE
  8
0
 10
150.765671
 20
-147.362762
 11
150.765671
 21
-143.857666
  0
LINE
  8
0
 10
160.565674
 20
-147.362778
 11
160.565674
 21
-143.857681
  0
LINE
  8
0
 10
150.265640
 20
-137.762726
 11
151.565674
 21
-137.762726
  0
LINE
  8
0
 10
141.665680
 20
-128.762711
 11
140.665649
 21
-128.762711
  0
LINE
  8
0
 10
143.565659
 20
-137.762726
 11
143.165680
 21
-137.762726
  0
LINE
  8
0
 10
143.565659
 20
-127.762711
 11
143.165680
 21
-127.762711
  0
LINE
  8
0
 10
143.165680
 20
-138.762726
 11
141.665680
 21
-138.762726
  0
LINE
  8
0
 10
143.165680
 20
-126.762711
 11
141.665680
 21
-126.762711
  0
LINE
  8
0
 10
143.165649
 20
-126.762787
 11
143.165649
 21
-138.762787
  0
LINE
  8
0
 10
141.665649
 20
-126.762787
 11
141.665649
 21
-138.762787
  0
LINE
  8
0
 10
151.565659
 20
-137.762802
 11
151.565659
 21
-136.262802
  0
LINE
  8
0
 10
141.665680
 20
-136.762726
 11
140.665649
 21
-136.762726
  0
LINE
  8
0
 10
140.665634
 20
-138.762787
 11
140.665634
 21
-90.762787
  0
LINE
  8
0
 10
101.665642
 20
-90.762779
 11
101.665642
 21
-138.762787
  0
LINE
  8
0
 10
150.265640
 20
-126.762787
 11
150.265640
 21
-138.762787
  0
LINE
  8
0
 62
     2
 10
142.165619
 20
-98.762711
 11
143.565659
 21
-98.762711
  0
LINE
  8
0
 62
     2
 10
142.165619
 20
-94.762711
 11
143.565674
 21
-94.762711
  0
LINE
  8
0
 10
100.165680
 20
-130.012711
 11
101.665649
 21
-130.012711
  0
LINE
  8
0
 10
100.165672
 20
-130.012787
 11
100.165672
 21
-135.512787
  0
LINE
  8
0
 10
100.165680
 20
-135.512726
 11
101.665649
 21
-135.512726
  0
LINE
  8
0
 10
143.565659
 20
-99.262711
 11
142.165619
 21
-99.262711
  0
LINE
  8
0
 10
143.565659
 20
-94.262711
 11
142.165619
 21
-94.262711
  0
LINE
  8
0
 10
143.565659
 20
-154.762787
 11
143.565659
 21
-74.762787
  0
LINE
  8
0
 10
167.165649
 20
-99.262711
 11
153.265671
 21
-99.262711
  0
LINE
  8
0
 62
     2
 10
167.165665
 20
-98.662735
 11
153.265671
 21
-98.662735
  0
LINE
  8
0
 10
152.908401
 20
-94.453384
 11
149.265671
 21
-94.453384
  0
LINE
  8
0
 10
167.165649
 20
-94.262711
 11
153.265671
 21
-94.262711
  0
LINE
  8
0
 62
     2
 10
167.165665
 20
-94.862747
 11
153.265671
 21
-94.862747
  0
LINE
  8
0
 10
153.265671
 20
-100.762787
 11
153.265671
 21
-92.762604
  0
LINE
  8
0
 10
167.165649
 20
-99.262726
 11
167.165649
 21
-94.262726
  0
LINE
  8
0
 10
152.908401
 20
-101.381546
 11
149.265671
 21
-101.381546
  0
LINE
  8
0
 10
153.265564
 20
-100.762772
 11
152.908295
 21
-101.381584
  0
LINE
  8
0
 10
152.908401
 20
-99.072159
 11
149.265671
 21
-99.072159
  0
LINE
  8
0
 10
152.908401
 20
-92.143936
 11
149.265671
 21
-92.143936
  0
LINE
  8
0
 10
153.265808
 20
-92.762642
 11
152.908524
 21
-92.143852
  0
LINE
  8
0
 10
151.565674
 20
-136.262726
 11
160.165695
 21
-136.262726
  0
LINE
  8
0
 10
149.265656
 20
-126.762711
 11
150.265656
 21
-126.762711
  0
LINE
  8
0
 10
149.265656
 20
-138.762726
 11
150.265656
 21
-138.762726
  0
LINE
  8
0
 10
74.165665
 20
-130.262772
 11
74.165665
 21
-135.262787
  0
LINE
  8
0
 10
67.065643
 20
-104.262711
 11
62.765640
 21
-104.262711
  0
LINE
  8
0
 10
62.765625
 20
-138.762726
 11
62.765625
 21
-104.262711
  0
LINE
  8
0
 10
55.765625
 20
-63.862747
 11
55.765625
 21
-64.462784
  0
LINE
  8
0
 10
65.565613
 20
-63.862751
 11
65.565613
 21
-72.862747
  0
LINE
  8
0
 10
65.565643
 20
-72.862686
 11
55.765656
 21
-72.862686
  0
LINE
  8
0
 10
65.565643
 20
-63.862686
 11
55.765656
 21
-63.862686
  0
LINE
  8
0
 10
60.665649
 20
-67.162735
 11
53.165649
 21
-67.162735
  0
LINE
  8
0
 10
60.665649
 20
-68.562759
 11
53.165649
 21
-68.562759
  0
LINE
  8
0
 10
55.765663
 20
-64.462685
 11
57.065662
 21
-67.162659
  0
LINE
  8
0
 10
55.765602
 20
-71.262741
 11
57.065617
 21
-68.562706
  0
LINE
  8
0
 10
55.765625
 20
-71.262711
 11
55.765625
 21
-72.862747
  0
LINE
  8
0
 10
53.165649
 20
-62.962723
 11
48.865646
 21
-62.962723
  0
LINE
  8
0
 10
45.965622
 20
-62.862747
 11
45.965622
 21
-72.862747
  0
LINE
  8
0
 10
47.565628
 20
-62.862747
 11
47.565628
 21
-72.862747
  0
LINE
  8
0
 10
55.765656
 20
-64.462723
 11
54.665649
 21
-64.462723
  0
LINE
  8
0
 10
53.165619
 20
-62.962784
 11
53.165619
 21
-72.762711
  0
LINE
  8
0
 10
54.665619
 20
-64.462784
 11
54.665619
 21
-67.162735
  0
LINE
  8
0
 10
48.865616
 20
-62.962784
 11
48.865616
 21
-72.762711
  0
LINE
  8
0
 10
47.565659
 20
-62.862686
 11
45.965652
 21
-62.862686
  0
LINE
  8
0
 10
47.565643
 20
-72.862686
 11
45.965637
 21
-72.862686
  0
LINE
  8
0
 10
53.165649
 20
-72.762711
 11
48.865631
 21
-72.762711
  0
LINE
  8
0
 10
55.765656
 20
-71.262711
 11
54.665649
 21
-71.262711
  0
LINE
  8
0
 10
48.865646
 20
-64.612686
 11
47.565659
 21
-64.612686
  0
LINE
  8
0
 10
48.865631
 20
-71.112686
 11
47.565643
 21
-71.112686
  0
LINE
  8
0
 10
54.665619
 20
-68.562759
 11
54.665619
 21
-71.262711
  0
LINE
  8
0
 10
53.165760
 20
-62.962620
 11
54.665779
 21
-64.462624
  0
LINE
  8
0
 10
53.165592
 20
-72.762726
 11
54.665600
 21
-71.262703
  0
LINE
  8
0
 10
64.565643
 20
-74.362686
 11
56.765656
 21
-74.362686
  0
LINE
  8
0
 10
57.415619
 20
-72.862747
 11
57.415619
 21
-74.362747
  0
LINE
  8
0
 10
63.915619
 20
-72.862747
 11
63.915619
 21
-74.362747
  0
LINE
  8
0
 10
56.765625
 20
-74.362747
 11
56.765625
 21
-74.762711
  0
LINE
  8
0
 10
64.565613
 20
-74.362747
 11
64.565613
 21
-74.762711
  0
LINE
  8
0
 10
63.165627
 20
-47.362686
 11
58.165630
 21
-47.362686
  0
LINE
  8
0
 10
58.165619
 20
-47.362686
 11
58.165619
 21
-51.362690
  0
LINE
  8
0
 10
63.165619
 20
-47.362686
 11
63.165619
 21
-51.362690
  0
LINE
  8
0
 10
63.165627
 20
-51.362686
 11
58.165627
 21
-51.362686
  0
LINE
  8
0
 10
64.129761
 20
-59.862686
 11
57.201538
 21
-59.862686
  0
LINE
  8
0
 10
64.665627
 20
-59.062759
 11
56.665627
 21
-59.062759
  0
LINE
  8
0
 10
64.665627
 20
-56.562759
 11
56.665627
 21
-56.562759
  0
LINE
  8
0
 10
56.665619
 20
-56.562763
 11
56.665619
 21
-59.062763
  0
LINE
  8
0
 10
64.665619
 20
-56.562763
 11
64.665619
 21
-59.062763
  0
LINE
  8
0
 10
56.046814
 20
-60.219986
 11
56.046814
 21
-63.862747
  0
LINE
  8
0
 10
58.356232
 20
-60.219990
 11
58.356232
 21
-63.862751
  0
LINE
  8
0
 10
62.975037
 20
-60.219990
 11
62.975037
 21
-63.862751
  0
LINE
  8
0
 10
65.284424
 20
-60.219990
 11
65.284424
 21
-63.862751
  0
LINE
  8
0
 10
58.165619
 20
-59.062763
 11
58.165619
 21
-59.862751
  0
LINE
  8
0
 10
63.165619
 20
-59.062763
 11
63.165619
 21
-59.862751
  0
LINE
  8
0
 10
62.165619
 20
-51.362751
 11
62.165619
 21
-56.562763
  0
LINE
  8
0
 10
59.165619
 20
-51.362751
 11
59.165619
 21
-56.562763
  0
LINE
  8
0
 62
     2
 10
59.436127
 20
-51.362751
 11
59.436127
 21
-56.562763
  0
LINE
  8
0
 62
     2
 10
61.895111
 20
-51.362751
 11
61.895111
 21
-56.562763
  0
LINE
  8
0
 10
64.665619
 20
-92.662735
 11
56.665623
 21
-92.662735
  0
LINE
  8
0
 10
65.165634
 20
-91.162735
 11
56.165638
 21
-91.162735
  0
LINE
  8
0
 10
56.665619
 20
-93.262711
 11
56.665619
 21
-91.162735
  0
LINE
  8
0
 10
64.665619
 20
-93.262711
 11
64.665619
 21
-91.162735
  0
LINE
  8
0
 10
56.165619
 20
-91.162735
 11
56.165619
 21
-90.762711
  0
LINE
  8
0
 10
65.165619
 20
-91.162735
 11
65.165619
 21
-90.762711
  0
LINE
  8
0
 10
59.122906
 20
-137.381500
 11
62.765633
 21
-137.381500
  0
LINE
  8
0
 10
58.765545
 20
-136.762833
 11
59.122795
 21
-137.381577
  0
LINE
  8
0
 10
59.122906
 20
-135.072113
 11
62.765633
 21
-135.072113
  0
LINE
  8
0
 10
58.765610
 20
-128.762711
 11
58.765610
 21
-136.762909
  0
LINE
  8
0
 10
59.122910
 20
-128.143936
 11
62.765636
 21
-128.143936
  0
LINE
  8
0
 10
58.765549
 20
-128.762772
 11
59.122803
 21
-128.143967
  0
LINE
  8
0
 10
59.122910
 20
-130.453262
 11
62.765636
 21
-130.453262
  0
LINE
  8
0
 10
76.565643
 20
-110.262718
 11
76.565643
 21
-119.262718
  0
LINE
  8
0
 10
-56.434425
 20
-83.062759
 11
7.146469
 21
-83.062759
  0
LINE
  8
0
 10
-56.434441
 20
-146.462738
 11
7.146461
 21
-146.462738
  0
LINE
  8
0
 10
-56.434425
 20
-86.462723
 11
143.565674
 21
-86.462723
  0
LINE
  8
0
 10
-56.434441
 20
-143.062775
 11
143.565643
 21
-143.062775
  0
LINE
  8
0
 10
-56.434433
 20
-90.762711
 11
143.565659
 21
-90.762711
  0
LINE
  8
0
 10
-56.434433
 20
-138.762726
 11
143.565659
 21
-138.762726
  0
LINE
  8
0
 10
139.665649
 20
-137.762726
 11
131.665649
 21
-137.762726
  0
LINE
  8
0
 10
139.665649
 20
-91.762711
 11
131.665649
 21
-91.762711
  0
LINE
  8
0
 10
139.665649
 20
-111.762711
 11
131.665649
 21
-111.762711
  0
LINE
  8
0
 10
139.665649
 20
-117.762711
 11
131.665649
 21
-117.762711
  0
LINE
  8
0
 10
139.665634
 20
-138.762787
 11
139.665634
 21
-90.762787
  0
LINE
  8
0
 10
131.665634
 20
-138.762787
 11
131.665634
 21
-90.762787
  0
LINE
  8
0
 10
143.565674
 20
-83.562698
 11
149.265686
 21
-83.562698
  0
LINE
  8
0
 10
143.565674
 20
-145.962738
 11
149.265656
 21
-145.962738
  0
LINE
  8
0
  6
CENTER
 62
     2
 10
43.565643
 20
-71.865250
 11
43.565643
 21
-157.823700
  0
LINE
  8
0
 10
30.965611
 20
-136.262711
 11
30.965611
 21
-127.762711
  0
LINE
  8
0
 10
21.065599
 20
-127.762711
 11
30.965609
 21
-127.762711
  0
LINE
  8
0
 10
22.365631
 20
-136.262726
 11
30.965607
 21
-136.262726
  0
LINE
  8
0
 10
21.065598
 20
-137.762726
 11
22.365616
 21
-137.762726
  0
LINE
  8
0
 10
10.565586
 20
-119.262711
 11
-14.534401
 21
-119.262711
  0
LINE
  8
0
 10
10.565586
 20
-110.262711
 11
-14.534401
 21
-110.262711
  0
LINE
  8
0
 10
-56.434441
 20
-154.562775
 11
-62.134438
 21
-154.562775
  0
LINE
  8
0
 10
-56.434425
 20
-74.962723
 11
-62.134422
 21
-74.962723
  0
LINE
  8
0
 10
12.465609
 20
-128.762711
 11
-14.534405
 21
-128.762711
  0
LINE
  8
0
 10
14.365601
 20
-137.762726
 11
13.965607
 21
-137.762726
  0
LINE
  8
0
 10
13.965611
 20
-138.762711
 11
13.965611
 21
-126.762703
  0
LINE
  8
0
 10
12.465611
 20
-138.762711
 11
12.465611
 21
-126.762703
  0
LINE
  8
0
 10
14.365602
 20
-127.762711
 11
13.965609
 21
-127.762711
  0
LINE
  8
0
 10
13.965607
 20
-138.762726
 11
12.465607
 21
-138.762726
  0
LINE
  8
0
 10
13.965609
 20
-126.762711
 11
12.465609
 21
-126.762711
  0
LINE
  8
0
 10
14.365604
 20
-90.762711
 11
14.365604
 21
-138.762711
  0
LINE
  8
0
 10
22.365635
 20
-137.762711
 11
22.365635
 21
-136.262711
  0
LINE
  8
0
 10
20.065601
 20
-125.262711
 11
20.065601
 21
-138.762711
  0
LINE
  8
0
 10
12.465607
 20
-136.762726
 11
-14.534405
 21
-136.762726
  0
LINE
  8
0
 10
21.065601
 20
-126.762711
 11
21.065601
 21
-138.762711
  0
LINE
  8
0
 62
     2
 10
12.965567
 20
-98.762711
 11
14.365622
 21
-98.762711
  0
LINE
  8
0
 62
     2
 10
12.965569
 20
-94.762711
 11
14.365623
 21
-94.762711
  0
LINE
  8
0
 10
-55.034378
 20
-130.012711
 11
-53.534409
 21
-130.012711
  0
LINE
  8
0
 10
-55.034378
 20
-130.012695
 11
-55.034378
 21
-135.512695
  0
LINE
  8
0
 10
-55.034378
 20
-135.512726
 11
-53.534409
 21
-135.512726
  0
LINE
  8
0
 10
14.365622
 20
-99.262711
 11
12.965567
 21
-99.262711
  0
LINE
  8
0
 10
14.365623
 20
-94.262711
 11
12.965569
 21
-94.262711
  0
LINE
  8
0
 10
37.965614
 20
-99.262711
 11
28.365591
 21
-99.262711
  0
LINE
  8
0
 62
     2
 10
37.965614
 20
-98.662735
 11
28.365593
 21
-98.662735
  0
LINE
  8
0
 10
37.965614
 20
-94.262711
 11
28.365593
 21
-94.262711
  0
LINE
  8
0
 62
     2
 10
37.965614
 20
-94.862747
 11
28.365593
 21
-94.862747
  0
LINE
  8
0
 10
37.965611
 20
-99.262711
 11
37.965611
 21
-94.262711
  0
LINE
  8
0
 10
20.065584
 20
-126.762711
 11
21.065584
 21
-126.762711
  0
LINE
  8
0
 10
20.065582
 20
-138.762726
 11
21.065582
 21
-138.762726
  0
LINE
  8
0
 10
-62.134415
 20
-154.562683
 11
-62.134415
 21
-74.962708
  0
LINE
  8
0
 10
-73.034409
 20
-93.262695
 11
-73.034409
 21
-101.762695
  0
LINE
  8
0
 10
-63.134415
 20
-101.762711
 11
-73.034409
 21
-101.762711
  0
LINE
  8
0
 10
-71.034401
 20
-65.662735
 11
-66.034401
 21
-65.662735
  0
LINE
  8
0
 10
-66.034409
 20
-65.662720
 11
-66.034409
 21
-69.662720
  0
LINE
  8
0
 10
-71.034409
 20
-65.662720
 11
-71.034409
 21
-69.662720
  0
LINE
  8
0
 10
-71.034401
 20
-69.662735
 11
-66.034401
 21
-69.662735
  0
LINE
  8
0
 10
-72.434433
 20
-92.662735
 11
-64.634445
 21
-92.662735
  0
LINE
  8
0
 10
-72.534431
 20
-78.162735
 11
-64.534431
 21
-78.162735
  0
LINE
  8
0
 10
-72.534401
 20
-77.362747
 11
-64.534401
 21
-77.362747
  0
LINE
  8
0
 10
-72.534401
 20
-74.862747
 11
-64.534401
 21
-74.862747
  0
LINE
  8
0
 10
-64.534409
 20
-74.862732
 11
-64.534409
 21
-77.362732
  0
LINE
  8
0
 10
-72.534409
 20
-74.862732
 11
-72.534409
 21
-77.362732
  0
LINE
  8
0
 10
-66.034409
 20
-77.362671
 11
-66.034409
 21
-78.162720
  0
LINE
  8
0
 10
-71.034409
 20
-77.362671
 11
-71.034409
 21
-78.162720
  0
LINE
  8
0
 10
-70.034409
 20
-69.662720
 11
-70.034409
 21
-74.862671
  0
LINE
  8
0
 10
-67.034409
 20
-69.662720
 11
-67.034409
 21
-74.862671
  0
LINE
  8
0
 62
     2
 10
-67.304916
 20
-69.662720
 11
-67.304916
 21
-74.862671
  0
LINE
  8
0
 62
     2
 10
-69.763901
 20
-69.662720
 11
-69.763901
 21
-74.862671
  0
LINE
  8
0
 10
-65.284409
 20
-91.162720
 11
-65.284409
 21
-92.662720
  0
LINE
  8
0
 10
-71.784409
 20
-91.162720
 11
-71.784409
 21
-92.662720
  0
LINE
  8
0
 10
-64.634445
 20
-92.662720
 11
-64.634445
 21
-93.262695
  0
LINE
  8
0
 10
-72.434433
 20
-92.662720
 11
-72.434433
 21
-93.262695
  0
LINE
  8
0
 10
-73.434433
 20
-91.162735
 11
-69.529434
 21
-91.162735
  0
LINE
  8
0
 10
-64.534409
 20
-78.162720
 11
-64.534409
 21
-82.162720
  0
LINE
  8
0
 10
-72.534409
 20
-78.162720
 11
-72.534409
 21
-82.162720
  0
LINE
  8
0
 10
-68.534409
 20
-78.519958
 11
-68.534409
 21
-81.262718
  0
LINE
  8
0
 10
-63.634445
 20
-82.162720
 11
-63.634445
 21
-85.267738
  0
LINE
  8
0
 10
-73.434433
 20
-82.162720
 11
-73.434433
 21
-85.267662
  0
LINE
  8
0
 10
-63.134415
 20
-91.762711
 11
-64.434433
 21
-91.762711
  0
LINE
  8
0
 10
-54.534439
 20
-100.762711
 11
-53.534409
 21
-100.762711
  0
LINE
  8
0
 10
-56.434418
 20
-91.762711
 11
-56.034439
 21
-91.762711
  0
LINE
  8
0
 10
-56.434418
 20
-101.762711
 11
-56.034439
 21
-101.762711
  0
LINE
  8
0
 10
-56.034439
 20
-90.762711
 11
-54.534439
 21
-90.762711
  0
LINE
  8
0
 10
-56.034439
 20
-102.762711
 11
-54.534439
 21
-102.762711
  0
LINE
  8
0
 10
-56.034424
 20
-102.762695
 11
-56.034424
 21
-90.762695
  0
LINE
  8
0
 10
-54.534424
 20
-102.762695
 11
-54.534424
 21
-90.762695
  0
LINE
  8
0
 10
-64.434433
 20
-91.762695
 11
-64.434433
 21
-93.262695
  0
LINE
  8
0
 10
-54.534439
 20
-92.762711
 11
-53.534409
 21
-92.762711
  0
LINE
  8
0
 10
-53.534409
 20
-90.762695
 11
-53.534409
 21
-138.762695
  0
LINE
  8
0
 10
-14.534401
 20
-138.762711
 11
-14.534401
 21
-90.762703
  0
LINE
  8
0
 10
-63.134415
 20
-102.762695
 11
-63.134415
 21
-90.762695
  0
LINE
  8
0
 62
     2
 10
-55.034378
 20
-130.762711
 11
-56.434418
 21
-130.762711
  0
LINE
  8
0
 62
     2
 10
-55.034378
 20
-134.762726
 11
-56.434433
 21
-134.762726
  0
LINE
  8
0
 10
-13.034428
 20
-99.512711
 11
-14.534397
 21
-99.512711
  0
LINE
  8
0
 10
-13.034431
 20
-99.512703
 11
-13.034431
 21
-94.012703
  0
LINE
  8
0
 10
-13.034428
 20
-94.012711
 11
-14.534397
 21
-94.012711
  0
LINE
  8
0
 10
-56.434418
 20
-130.262711
 11
-55.034378
 21
-130.262711
  0
LINE
  8
0
 10
-56.434418
 20
-135.262726
 11
-55.034378
 21
-135.262726
  0
LINE
  8
0
 10
-56.434433
 20
-74.762695
 11
-56.434433
 21
-154.762695
  0
LINE
  8
0
 10
-80.034409
 20
-130.262711
 11
-66.134415
 21
-130.262711
  0
LINE
  8
0
 62
     2
 10
-80.034409
 20
-130.862686
 11
-66.134415
 21
-130.862686
  0
LINE
  8
0
 10
-65.777145
 20
-135.072113
 11
-62.134430
 21
-135.072113
  0
LINE
  8
0
 10
-80.034409
 20
-135.262726
 11
-66.134415
 21
-135.262726
  0
LINE
  8
0
 62
     2
 10
-80.034409
 20
-134.662750
 11
-66.134415
 21
-134.662750
  0
LINE
  8
0
 10
-66.134445
 20
-128.762695
 11
-66.134445
 21
-136.762817
  0
LINE
  8
0
 10
-80.034409
 20
-130.262695
 11
-80.034409
 21
-135.262695
  0
LINE
  8
0
 10
-65.777145
 20
-128.143936
 11
-62.134430
 21
-128.143936
  0
LINE
  8
0
 10
-66.134438
 20
-128.762650
 11
-65.777184
 21
-128.143829
  0
LINE
  8
0
 10
-65.777145
 20
-130.453323
 11
-62.134430
 21
-130.453323
  0
LINE
  8
0
 10
-65.777145
 20
-137.381500
 11
-62.134430
 21
-137.381500
  0
LINE
  8
0
 10
-66.134773
 20
-136.762726
 11
-65.777458
 21
-137.381577
  0
LINE
  8
0
 10
-64.434433
 20
-93.262711
 11
-73.034439
 21
-93.262711
  0
LINE
  8
0
 10
-62.134415
 20
-102.762711
 11
-63.134415
 21
-102.762711
  0
LINE
  8
0
 10
-62.134415
 20
-90.762711
 11
-63.134415
 21
-90.762711
  0
LINE
  8
0
 10
12.965565
 20
-99.262703
 11
12.965565
 21
-94.262711
  0
LINE
  8
0
 10
20.065599
 20
-125.262711
 11
24.365602
 21
-125.262711
  0
LINE
  8
0
 10
24.365604
 20
-90.762711
 11
24.365604
 21
-125.262711
  0
LINE
  8
0
 10
24.165623
 20
-166.362747
 11
24.165623
 21
-166.562759
  0
LINE
  8
0
 10
31.365604
 20
-165.662750
 11
31.365604
 21
-165.062775
  0
LINE
  8
0
 10
21.565617
 20
-165.662735
 11
21.565617
 21
-156.662735
  0
LINE
  8
0
 10
21.565611
 20
-156.662750
 11
31.365597
 21
-156.662750
  0
LINE
  8
0
 10
21.565609
 20
-165.662750
 11
31.365597
 21
-165.662750
  0
LINE
  8
0
 10
26.465603
 20
-162.362701
 11
33.965603
 21
-162.362701
  0
LINE
  8
0
 10
26.465603
 20
-160.962738
 11
33.965603
 21
-160.962738
  0
LINE
  8
0
 10
31.365412
 20
-165.062836
 11
30.065418
 21
-162.362854
  0
LINE
  8
0
 10
31.365673
 20
-158.262833
 11
30.065638
 21
-160.962875
  0
LINE
  8
0
 10
31.365604
 20
-158.262726
 11
31.365604
 21
-156.662750
  0
LINE
  8
0
 10
33.965603
 20
-166.562775
 11
38.265606
 21
-166.562775
  0
LINE
  8
0
 10
41.165607
 20
-166.662750
 11
41.165607
 21
-156.662750
  0
LINE
  8
0
 10
39.565601
 20
-166.662750
 11
39.565601
 21
-156.662750
  0
LINE
  8
0
 10
31.365597
 20
-165.062775
 11
32.465603
 21
-165.062775
  0
LINE
  8
0
 10
33.965611
 20
-166.562775
 11
33.965611
 21
-156.762726
  0
LINE
  8
0
 10
32.465611
 20
-165.062775
 11
32.465611
 21
-162.362762
  0
LINE
  8
0
 10
38.265614
 20
-166.562775
 11
38.265614
 21
-156.762726
  0
LINE
  8
0
 10
39.565594
 20
-166.662750
 11
41.165600
 21
-166.662750
  0
LINE
  8
0
 10
39.565609
 20
-156.662750
 11
41.165615
 21
-156.662750
  0
LINE
  8
0
 10
33.965603
 20
-156.762726
 11
38.265621
 21
-156.762726
  0
LINE
  8
0
 10
31.365597
 20
-158.262726
 11
32.465603
 21
-158.262726
  0
LINE
  8
0
 10
38.265606
 20
-164.912750
 11
39.565594
 21
-164.912750
  0
LINE
  8
0
 10
38.265621
 20
-158.412750
 11
39.565609
 21
-158.412750
  0
LINE
  8
0
 10
32.465611
 20
-160.962738
 11
32.465611
 21
-158.262726
  0
LINE
  8
0
 10
33.965206
 20
-166.563202
 11
32.465183
 21
-165.063202
  0
LINE
  8
0
 10
33.965668
 20
-156.762833
 11
32.465664
 21
-158.262848
  0
LINE
  8
0
 10
22.565611
 20
-155.162750
 11
30.365599
 21
-155.162750
  0
LINE
  8
0
 10
29.715611
 20
-156.662735
 11
29.715611
 21
-155.162735
  0
LINE
  8
0
 10
23.215611
 20
-156.662735
 11
23.215611
 21
-155.162735
  0
LINE
  8
0
 10
30.365604
 20
-155.162735
 11
30.365604
 21
-154.762711
  0
LINE
  8
0
 10
22.565617
 20
-155.162735
 11
22.565617
 21
-154.762711
  0
LINE
  8
0
 10
23.965601
 20
-182.162750
 11
28.965599
 21
-182.162750
  0
LINE
  8
0
 10
28.965611
 20
-182.162750
 11
28.965611
 21
-178.162735
  0
LINE
  8
0
 10
23.965611
 20
-182.162750
 11
23.965611
 21
-178.162735
  0
LINE
  8
0
 10
23.965601
 20
-178.162750
 11
28.965601
 21
-178.162750
  0
LINE
  8
0
 10
23.001492
 20
-169.662750
 11
29.929714
 21
-169.662750
  0
LINE
  8
0
 10
22.465603
 20
-170.462738
 11
30.465603
 21
-170.462738
  0
LINE
  8
0
 10
22.465601
 20
-172.962738
 11
30.465603
 21
-172.962738
  0
LINE
  8
0
 10
30.465611
 20
-172.962723
 11
30.465611
 21
-170.462723
  0
LINE
  8
0
 10
22.465611
 20
-172.962723
 11
22.465611
 21
-170.462723
  0
LINE
  8
0
 10
31.084415
 20
-169.305450
 11
31.084415
 21
-165.662750
  0
LINE
  8
0
 10
28.774998
 20
-169.305435
 11
28.774998
 21
-165.662735
  0
LINE
  8
0
 10
24.156193
 20
-169.305435
 11
24.156193
 21
-165.662735
  0
LINE
  8
0
 10
21.846806
 20
-169.305435
 11
21.846806
 21
-165.662735
  0
LINE
  8
0
 10
28.965611
 20
-170.462723
 11
28.965611
 21
-169.662735
  0
LINE
  8
0
 10
23.965611
 20
-170.462723
 11
23.965611
 21
-169.662735
  0
LINE
  8
0
 10
24.965611
 20
-178.162735
 11
24.965611
 21
-172.962723
  0
LINE
  8
0
 10
27.965611
 20
-178.162735
 11
27.965611
 21
-172.962723
  0
LINE
  8
0
 62
     2
 10
27.695103
 20
-178.162735
 11
27.695103
 21
-172.962723
  0
LINE
  8
0
 62
     2
 10
25.236118
 20
-178.162735
 11
25.236118
 21
-172.962723
  0
LINE
  8
0
 10
22.465622
 20
-136.862701
 11
30.465622
 21
-136.862701
  0
LINE
  8
0
 10
21.965607
 20
-138.362701
 11
30.965607
 21
-138.362701
  0
LINE
  8
0
 10
30.465611
 20
-136.262711
 11
30.465611
 21
-138.362686
  0
LINE
  8
0
 10
22.465611
 20
-136.262711
 11
22.465611
 21
-138.362686
  0
LINE
  8
0
 10
30.965611
 20
-138.362686
 11
30.965611
 21
-138.762711
  0
LINE
  8
0
 10
21.965611
 20
-138.362686
 11
21.965611
 21
-138.762711
  0
LINE
  8
0
 10
28.008339
 20
-92.143936
 11
24.365608
 21
-92.143936
  0
LINE
  8
0
 10
28.365746
 20
-92.762611
 11
28.008501
 21
-92.143860
  0
LINE
  8
0
 10
28.008339
 20
-94.453384
 11
24.365608
 21
-94.453384
  0
LINE
  8
0
 10
28.365620
 20
-100.762711
 11
28.365620
 21
-92.762589
  0
LINE
  8
0
 10
28.008337
 20
-101.381546
 11
24.365606
 21
-101.381546
  0
LINE
  8
0
 10
28.365656
 20
-100.762787
 11
28.008411
 21
-101.381538
  0
LINE
  8
0
 10
28.008337
 20
-99.072159
 11
24.365606
 21
-99.072159
  0
LINE
  8
0
 10
10.565586
 20
-119.262703
 11
10.565586
 21
-110.262703
  0
LINE
  8
0
 10
-52.534409
 20
-91.762711
 11
-44.534409
 21
-91.762711
  0
LINE
  8
0
 10
-52.534409
 20
-137.762726
 11
-44.534409
 21
-137.762726
  0
LINE
  8
0
 10
-52.534409
 20
-117.762711
 11
-44.534409
 21
-117.762711
  0
LINE
  8
0
 10
-52.534409
 20
-111.762711
 11
-44.534409
 21
-111.762711
  0
LINE
  8
0
 10
-52.534409
 20
-90.762695
 11
-52.534409
 21
-138.762695
  0
LINE
  8
0
 10
-44.534409
 20
-90.762695
 11
-44.534409
 21
-138.762711
  0
LINE
  8
0
 10
-56.434441
 20
-145.962738
 11
-62.134438
 21
-145.962738
  0
LINE
  8
0
 10
-56.434425
 20
-83.562759
 11
-62.134422
 21
-83.562759
  0
LINE
  8
0
  6
CENTER
 62
     2
 10
76.065643
 20
-77.653946
 11
76.065643
 21
-87.661034
  0
LINE
  8
0
  6
CENTER
 62
     2
 10
70.815277
 20
-82.262711
 11
81.805222
 21
-82.262711
  0
LINE
  8
0
 10
79.984833
 20
-83.062759
 11
143.565674
 21
-83.062759
  0
LINE
  8
0
  6
CENTER
 62
     2
 10
11.065647
 20
-77.653946
 11
11.065647
 21
-87.661018
  0
LINE
  8
0
  6
CENTER
 62
     2
 10
16.316019
 20
-82.262711
 11
5.326073
 21
-82.262711
  0
LINE
  8
0
  6
CENTER
 62
     2
 10
76.065643
 20
-151.871552
 11
76.065643
 21
-141.864471
  0
LINE
  8
0
  6
CENTER
 62
     2
 10
70.815269
 20
-147.262726
 11
81.805222
 21
-147.262726
  0
LINE
  8
0
  6
CENTER
 62
     2
 10
11.065647
 20
-151.871536
 11
11.065647
 21
-141.864456
  0
LINE
  8
0
  6
CENTER
 62
     2
 10
16.316008
 20
-147.262726
 11
5.326065
 21
-147.262726
  0
LINE
  8
0
 10
14.984827
 20
-83.062759
 11
72.146454
 21
-83.062759
  0
LINE
  8
0
 10
14.984816
 20
-146.462738
 11
72.146446
 21
-146.462738
  0
LINE
  8
0
 10
79.984818
 20
-146.462738
 11
143.565643
 21
-146.462738
  0
LINE
  8
0
 62
     4
 10
-56.434425
 20
-82.762711
 11
-57.846352
 21
-82.762711
  0
LINE
  8
0
 62
     4
 10
-56.434425
 20
-79.762711
 11
-57.042542
 21
-79.762711
  0
LINE
  8
0
 62
     4
 10
-57.846416
 20
-82.762703
 11
-57.042557
 21
-79.762695
  0
LINE
  8
0
 10
72.765625
 20
-130.012711
 11
62.765621
 21
-130.012711
  0
LINE
  8
0
 10
14.365606
 20
-99.512711
 11
24.365606
 21
-99.512711
  0
LINE
  8
0
 10
14.365602
 20
-125.512711
 11
20.065599
 21
-125.512711
  0
LINE
  8
0
 10
72.765625
 20
-104.012711
 11
67.065628
 21
-104.012711
  0
LINE
  8
0
 10
160.565674
 20
-141.867722
 11
160.565674
 21
-138.362778
  0
LINE
  8
0
 10
153.486206
 20
-147.362701
 11
150.765686
 21
-147.362701
  0
LINE
  8
0
 10
150.765671
 20
-141.867706
 11
150.765671
 21
-138.362762
  0
LINE
  8
0
 10
153.486221
 20
-138.362701
 11
150.765686
 21
-138.362701
  0
LINE
  8
0
 10
-63.634445
 20
-87.257698
 11
-63.634445
 21
-91.162720
  0
LINE
  8
0
 10
-67.539459
 20
-91.162735
 11
-63.634445
 21
-91.162735
  0
LINE
  8
0
 10
-73.434433
 20
-87.257774
 11
-73.434433
 21
-91.162720
  0
LINE
  8
0
  6
CENTER
 62
     2
 10
123.987648
 20
-129.762711
 11
145.844498
 21
-129.762711
  0
LINE
  8
0
  6
CENTER
 62
     2
 10
123.427216
 20
-99.762711
 11
146.140015
 21
-99.762711
  0
LINE
  8
0
  6
CENTER
 62
     2
 10
-36.856361
 20
-129.762711
 11
-58.713211
 21
-129.762711
  0
LINE
  8
0
  6
CENTER
 62
     2
 10
-36.295929
 20
-99.762711
 11
-59.008720
 21
-99.762711
  0
LINE
  8
0
 10
-73.434425
 20
-82.162735
 11
-71.396255
 21
-82.162735
  0
LINE
  8
0
 10
-65.672623
 20
-82.162735
 11
-63.634438
 21
-82.162735
  0
CIRCLE
  8
0
 62
     2
 10
76.065697
 20
66.737289
 40
2.000000
  0
CIRCLE
  8
0
 10
76.065697
 20
66.737289
 40
1.500000
  0
CIRCLE
  8
0
 62
     2
 10
76.065712
 20
131.737320
 40
2.000000
  0
CIRCLE
  8
0
 10
76.065712
 20
131.737320
 40
1.500000
  0
CIRCLE
  8
0
 10
43.565701
 20
66.737297
 40
3.000000
  0
ARC
  8
0
 10
43.565708
 20
130.737335
 40
3.000000
 50
180.000000
 51
0.000000
  0
ARC
  8
0
 10
151.221039
 20
84.701370
 40
2.044655
 50
325.615936
 51
34.384079
  0
ARC
  8
0
 10
145.622986
 20
81.237297
 40
7.642721
 50
342.412170
 51
17.588015
  0
ARC
  8
0
 10
151.221039
 20
77.773148
 40
2.044655
 50
325.615936
 51
34.384079
  0
ARC
  8
0
 10
153.665802
 20
130.060516
 40
5.776714
 50
69.743858
 51
110.256142
  0
ARC
  8
0
 10
157.665802
 20
130.060516
 40
5.776714
 50
69.743858
 51
110.256279
  0
CIRCLE
  8
0
 10
155.665833
 20
127.837257
 40
2.000000
  0
CIRCLE
  8
0
 10
155.665833
 20
127.837257
 40
5.000000
  0
ARC
  8
0
 10
64.129883
 20
46.381931
 40
2.044656
 50
235.615692
 51
304.384308
  0
ARC
  8
0
 10
57.201660
 20
46.381931
 40
2.044654
 50
235.615768
 51
304.384460
  0
ARC
  8
0
 10
60.665771
 20
51.979984
 40
7.642725
 50
252.412079
 51
287.588074
  0
ARC
  8
0
 10
52.165771
 20
47.437263
 40
0.500000
 50
0.000000
 51
23.577766
  0
CIRCLE
  8
0
 62
     2
 10
11.065712
 20
131.737335
 40
2.000000
  0
CIRCLE
  8
0
 10
11.065712
 20
131.737335
 40
1.500000
  0
CIRCLE
  8
0
 62
     2
 10
11.065704
 20
66.737305
 40
2.000000
  0
CIRCLE
  8
0
 10
11.065704
 20
66.737305
 40
1.500000
  0
ARC
  8
0
 10
-64.089630
 20
113.773193
 40
2.044655
 50
145.615921
 51
214.384079
  0
ARC
  8
0
 10
-58.491577
 20
117.237274
 40
7.642714
 50
162.412170
 51
197.588013
  0
ARC
  8
0
 10
-64.089630
 20
120.701416
 40
2.044655
 50
145.615921
 51
214.384079
  0
ARC
  8
0
 10
-66.534401
 20
68.414062
 40
5.776711
 50
249.743851
 51
290.256165
  0
ARC
  8
0
 10
-70.534401
 20
68.414062
 40
5.776711
 50
249.743927
 51
290.256226
  0
CIRCLE
  8
0
 10
-68.534431
 20
70.637321
 40
2.000000
  0
CIRCLE
  8
0
 10
-68.534431
 20
70.637321
 40
5.000000
  0
ARC
  8
0
 62
     2
 10
21.465633
 20
150.009476
 40
1.827881
 50
77.962669
 51
80.553619
  0
ARC
  8
0
 10
34.965633
 20
151.037354
 40
0.500000
 50
180.000000
 51
203.577759
  0
ARC
  8
0
 10
29.929749
 20
152.092712
 40
2.044659
 50
55.615746
 51
124.384254
  0
ARC
  8
0
 10
26.465637
 20
146.494659
 40
7.642731
 50
72.411949
 51
107.587936
  0
ARC
  8
0
 10
23.001526
 20
152.092712
 40
2.044660
 50
55.615700
 51
124.384209
  0
ARC
  8
0
 10
-156.550461
 20
139.237320
 40
0.499994
 50
336.421875
 51
0.000000
  0
ARC
  8
0
 10
-156.550461
 20
139.237320
 40
0.500000
 50
180.000000
 51
203.578110
  0
CIRCLE
  8
0
 62
     2
 10
-180.050491
 20
114.237328
 40
2.000000
  0
CIRCLE
  8
0
 10
-180.050491
 20
114.237328
 40
1.500000
  0
CIRCLE
  8
0
 10
-180.050491
 20
84.237335
 40
1.500000
  0
CIRCLE
  8
0
 62
     2
 10
-180.050491
 20
84.237335
 40
2.000000
  0
ARC
  8
0
 10
-167.550491
 20
81.237328
 40
5.000002
 50
315.572906
 51
224.427109
  0
ARC
  8
0
 10
-171.014603
 20
64.681961
 40
2.044652
 50
235.615860
 51
304.384491
  0
ARC
  8
0
 10
-164.086380
 20
64.681961
 40
2.044657
 50
235.615448
 51
304.384125
  0
ARC
  8
0
 10
-167.550491
 20
70.280045
 40
7.642729
 50
252.411896
 51
287.587860
  0
ARC
  8
0
 10
-176.461655
 20
126.737320
 40
0.500000
 50
90.000000
 51
150.000076
  0
ARC
  8
0
 10
-180.550491
 20
135.237320
 40
4.000000
 50
90.000000
 51
151.044952
  0
ARC
  8
0
 10
-180.550491
 20
63.237320
 40
4.000000
 50
208.955048
 51
270.000000
  0
ARC
  8
0
 10
-176.461655
 20
71.737320
 40
0.500001
 50
209.999924
 51
270.000000
  0
ARC
  8
0
 10
-169.550446
 20
50.113865
 40
5.776711
 50
249.743851
 51
290.256165
  0
ARC
  8
0
 10
-165.550446
 20
50.113865
 40
5.776712
 50
249.743698
 51
290.256012
  0
ARC
  8
0
 10
-167.550507
 20
52.337070
 40
5.000000
 50
107.457054
 51
72.541840
  0
ARC
  8
0
 10
-179.348404
 20
123.737320
 40
0.500000
 50
270.000000
 51
330.000061
  0
ARC
  8
0
 10
-179.348404
 20
74.737320
 40
0.500001
 50
29.999931
 51
90.000000
  0
ARC
  8
0
 10
-169.550415
 20
148.360809
 40
5.776714
 50
69.743858
 51
110.256142
  0
ARC
  8
0
 10
-165.550415
 20
148.360809
 40
5.776714
 50
69.743858
 51
110.256142
  0
CIRCLE
  8
0
 10
-167.550491
 20
117.237320
 40
4.000000
  0
CIRCLE
  8
0
 10
-167.550491
 20
117.237320
 40
2.500000
  0
CIRCLE
  8
0
 62
     2
 10
-167.550491
 20
117.237320
 40
1.800000
  0
ARC
  8
0
 10
-167.250473
 20
81.237328
 40
5.999999
 50
299.450165
 51
156.181030
  0
ARC
  8
0
 10
-167.250473
 20
81.237328
 40
6.000007
 50
203.818848
 51
233.724609
  0
ARC
  8
0
 10
-173.065628
 20
79.759537
 40
1.000003
 50
99.478203
 51
289.038483
  0
CIRCLE
  8
0
 10
-173.065628
 20
79.759537
 40
0.400000
  0
ARC
  8
0
 10
-173.065628
 20
82.715118
 40
0.999997
 50
70.961510
 51
260.521790
  0
CIRCLE
  8
0
 10
-173.065628
 20
82.715118
 40
0.400000
  0
ARC
  8
0
 62
     4
 10
-174.550491
 20
62.265121
 40
1.827884
 50
279.446472
 51
343.214111
  0
ARC
  8
0
 62
     4
 10
-172.650467
 20
62.237228
 40
0.299999
 50
90.000000
 51
180.000000
  0
ARC
  8
0
 62
     4
 10
-173.050491
 20
65.737228
 40
1.499997
 50
66.418983
 51
305.980164
  0
ARC
  8
0
 62
     4
 10
-174.550491
 20
62.265121
 40
1.827886
 50
196.785995
 51
260.553528
  0
ARC
  8
0
 62
     4
 10
-176.450455
 20
62.237228
 40
0.300003
 50
0.000000
 51
90.000000
  0
CIRCLE
  8
0
 10
60.665680
 20
-4.662669
 40
2.500000
  0
CIRCLE
  8
0
 10
60.665680
 20
-4.662669
 40
4.000000
  0
CIRCLE
  8
0
 10
60.665680
 20
-4.662669
 40
4.900000
  0
CIRCLE
  8
0
 62
     4
 10
-36.387466
 20
-11.662663
 40
1.750000
  0
ARC
  8
0
 10
147.489090
 20
-6.662682
 40
5.776656
 50
339.743683
 51
20.256357
  0
ARC
  8
0
 10
147.489090
 20
-2.662682
 40
5.776655
 50
339.743683
 51
20.256357
  0
CIRCLE
  8
0
 10
-68.134262
 20
-4.662649
 40
4.000000
  0
CIRCLE
  8
0
 10
-68.134262
 20
-4.662649
 40
2.500000
  0
CIRCLE
  8
0
 10
-68.134262
 20
-4.662649
 40
4.900000
  0
ARC
  8
0
 10
153.665680
 20
-145.586105
 40
5.776709
 50
249.744003
 51
290.256348
  0
ARC
  8
0
 10
157.665680
 20
-145.586105
 40
5.776714
 50
249.743866
 51
290.256134
  0
ARC
  8
0
 10
151.221008
 20
-100.226837
 40
2.044655
 50
325.615936
 51
34.384079
  0
ARC
  8
0
 10
145.622955
 20
-96.762787
 40
7.642709
 50
342.412079
 51
17.587961
  0
ARC
  8
0
 10
151.221008
 20
-93.298737
 40
2.044655
 50
325.615936
 51
34.384079
  0
ARC
  8
0
 10
64.129761
 20
-61.907368
 40
2.044656
 50
55.615685
 51
124.384460
  0
ARC
  8
0
 10
57.201538
 20
-61.907368
 40
2.044654
 50
55.615772
 51
124.384377
  0
ARC
  8
0
 10
60.665649
 20
-67.505508
 40
7.642725
 50
72.412071
 51
107.588074
  0
ARC
  8
0
 10
52.165649
 20
-62.962784
 40
0.500001
 50
336.422241
 51
0.000000
  0
ARC
  8
0
 10
60.810299
 20
-129.298660
 40
2.044655
 50
145.615921
 51
214.384140
  0
ARC
  8
0
 10
60.810295
 20
-136.226837
 40
2.044655
 50
145.615921
 51
214.384140
  0
ARC
  8
0
 10
66.408356
 20
-132.762711
 40
7.642716
 50
162.412109
 51
197.588013
  0
ARC
  8
0
 10
20.722891
 20
-96.762711
 40
7.642714
 50
342.412109
 51
17.587952
  0
ARC
  8
0
 62
     2
 10
21.465603
 20
-165.534805
 40
1.827888
 50
279.446503
 51
282.037445
  0
ARC
  8
0
 10
26.320944
 20
-100.226822
 40
2.044655
 50
325.615936
 51
34.384140
  0
ARC
  8
0
 10
26.320946
 20
-93.298660
 40
2.044655
 50
325.615936
 51
34.384140
  0
ARC
  8
0
 10
-66.534431
 20
-83.939453
 40
5.776711
 50
69.743935
 51
110.256233
  0
ARC
  8
0
 10
-70.534431
 20
-83.939453
 40
5.776711
 50
69.743935
 51
110.256233
  0
ARC
  8
0
 10
-64.089767
 20
-129.298584
 40
2.044655
 50
145.615921
 51
214.384079
  0
ARC
  8
0
 10
-58.491714
 20
-132.762695
 40
7.642716
 50
162.412109
 51
197.587891
  0
ARC
  8
0
 10
-64.089767
 20
-136.226807
 40
2.044655
 50
145.615921
 51
214.384079
  0
ARC
  8
0
 10
23.001492
 20
-167.618057
 40
2.044657
 50
235.615829
 51
304.384338
  0
ARC
  8
0
 10
29.929714
 20
-167.618057
 40
2.044658
 50
235.615784
 51
304.384308
  0
ARC
  8
0
 10
26.465603
 20
-162.020035
 40
7.642726
 50
252.412064
 51
287.588074
  0
ARC
  8
0
 10
34.965603
 20
-166.562775
 40
0.500001
 50
156.422241
 51
180.000000
  0
CIRCLE
  8
0
 10
76.065643
 20
-82.262711
 40
4.000000
  0
CIRCLE
  8
0
 10
76.065643
 20
-82.262711
 40
1.650000
  0
CIRCLE
  8
0
 10
11.065651
 20
-82.262711
 40
1.650000
  0
CIRCLE
  8
0
 10
11.065651
 20
-82.262711
 40
4.000000
  0
CIRCLE
  8
0
 10
76.065643
 20
-147.262726
 40
1.650000
  0
CIRCLE
  8
0
 10
76.065643
 20
-147.262726
 40
4.000000
  0
CIRCLE
  8
0
 10
11.065643
 20
-147.262711
 40
1.650000
  0
CIRCLE
  8
0
 10
11.065643
 20
-147.262711
 40
4.000000
  0
CIRCLE
  8
0
 10
-68.534439
 20
-86.262718
 40
5.000000
  0
CIRCLE
  8
0
 10
-68.534439
 20
-86.262718
 40
2.000000
  0
CIRCLE
  8
0
 10
155.665680
 20
-142.862717
 40
2.000000
  0
CIRCLE
  8
0
 10
155.665680
 20
-142.862717
 40
5.000000
  0
TEXT
  8
0
 10
174.200241
 20
180.830002
 40
6.300000
  1
DATE: MAY ,1993
 50
0.000000
 41
1.052632
 51
0.000000
  7
STANDARD
  0
TEXT
  8
0
 10
167.564667
 20
-192.100006
 40
9.000000
  1
KOGANEI CORP.
 50
0.000000
 41
1.052632
 51
0.000000
  7
STANDARD
  0
TEXT
  8
0
 10
-269.149750
 20
180.830002
 40
6.300000
  1
HANDLING MODULE
 50
0.000000
 41
1.052632
 51
0.000000
  7
STANDARD
  0
TEXT
  8
0
 10
-270.049713
 20
155.830002
 40
6.300000
  1
MODEL:SHM72M-SL
 50
0.000000
 41
1.052632
 51
0.000000
  7
STANDARD
  0
ENDSEC
  0
EOF
