  0
SECTION
  2
HEADER
  0
ENDSEC
  0
SECTION
  2
TABLES
  0
TABLE
  2
LTYPE
 70
     4
  0
LTYPE
  2
CONTINUOUS
 70
    64
  3
Solid line
 72
    65
 73
     0
 40
0.000000
  0
LTYPE
  2
DASHED
 70
    64
  3
__ __ __ __ __ __ __ __ __ __ __ __ __ __ __
 72
    65
 73
     2
 40
3.500000
 49
2.000000
 49
-1.500000
  0
LTYPE
  2
CENTER
 70
    64
  3
____ _ ____ _ ____ _ ____ _ ____ _ ____ _ ____
 72
    65
 73
     4
 40
17.500000
 49
13.000000
 49
-1.500000
 49
1.500000
 49
-1.500000
  0
LTYPE
  2
PHANTOM
 70
    64
  3
_____ _ _ _____ _ _ _____ _ _ _____ _ _ ____  
 72
    65
 73
     6
 40
15.500000
 49
8.000000
 49
-1.500000
 49
1.500000
 49
-1.500000
 49
1.500000
 49
-1.500000
  0
LTYPE
  2
DASHED1
 70
    64
  3
__ __ __ __ __ __ __ __ __ __ __ __ __ __ __
 72
    65
 73
     2
 40
1.500000
 49
1.000000
 49
-0.500000
  0
LTYPE
  2
DASHED2
 70
    64
  3
__ __ __ __ __ __ __ __ __ __ __ __ __ __ __
 72
    65
 73
     2
 40
3.500000
 49
2.500000
 49
-1.000000
  0
LTYPE
  2
DASHED3
 70
    64
  3
__ __ __ __ __ __ __ __ __ __ __ __ __ __ __
 72
    65
 73
     2
 40
6.000000
 49
4.000000
 49
-2.000000
  0
LTYPE
  2
DASHED4
 70
    64
  3
__ __ __ __ __ __ __ __ __ __ __ __ __ __ __
 72
    65
 73
     2
 40
12.000000
 49
10.000000
 49
-2.000000
  0
LTYPE
  2
DASHED5
 70
    64
  3
__ __ __ __ __ __ __ __ __ __ __ __ __ __ __
 72
    65
 73
     2
 40
17.000000
 49
15.000000
 49
-2.000000
  0
LTYPE
  2
DASHED6
 70
    64
  3
__ __ __ __ __ __ __ __ __ __ __ __ __ __ __
 72
    65
 73
     2
 40
29.000000
 49
27.000000
 49
-2.000000
  0
LTYPE
  2
PHANTOM1
 70
    64
  3
_____ _ _ _____ _ _ _____ _ _ _____ _ _ ____  
 72
    65
 73
     6
 40
31.000000
 49
25.000000
 49
-1.500000
 49
1.000000
 49
-1.000000
 49
1.000000
 49
-1.500000
  0
LTYPE
  2
PHANTOM2
 70
    64
  3
_____ _ _ _____ _ _ _____ _ _ _____ _ _ ____  
 72
    65
 73
     6
 40
36.000000
 49
27.000000
 49
-1.500000
 49
2.500000
 49
-1.000000
 49
2.500000
 49
-1.500000
  0
LTYPE
  2
PHANTOM3
 70
    64
  3
_____ _ _ _____ _ _ _____ _ _ _____ _ _ ____  
 72
    65
 73
     6
 40
78.000000
 49
64.000000
 49
-2.000000
 49
4.000000
 49
-2.000000
 49
4.000000
 49
-2.000000
  0
LTYPE
  2
CENTER1
 70
    64
  3
____ _ ____ _ ____ _ ____ _ ____ _ ____ _ ____
 72
    65
 73
     4
 40
19.000000
 49
14.000000
 49
-1.000000
 49
3.000000
 49
-1.000000
  0
LTYPE
  2
CENTER2
 70
    64
  3
____ _ ____ _ ____ _ ____ _ ____ _ ____ _ ____
 72
    65
 73
     4
 40
28.500000
 49
25.000000
 49
-1.000000
 49
1.500000
 49
-1.000000
  0
LTYPE
  2
CENTER3
 70
    64
  3
____ _ ____ _ ____ _ ____ _ ____ _ ____ _ ____
 72
    65
 73
     4
 40
31.500000
 49
27.000000
 49
-1.000000
 49
2.500000
 49
-1.000000
  0
LTYPE
  2
CENTER4
 70
    64
  3
____ _ ____ _ ____ _ ____ _ ____ _ ____ _ ____
 72
    65
 73
     4
 40
50.000000
 49
45.000000
 49
-1.000000
 49
3.000000
 49
-1.000000
  0
LTYPE
  2
CENTER5
 70
    64
  3
____ _ ____ _ ____ _ ____ _ ____ _ ____ _ ____
 72
    65
 73
     4
 40
100.000000
 49
92.000000
 49
-2.000000
 49
4.000000
 49
-2.000000
  0
LTYPE
  2
SBK1
 70
    64
  3
______ _ _ _ ______ _ _ _ ______ _ _ _ _____  
 72
    65
 73
     8
 40
60.500000
 49
45.000000
 49
-2.000000
 49
2.500000
 49
-2.000000
 49
2.500000
 49
-2.000000
 49
2.500000
 49
-2.000000
  0
LTYPE
  2
SBK2
 70
    64
  3
______ _ _ _ ______ _ _ _ ______ _ _ _ _____  
 72
    65
 73
     8
 40
84.000000
 49
64.000000
 49
-2.000000
 49
4.000000
 49
-2.000000
 49
4.000000
 49
-2.000000
 49
4.000000
 49
-2.000000
  0
LTYPE
  2
STCH
 70
    64
  3
__ __ __ __ __ __ __ __ __ __ __ __ __ __ __
 72
    65
 73
     2
 40
3.000000
 49
1.000000
 49
-2.000000
  0
LTYPE
  2
MTCH
 70
    64
  3
_____ _ _ _____ _ _ _____ _ _ _____ _ _ ____  
 72
    65
 73
     6
 40
80.000000
 49
66.000000
 49
-2.000000
 49
4.000000
 49
-2.000000
 49
4.000000
 49
-2.000000
  0
ENDTAB
  0
TABLE
  2
LAYER
 70
     1
  0
LAYER
  2
0
 70
     0
 62
     7
  6
CONTINUOUS
  0
ENDTAB
  0
TABLE
  2
STYLE
 70
     1
  0
STYLE
  2
STANDARD
 70
     0
 40
0.000000
 41
1.000000
 50
0.000000
 71
     0
 42
0.200000
  3
txt
  4
BIGFONT
  0
ENDTAB
  0
TABLE
  2
VIEW
 70
     0
  0
ENDTAB
  0
ENDSEC
  0
SECTION
  2
BLOCKS
  0
ENDSEC
  0
SECTION
  2
ENTITIES
  0
LINE
  8
0
 10
-281.250000
 20
195.500000
 11
282.099976
 21
195.500000
  0
LINE
  8
0
 10
-281.250000
 20
195.500000
 11
-281.250000
 21
-195.000000
  0
LINE
  8
0
 10
282.099976
 20
195.500000
 11
282.099976
 21
-195.000000
  0
LINE
  8
0
 10
-281.250000
 20
-195.000000
 11
282.099976
 21
-195.000000
  0
LINE
  8
0
 10
162.099976
 20
-175.000000
 11
162.099976
 21
-195.000000
  0
LINE
  8
0
 10
162.099976
 20
-175.000000
 11
282.099976
 21
-175.000000
  0
LINE
  8
0
 10
162.099976
 20
175.500000
 11
282.099976
 21
175.500000
  0
LINE
  8
0
 10
-281.250000
 20
175.500000
 11
-161.250000
 21
175.500000
  0
LINE
  8
0
 10
162.099976
 20
195.500000
 11
162.099976
 21
175.500000
  0
LINE
  8
0
 10
-161.250000
 20
195.500000
 11
-161.250000
 21
175.500000
  0
LINE
  8
0
  6
CENTER
 62
     2
 10
163.480911
 20
93.577576
 11
-122.244873
 21
93.577576
  0
LINE
  8
0
 10
-36.001205
 20
154.377625
 11
-41.001198
 21
154.377625
  0
LINE
  8
0
 10
-41.001205
 20
154.377625
 11
-41.001205
 21
150.377625
  0
LINE
  8
0
 10
-36.001213
 20
154.377625
 11
-36.001213
 21
150.377625
  0
LINE
  8
0
 10
-36.001205
 20
150.377625
 11
-41.001198
 21
150.377625
  0
LINE
  8
0
  6
CENTER
 62
     2
 10
20.598770
 20
56.842636
 11
20.598770
 21
131.615356
  0
LINE
  8
0
 10
17.598763
 20
123.577576
 11
17.598763
 21
117.577576
  0
LINE
  8
0
 10
23.598755
 20
123.577576
 11
23.598755
 21
117.577576
  0
LINE
  8
0
 10
156.298813
 20
63.777534
 11
156.298813
 21
123.377541
  0
LINE
  8
0
 10
150.598816
 20
63.577557
 11
150.598816
 21
123.577530
  0
LINE
  8
0
 10
156.298828
 20
63.777588
 11
150.598816
 21
63.777588
  0
LINE
  8
0
 10
156.298813
 20
123.377594
 11
150.598816
 21
123.377594
  0
LINE
  8
0
 10
169.198807
 20
81.577606
 11
160.298798
 21
81.577606
  0
LINE
  8
0
 62
     2
 10
169.198822
 20
80.977600
 11
160.298798
 21
80.977600
  0
LINE
  8
0
 10
159.941559
 20
76.768204
 11
156.298828
 21
76.768204
  0
LINE
  8
0
 10
169.198807
 20
76.577591
 11
160.298798
 21
76.577591
  0
LINE
  8
0
 62
     2
 10
169.198822
 20
77.177597
 11
160.298798
 21
77.177597
  0
LINE
  8
0
 10
160.298798
 20
83.077583
 11
160.298798
 21
76.133339
  0
LINE
  8
0
 10
169.198807
 20
81.577583
 11
169.198807
 21
76.577568
  0
LINE
  8
0
 10
159.941544
 20
83.696381
 11
156.298813
 21
83.696381
  0
LINE
  8
0
 10
160.299072
 20
83.077621
 11
159.941803
 21
83.696396
  0
LINE
  8
0
 10
159.941559
 20
81.386993
 11
156.298828
 21
81.386993
  0
LINE
  8
0
 10
160.298798
 20
75.077522
 11
160.298798
 21
82.021736
  0
LINE
  8
0
 10
159.941559
 20
74.458801
 11
156.298828
 21
74.458801
  0
LINE
  8
0
 10
160.299637
 20
75.077095
 11
159.942398
 21
74.458344
  0
LINE
  8
0
 10
167.098801
 20
111.577583
 11
167.098801
 21
103.077568
  0
LINE
  8
0
 10
157.298798
 20
103.077591
 11
167.098801
 21
103.077591
  0
LINE
  8
0
 10
165.098801
 20
139.177551
 11
160.098801
 21
139.177551
  0
LINE
  8
0
 10
160.098801
 20
139.177521
 11
160.098801
 21
135.177521
  0
LINE
  8
0
 10
165.098801
 20
139.177521
 11
165.098801
 21
135.177521
  0
LINE
  8
0
 10
165.098801
 20
135.177551
 11
160.098801
 21
135.177551
  0
LINE
  8
0
 10
166.498810
 20
112.177612
 11
158.698807
 21
112.177612
  0
LINE
  8
0
 10
166.598816
 20
126.677582
 11
158.598816
 21
126.677582
  0
LINE
  8
0
 10
166.598801
 20
127.477570
 11
158.598801
 21
127.477570
  0
LINE
  8
0
 10
166.598801
 20
129.977539
 11
158.598801
 21
129.977539
  0
LINE
  8
0
 10
158.598801
 20
129.977524
 11
158.598801
 21
127.477554
  0
LINE
  8
0
 10
166.598801
 20
129.977509
 11
166.598801
 21
127.477547
  0
LINE
  8
0
 10
160.098801
 20
127.477577
 11
160.098801
 21
126.677589
  0
LINE
  8
0
 10
165.098801
 20
127.477577
 11
165.098801
 21
126.677589
  0
LINE
  8
0
 10
164.098801
 20
135.177582
 11
164.098801
 21
129.977570
  0
LINE
  8
0
 10
161.098801
 20
135.177582
 11
161.098801
 21
129.977570
  0
LINE
  8
0
 62
     2
 10
161.369308
 20
135.177582
 11
161.369308
 21
129.977570
  0
LINE
  8
0
 62
     2
 10
163.828293
 20
135.177582
 11
163.828293
 21
129.977570
  0
LINE
  8
0
 10
159.348801
 20
113.677589
 11
159.348801
 21
112.177589
  0
LINE
  8
0
 10
165.848801
 20
113.677589
 11
165.848801
 21
112.177589
  0
LINE
  8
0
 10
158.698807
 20
112.177589
 11
158.698807
 21
111.577583
  0
LINE
  8
0
 10
166.498795
 20
112.177589
 11
166.498795
 21
111.577583
  0
LINE
  8
0
 10
167.498810
 20
122.677582
 11
165.598816
 21
122.677582
  0
LINE
  8
0
 10
167.498810
 20
113.677612
 11
157.698822
 21
113.677612
  0
LINE
  8
0
 10
158.598801
 20
126.677597
 11
158.598801
 21
122.677589
  0
LINE
  8
0
 10
166.598801
 20
126.677589
 11
166.598801
 21
122.677589
  0
LINE
  8
0
 10
162.598801
 20
126.320320
 11
162.598801
 21
123.677559
  0
LINE
  8
0
 10
157.698807
 20
122.677589
 11
157.698807
 21
119.672554
  0
LINE
  8
0
 10
167.498795
 20
122.677589
 11
167.498795
 21
119.672585
  0
LINE
  8
0
 10
167.098801
 20
111.577583
 11
167.098801
 21
110.256996
  0
LINE
  8
0
 10
157.298798
 20
113.077576
 11
158.198807
 21
113.077576
  0
LINE
  8
0
 10
157.298782
 20
99.577576
 11
156.298782
 21
99.577576
  0
LINE
  8
0
 10
157.298798
 20
116.577576
 11
156.298798
 21
116.577576
  0
LINE
  8
0
 10
157.298798
 20
116.577553
 11
157.298798
 21
99.577553
  0
LINE
  8
0
 10
158.198807
 20
113.077553
 11
158.198807
 21
111.577553
  0
LINE
  8
0
 10
158.198807
 20
111.577576
 11
167.098816
 21
111.577576
  0
LINE
  8
0
 10
167.498795
 20
117.682533
 11
167.498795
 21
113.677589
  0
LINE
  8
0
 10
157.698807
 20
117.682533
 11
157.698807
 21
113.677589
  0
LINE
  8
0
 10
159.598785
 20
122.677582
 11
157.698822
 21
122.677582
  0
LINE
  8
0
 10
-42.071896
 20
126.777618
 11
-34.930477
 21
126.777618
  0
LINE
  8
0
 10
-43.401230
 20
137.877609
 11
-43.401230
 21
137.277603
  0
LINE
  8
0
 10
-33.601219
 20
137.877563
 11
-33.601219
 21
128.877563
  0
LINE
  8
0
 10
-33.601192
 20
128.877625
 11
-43.401180
 21
128.877625
  0
LINE
  8
0
 10
-33.601181
 20
137.877625
 11
-43.401176
 21
137.877625
  0
LINE
  8
0
 10
-38.501183
 20
134.577606
 11
-46.001183
 21
134.577606
  0
LINE
  8
0
 10
-38.501183
 20
133.177612
 11
-46.001183
 21
133.177612
  0
LINE
  8
0
 10
-43.400959
 20
137.277725
 11
-42.100971
 21
134.577744
  0
LINE
  8
0
 10
-43.401161
 20
130.477615
 11
-42.101139
 21
133.177628
  0
LINE
  8
0
 10
-43.401230
 20
130.477615
 11
-43.401230
 21
128.877609
  0
LINE
  8
0
 10
-46.001183
 20
138.777618
 11
-50.301155
 21
138.777618
  0
LINE
  8
0
 10
-53.201218
 20
138.877609
 11
-53.201218
 21
128.877609
  0
LINE
  8
0
 10
-51.601212
 20
138.877609
 11
-51.601212
 21
128.877609
  0
LINE
  8
0
 10
-43.401176
 20
137.277618
 11
-44.501183
 21
137.277618
  0
LINE
  8
0
 10
-46.001205
 20
138.777603
 11
-46.001205
 21
128.977615
  0
LINE
  8
0
 10
-44.501205
 20
137.277603
 11
-44.501205
 21
134.577621
  0
LINE
  8
0
 10
-50.301224
 20
138.777603
 11
-50.301224
 21
128.977615
  0
LINE
  8
0
 10
-51.601143
 20
138.877625
 11
-53.201149
 21
138.877625
  0
LINE
  8
0
 10
-51.601158
 20
128.877625
 11
-53.201164
 21
128.877625
  0
LINE
  8
0
 10
-46.001183
 20
128.977600
 11
-50.301170
 21
128.977600
  0
LINE
  8
0
 10
-43.401180
 20
130.477600
 11
-44.501183
 21
130.477600
  0
LINE
  8
0
 10
-50.301155
 20
137.127625
 11
-51.601143
 21
137.127625
  0
LINE
  8
0
 10
-50.301170
 20
130.627625
 11
-51.601158
 21
130.627625
  0
LINE
  8
0
 10
-44.501205
 20
133.177597
 11
-44.501205
 21
130.477615
  0
LINE
  8
0
 10
-46.001217
 20
138.777512
 11
-44.501217
 21
137.277512
  0
LINE
  8
0
 10
-46.001442
 20
128.977859
 11
-44.501450
 21
130.477859
  0
LINE
  8
0
 10
-34.601192
 20
127.377625
 11
-42.401180
 21
127.377625
  0
LINE
  8
0
 10
-34.251186
 20
126.777618
 11
-42.751186
 21
126.777618
  0
LINE
  8
0
 10
-41.751205
 20
128.877594
 11
-41.751205
 21
127.377602
  0
LINE
  8
0
 10
-35.251213
 20
128.877594
 11
-35.251213
 21
127.377602
  0
LINE
  8
0
 10
-42.401199
 20
127.377602
 11
-42.401199
 21
126.777596
  0
LINE
  8
0
 10
-34.601219
 20
127.377602
 11
-34.601219
 21
126.777596
  0
LINE
  8
0
 10
-35.037064
 20
141.877625
 11
-41.965294
 21
141.877625
  0
LINE
  8
0
 10
-34.501205
 20
142.677612
 11
-42.501228
 21
142.677612
  0
LINE
  8
0
 10
-34.501205
 20
145.177612
 11
-42.501228
 21
145.177612
  0
LINE
  8
0
 10
-42.501236
 20
145.177612
 11
-42.501236
 21
142.677612
  0
LINE
  8
0
 10
-34.501213
 20
145.177612
 11
-34.501213
 21
142.677612
  0
LINE
  8
0
 10
-43.120041
 20
141.520340
 11
-43.120041
 21
137.877609
  0
LINE
  8
0
 10
-40.810593
 20
141.520325
 11
-40.810593
 21
137.877594
  0
LINE
  8
0
 10
-36.191795
 20
141.520325
 11
-36.191795
 21
137.877594
  0
LINE
  8
0
 10
-33.882408
 20
141.520294
 11
-33.882408
 21
137.877563
  0
LINE
  8
0
 10
-41.001205
 20
142.677582
 11
-41.001205
 21
141.877594
  0
LINE
  8
0
 10
-36.001213
 20
142.677582
 11
-36.001213
 21
141.877594
  0
LINE
  8
0
 10
-37.001213
 20
150.377594
 11
-37.001213
 21
145.177582
  0
LINE
  8
0
 10
-40.001205
 20
150.377594
 11
-40.001205
 21
145.177582
  0
LINE
  8
0
 62
     2
 10
-39.730698
 20
150.377594
 11
-39.730698
 21
145.177582
  0
LINE
  8
0
 62
     2
 10
-37.271721
 20
150.377594
 11
-37.271721
 21
145.177582
  0
LINE
  8
0
 10
-42.751236
 20
123.577583
 11
-42.751236
 21
126.777603
  0
LINE
  8
0
 10
-34.251228
 20
123.577583
 11
-34.251228
 21
126.777596
  0
LINE
  8
0
 10
-115.101242
 20
123.377586
 11
-115.101242
 21
63.777580
  0
LINE
  8
0
 10
-109.401260
 20
123.577560
 11
-109.401260
 21
63.577595
  0
LINE
  8
0
 10
-115.101273
 20
123.377563
 11
-109.401260
 21
123.377563
  0
LINE
  8
0
 10
-115.101242
 20
63.777557
 11
-109.401260
 21
63.777557
  0
LINE
  8
0
 10
-128.001236
 20
105.577560
 11
-119.101242
 21
105.577560
  0
LINE
  8
0
 62
     2
 10
-128.001266
 20
106.177567
 11
-119.101242
 21
106.177567
  0
LINE
  8
0
 10
-118.744003
 20
110.386963
 11
-115.101273
 21
110.386963
  0
LINE
  8
0
 10
-128.001236
 20
110.577576
 11
-119.101242
 21
110.577576
  0
LINE
  8
0
 62
     2
 10
-128.001266
 20
109.977539
 11
-119.101242
 21
109.977539
  0
LINE
  8
0
 10
-119.101242
 20
104.077538
 11
-119.101242
 21
111.021782
  0
LINE
  8
0
 10
-128.001236
 20
105.577583
 11
-128.001236
 21
110.577599
  0
LINE
  8
0
 10
-118.743973
 20
103.458771
 11
-115.101242
 21
103.458771
  0
LINE
  8
0
 10
-119.101501
 20
104.077484
 11
-118.744247
 21
103.458702
  0
LINE
  8
0
 10
-118.744003
 20
105.768158
 11
-115.101273
 21
105.768158
  0
LINE
  8
0
 10
-119.101242
 20
112.077629
 11
-119.101242
 21
105.133385
  0
LINE
  8
0
 10
-118.744003
 20
112.696350
 11
-115.101273
 21
112.696350
  0
LINE
  8
0
 10
-119.102295
 20
112.078163
 11
-118.745041
 21
112.696945
  0
LINE
  8
0
 10
-125.901230
 20
75.577538
 11
-125.901230
 21
84.077599
  0
LINE
  8
0
 10
-116.101242
 20
84.077576
 11
-125.901230
 21
84.077576
  0
LINE
  8
0
 10
-118.901230
 20
47.977604
 11
-118.901230
 21
51.977608
  0
LINE
  8
0
 10
-123.901230
 20
47.977604
 11
-123.901230
 21
51.977608
  0
LINE
  8
0
 10
-123.901230
 20
51.977585
 11
-118.901230
 21
51.977585
  0
LINE
  8
0
 10
-125.301224
 20
74.977570
 11
-117.501236
 21
74.977570
  0
LINE
  8
0
 10
-125.401260
 20
60.477570
 11
-117.401260
 21
60.477570
  0
LINE
  8
0
 10
-125.401230
 20
59.677582
 11
-117.401230
 21
59.677582
  0
LINE
  8
0
 10
-125.401230
 20
57.177597
 11
-117.401230
 21
57.177597
  0
LINE
  8
0
 10
-117.401230
 20
57.177616
 11
-117.401230
 21
59.677601
  0
LINE
  8
0
 10
-125.401230
 20
57.177620
 11
-125.401230
 21
59.677605
  0
LINE
  8
0
 10
-118.901230
 20
59.677544
 11
-118.901230
 21
60.477531
  0
LINE
  8
0
 10
-123.901230
 20
59.677544
 11
-123.901230
 21
60.477531
  0
LINE
  8
0
 10
-122.901230
 20
51.977547
 11
-122.901230
 21
57.177544
  0
LINE
  8
0
 10
-119.901230
 20
51.977547
 11
-119.901230
 21
57.177544
  0
LINE
  8
0
 62
     2
 10
-120.171738
 20
51.977547
 11
-120.171738
 21
57.177544
  0
LINE
  8
0
 62
     2
 10
-122.630722
 20
51.977547
 11
-122.630722
 21
57.177544
  0
LINE
  8
0
 10
-118.151230
 20
73.477547
 11
-118.151230
 21
74.977547
  0
LINE
  8
0
 10
-124.651230
 20
73.477531
 11
-124.651230
 21
74.977531
  0
LINE
  8
0
 10
-117.501236
 20
74.977547
 11
-117.501236
 21
75.577553
  0
LINE
  8
0
 10
-125.301224
 20
74.977531
 11
-125.301224
 21
75.577538
  0
LINE
  8
0
 10
-126.301254
 20
64.477570
 11
-124.401260
 21
64.477570
  0
LINE
  8
0
 10
-126.301224
 20
73.477570
 11
-116.501236
 21
73.477570
  0
LINE
  8
0
 10
-117.401230
 20
60.477543
 11
-117.401230
 21
64.477547
  0
LINE
  8
0
 10
-125.401230
 20
60.477531
 11
-125.401230
 21
64.477531
  0
LINE
  8
0
 10
-121.401230
 20
60.834801
 11
-121.401230
 21
63.477592
  0
LINE
  8
0
 10
-116.501236
 20
64.477547
 11
-116.501236
 21
67.482567
  0
LINE
  8
0
 10
-126.301224
 20
64.477531
 11
-126.301224
 21
67.482567
  0
LINE
  8
0
 10
-125.901230
 20
75.577538
 11
-125.901230
 21
76.898155
  0
LINE
  8
0
 10
-116.101242
 20
74.077576
 11
-117.001236
 21
74.077576
  0
LINE
  8
0
 10
-116.101212
 20
87.577576
 11
-115.101212
 21
87.577576
  0
LINE
  8
0
 10
-116.101212
 20
70.577591
 11
-115.101212
 21
70.577591
  0
LINE
  8
0
 10
-116.101242
 20
70.577583
 11
-116.101242
 21
87.577599
  0
LINE
  8
0
 10
-117.001236
 20
74.077568
 11
-117.001236
 21
75.577568
  0
LINE
  8
0
 10
-117.001236
 20
75.577576
 11
-125.901230
 21
75.577576
  0
LINE
  8
0
 10
-126.301224
 20
69.472588
 11
-126.301224
 21
73.477531
  0
LINE
  8
0
 10
-116.501236
 20
69.472603
 11
-116.501236
 21
73.477547
  0
LINE
  8
0
 10
-118.401230
 20
64.477570
 11
-116.501266
 21
64.477570
  0
LINE
  8
0
 10
150.598831
 20
78.077576
 11
-109.401230
 21
78.077576
  0
LINE
  8
0
 10
150.598831
 20
109.077576
 11
-109.401230
 21
109.077576
  0
LINE
  8
0
 10
-109.401230
 20
123.577576
 11
150.598831
 21
123.577576
  0
LINE
  8
0
 10
-109.401260
 20
63.577560
 11
150.598831
 21
63.577560
  0
LINE
  8
0
 10
83.269470
 20
60.377548
 11
76.128052
 21
60.377548
  0
LINE
  8
0
 10
74.798775
 20
49.277576
 11
74.798775
 21
58.277565
  0
LINE
  8
0
 10
74.798767
 20
58.277542
 11
84.598755
 21
58.277542
  0
LINE
  8
0
 10
79.698753
 20
52.577545
 11
87.198753
 21
52.577545
  0
LINE
  8
0
 10
79.698753
 20
53.977539
 11
87.198753
 21
53.977539
  0
LINE
  8
0
 10
84.598465
 20
49.877426
 11
83.298477
 21
52.577408
  0
LINE
  8
0
 10
84.598831
 20
56.677498
 11
83.298805
 21
53.977470
  0
LINE
  8
0
 10
84.598778
 20
56.677540
 11
84.598778
 21
58.277546
  0
LINE
  8
0
 10
94.398766
 20
48.277542
 11
94.398766
 21
58.277546
  0
LINE
  8
0
 10
92.798759
 20
48.277542
 11
92.798759
 21
58.277546
  0
LINE
  8
0
 10
87.198769
 20
48.377548
 11
87.198769
 21
58.177540
  0
LINE
  8
0
 10
85.698769
 20
49.877548
 11
85.698769
 21
52.577534
  0
LINE
  8
0
 10
91.498772
 20
48.377548
 11
91.498772
 21
58.177540
  0
LINE
  8
0
 10
92.798729
 20
58.277542
 11
94.398735
 21
58.277542
  0
LINE
  8
0
 10
87.198753
 20
58.177551
 11
91.498741
 21
58.177551
  0
LINE
  8
0
 10
84.598755
 20
56.677551
 11
85.698753
 21
56.677551
  0
LINE
  8
0
 10
91.498741
 20
56.527542
 11
92.798729
 21
56.527542
  0
LINE
  8
0
 10
85.698769
 20
53.977558
 11
85.698769
 21
56.677540
  0
LINE
  8
0
 10
87.198738
 20
58.177574
 11
85.698746
 21
56.677563
  0
LINE
  8
0
 10
75.798767
 20
59.777542
 11
83.598755
 21
59.777542
  0
LINE
  8
0
 10
75.448761
 20
60.377548
 11
83.948761
 21
60.377548
  0
LINE
  8
0
 10
82.948769
 20
58.277550
 11
82.948769
 21
59.777550
  0
LINE
  8
0
 10
76.448769
 20
58.277550
 11
76.448769
 21
59.777550
  0
LINE
  8
0
 10
83.598763
 20
59.777550
 11
83.598763
 21
60.377556
  0
LINE
  8
0
 10
75.798775
 20
59.777550
 11
75.798775
 21
60.377556
  0
LINE
  8
0
 10
83.948784
 20
63.577568
 11
83.948784
 21
60.377552
  0
LINE
  8
0
 10
75.448784
 20
63.577583
 11
75.448784
 21
60.377571
  0
LINE
  8
0
 10
84.598778
 20
49.277542
 11
84.598778
 21
49.877548
  0
LINE
  8
0
 10
74.798752
 20
49.277538
 11
84.598747
 21
49.277538
  0
LINE
  8
0
 10
87.198753
 20
48.377544
 11
91.498734
 21
48.377544
  0
LINE
  8
0
 10
84.598747
 20
49.877544
 11
85.698753
 21
49.877544
  0
LINE
  8
0
 10
92.798721
 20
48.277538
 11
94.398727
 21
48.277538
  0
LINE
  8
0
 10
91.498726
 20
50.027538
 11
92.798714
 21
50.027538
  0
LINE
  8
0
 10
87.198837
 20
48.377644
 11
85.698837
 21
49.877647
  0
LINE
  8
0
 10
77.198761
 20
32.777538
 11
82.198761
 21
32.777538
  0
LINE
  8
0
 10
82.198769
 20
32.777531
 11
82.198769
 21
36.777531
  0
LINE
  8
0
 10
77.198769
 20
32.777531
 11
77.198769
 21
36.777531
  0
LINE
  8
0
 10
77.198761
 20
36.777538
 11
82.198761
 21
36.777538
  0
LINE
  8
0
 10
76.234634
 20
45.277538
 11
83.162865
 21
45.277538
  0
LINE
  8
0
 10
75.698761
 20
44.477551
 11
83.698776
 21
44.477551
  0
LINE
  8
0
 10
75.698761
 20
41.977551
 11
83.698776
 21
41.977551
  0
LINE
  8
0
 10
83.698784
 20
41.977543
 11
83.698784
 21
44.477543
  0
LINE
  8
0
 10
75.698769
 20
41.977543
 11
75.698769
 21
44.477543
  0
LINE
  8
0
 10
84.317589
 20
45.634811
 11
84.317589
 21
49.277542
  0
LINE
  8
0
 10
82.008156
 20
45.634815
 11
82.008156
 21
49.277546
  0
LINE
  8
0
 10
77.389351
 20
45.634815
 11
77.389351
 21
49.277546
  0
LINE
  8
0
 10
75.079964
 20
45.634846
 11
75.079964
 21
49.277576
  0
LINE
  8
0
 10
82.198769
 20
44.477558
 11
82.198769
 21
45.277546
  0
LINE
  8
0
 10
77.198769
 20
44.477558
 11
77.198769
 21
45.277546
  0
LINE
  8
0
 10
78.198769
 20
36.777546
 11
78.198769
 21
41.977558
  0
LINE
  8
0
 10
81.198769
 20
36.777546
 11
81.198769
 21
41.977558
  0
LINE
  8
0
 62
     2
 10
80.928261
 20
36.777546
 11
80.928261
 21
41.977558
  0
LINE
  8
0
 62
     2
 10
78.469276
 20
36.777546
 11
78.469276
 21
41.977558
  0
LINE
  8
0
 10
-123.901230
 20
47.977581
 11
-118.901230
 21
47.977581
  0
LINE
  8
0
  6
CENTER
 62
     2
 10
-7.401264
 20
68.577606
 11
-1.401264
 21
68.577606
  0
LINE
  8
0
  6
CENTER
 62
     2
 10
16.598743
 20
68.577576
 11
24.598743
 21
68.577576
  0
LINE
  8
0
  6
CENTER
 62
     2
 10
-7.401257
 20
118.577576
 11
-1.401257
 21
118.577576
  0
LINE
  8
0
  6
CENTER
 62
     2
 10
-4.401260
 20
115.577576
 11
-4.401260
 21
121.577576
  0
LINE
  8
0
  6
CENTER
 62
     2
 10
-4.401260
 20
65.577606
 11
-4.401260
 21
71.577606
  0
LINE
  8
0
  6
CENTER
 62
     2
 10
45.598801
 20
65.577606
 11
45.598801
 21
71.577606
  0
LINE
  8
0
  6
CENTER
 62
     2
 10
48.598797
 20
68.577606
 11
42.598797
 21
68.577606
  0
LINE
  8
0
  6
CENTER
 62
     2
 10
45.598801
 20
115.577576
 11
45.598801
 21
121.577576
  0
LINE
  8
0
  6
CENTER
 62
     2
 10
48.598804
 20
118.577576
 11
42.598804
 21
118.577576
  0
LINE
  8
0
 10
-214.035629
 20
109.577576
 11
-214.035629
 21
96.577576
  0
LINE
  8
0
 10
-210.335648
 20
123.577545
 11
-206.585648
 21
123.577545
  0
LINE
  8
0
 10
-212.035660
 20
117.777557
 11
-214.035645
 21
117.777557
  0
LINE
  8
0
 10
-212.035614
 20
118.927551
 11
-212.035614
 21
117.777557
  0
LINE
  8
0
 10
-209.535660
 20
118.927551
 11
-212.035660
 21
118.927551
  0
LINE
  8
0
 10
-209.535614
 20
113.227570
 11
-209.535614
 21
118.927582
  0
LINE
  8
0
 10
-209.535660
 20
113.227539
 11
-212.035660
 21
113.227539
  0
LINE
  8
0
 10
-212.035614
 20
113.227570
 11
-212.035614
 21
114.377563
  0
LINE
  8
0
 10
-212.035660
 20
114.377548
 11
-214.035645
 21
114.377548
  0
LINE
  8
0
 10
-205.385620
 20
117.077545
 11
-205.385620
 21
119.777557
  0
LINE
  8
0
 10
-206.585632
 20
122.277557
 11
-206.585632
 21
123.577560
  0
LINE
  8
0
 10
-202.785629
 20
122.277557
 11
-202.785629
 21
123.577560
  0
LINE
  8
0
 10
-207.535614
 20
119.777557
 11
-207.535614
 21
122.277557
  0
LINE
  8
0
 10
-207.535645
 20
122.277542
 11
-206.585648
 21
122.277542
  0
LINE
  8
0
 10
-207.535645
 20
119.777542
 11
-205.385651
 21
119.777542
  0
LINE
  8
0
 10
-189.035614
 20
109.077637
 11
-189.035614
 21
123.577576
  0
LINE
  8
0
 10
-189.535614
 20
73.377563
 11
-189.535614
 21
123.377563
  0
LINE
  8
0
 10
-189.035706
 20
109.077621
 11
-189.235687
 21
108.877647
  0
LINE
  8
0
 10
-207.035645
 20
90.577545
 11
-214.035645
 21
90.577545
  0
LINE
  8
0
 10
-207.035645
 20
96.577545
 11
-214.035645
 21
96.577545
  0
LINE
  8
0
 10
-207.035614
 20
90.577560
 11
-207.035614
 21
96.577560
  0
LINE
  8
0
 10
-189.535645
 20
123.377548
 11
-201.085648
 21
123.377548
  0
LINE
  8
0
 10
-205.535614
 20
70.277557
 11
-205.535614
 21
116.877563
  0
LINE
  8
0
 10
-189.035431
 20
78.077805
 11
-189.235397
 21
78.277786
  0
LINE
  8
0
 10
-189.035614
 20
78.077484
 11
-189.035614
 21
73.377563
  0
LINE
  8
0
 10
-201.085632
 20
116.877563
 11
-201.085632
 21
123.377563
  0
LINE
  8
0
 10
-205.385620
 20
70.277588
 11
-205.385620
 21
67.377563
  0
LINE
  8
0
 10
-206.585632
 20
64.877563
 11
-206.585632
 21
63.577576
  0
LINE
  8
0
 10
-207.535614
 20
67.377563
 11
-207.535614
 21
64.877563
  0
LINE
  8
0
 10
-207.535614
 20
64.877563
 11
-206.585632
 21
64.877563
  0
LINE
  8
0
 10
-207.535614
 20
67.377563
 11
-205.385620
 21
67.377563
  0
LINE
  8
0
 10
-203.935608
 20
70.077545
 11
-205.385620
 21
70.077545
  0
LINE
  8
0
 10
-207.090927
 20
114.327454
 11
-209.400330
 21
110.327454
  0
LINE
  8
0
 10
-206.535614
 20
109.577560
 11
-206.535614
 21
114.077560
  0
LINE
  8
0
 10
-205.535645
 20
114.577545
 11
-206.658142
 21
114.577545
  0
LINE
  8
0
 10
-205.535645
 20
114.077545
 11
-206.535645
 21
114.077545
  0
LINE
  8
0
 10
-214.035629
 20
77.577576
 11
-214.035629
 21
90.577576
  0
LINE
  8
0
 10
-210.335632
 20
63.577545
 11
-206.585632
 21
63.577545
  0
LINE
  8
0
 10
-212.035645
 20
69.377533
 11
-214.035614
 21
69.377533
  0
LINE
  8
0
 10
-212.035614
 20
68.227600
 11
-212.035614
 21
69.377563
  0
LINE
  8
0
 10
-209.535645
 20
68.227539
 11
-212.035645
 21
68.227539
  0
LINE
  8
0
 10
-209.535614
 20
73.927551
 11
-209.535614
 21
68.227539
  0
LINE
  8
0
 10
-209.535645
 20
73.927551
 11
-212.035645
 21
73.927551
  0
LINE
  8
0
 10
-212.035614
 20
73.927551
 11
-212.035614
 21
72.777588
  0
LINE
  8
0
 10
-212.035645
 20
72.777557
 11
-214.035614
 21
72.777557
  0
LINE
  8
0
 10
-207.091248
 20
72.827545
 11
-209.400635
 21
76.827553
  0
LINE
  8
0
 10
-206.535614
 20
77.577576
 11
-206.535614
 21
73.077576
  0
LINE
  8
0
 10
-205.535614
 20
72.577545
 11
-206.658112
 21
72.577545
  0
LINE
  8
0
 10
-205.535614
 20
73.077545
 11
-206.535614
 21
73.077545
  0
LINE
  8
0
 10
-189.035629
 20
123.577545
 11
-203.285629
 21
123.577545
  0
LINE
  8
0
  6
CENTER
 62
     2
 10
-180.759567
 20
93.577545
 11
-217.419754
 21
93.577545
  0
LINE
  8
0
 10
-214.035629
 20
114.377563
 11
-214.035629
 21
110.077576
  0
LINE
  8
0
 10
-214.035629
 20
117.777588
 11
-214.035629
 21
121.097443
  0
LINE
  8
0
 10
-214.035629
 20
72.777557
 11
-214.035629
 21
77.077576
  0
LINE
  8
0
 10
-214.035629
 20
69.377563
 11
-214.035629
 21
66.057678
  0
LINE
  8
0
 10
-209.833557
 20
110.077545
 11
-214.035645
 21
110.077545
  0
LINE
  8
0
 10
-209.833527
 20
77.077545
 11
-214.035614
 21
77.077545
  0
LINE
  8
0
 10
-206.535614
 20
77.577545
 11
-214.035614
 21
77.577545
  0
LINE
  8
0
 10
-206.535645
 20
109.577545
 11
-214.035645
 21
109.577545
  0
LINE
  8
0
 10
-206.035614
 20
114.077560
 11
-206.035614
 21
73.077576
  0
LINE
  8
0
 10
-189.235626
 20
78.277481
 11
-189.235626
 21
108.877640
  0
LINE
  8
0
 10
-201.085648
 20
116.877548
 11
-205.535645
 21
116.877548
  0
LINE
  8
0
 10
-203.935608
 20
70.277557
 11
-205.535614
 21
70.277557
  0
LINE
  8
0
 10
-201.535660
 20
32.777622
 11
-196.535660
 21
32.777622
  0
LINE
  8
0
 10
-196.535614
 20
32.777649
 11
-196.535614
 21
36.777649
  0
LINE
  8
0
 10
-201.535614
 20
32.777649
 11
-201.535614
 21
36.777649
  0
LINE
  8
0
 10
-201.535660
 20
36.777622
 11
-196.535660
 21
36.777622
  0
LINE
  8
0
 10
-203.035629
 20
45.277622
 11
-195.035629
 21
45.277622
  0
LINE
  8
0
 10
-203.035629
 20
44.477634
 11
-195.035629
 21
44.477634
  0
LINE
  8
0
 10
-203.035660
 20
41.977634
 11
-195.035660
 21
41.977634
  0
LINE
  8
0
 10
-195.035614
 20
41.977661
 11
-195.035614
 21
44.477661
  0
LINE
  8
0
 10
-203.035614
 20
41.977661
 11
-203.035614
 21
44.477661
  0
LINE
  8
0
 10
-196.535614
 20
44.477600
 11
-196.535614
 21
45.277588
  0
LINE
  8
0
 10
-201.535614
 20
44.477600
 11
-201.535614
 21
45.277588
  0
LINE
  8
0
 10
-200.535614
 20
36.777588
 11
-200.535614
 21
41.977600
  0
LINE
  8
0
 10
-197.535614
 20
36.777588
 11
-197.535614
 21
41.977600
  0
LINE
  8
0
 62
     2
 10
-197.806122
 20
36.777588
 11
-197.806122
 21
41.977600
  0
LINE
  8
0
 62
     2
 10
-200.265106
 20
36.777588
 11
-200.265106
 21
41.977600
  0
LINE
  8
0
 10
-203.935623
 20
49.277622
 11
-202.035690
 21
49.277622
  0
LINE
  8
0
 10
-195.035614
 20
45.277588
 11
-195.035614
 21
49.277588
  0
LINE
  8
0
 10
-203.035614
 20
45.277588
 11
-203.035614
 21
49.277588
  0
LINE
  8
0
 10
-199.035614
 20
45.634857
 11
-199.035614
 21
47.977570
  0
LINE
  8
0
 10
-194.135620
 20
49.277588
 11
-194.135620
 21
52.282593
  0
LINE
  8
0
 10
-203.935608
 20
49.277588
 11
-203.935608
 21
52.282593
  0
LINE
  8
0
 10
-196.035538
 20
49.277622
 11
-194.135635
 21
49.277622
  0
LINE
  8
0
 10
-194.135620
 20
54.272614
 11
-194.135620
 21
58.609222
  0
LINE
  8
0
 10
-203.935608
 20
54.272614
 11
-203.935608
 21
58.609222
  0
LINE
  8
0
 10
-201.085648
 20
122.277542
 11
-202.785645
 21
122.277542
  0
LINE
  8
0
 10
-195.464905
 20
75.577545
 11
-202.606323
 21
75.577545
  0
LINE
  8
0
 10
-194.135620
 20
64.477539
 11
-194.135620
 21
65.077576
  0
LINE
  8
0
 10
-203.935608
 20
64.477539
 11
-203.935608
 21
73.477539
  0
LINE
  8
0
 10
-203.935608
 20
73.477539
 11
-194.135620
 21
73.477539
  0
LINE
  8
0
 10
-203.935608
 20
64.477539
 11
-194.135620
 21
64.477539
  0
LINE
  8
0
 10
-199.035614
 20
67.777527
 11
-191.535614
 21
67.777527
  0
LINE
  8
0
 10
-199.035614
 20
69.177551
 11
-191.535614
 21
69.177551
  0
LINE
  8
0
 10
-194.135742
 20
65.077530
 11
-195.435730
 21
67.777512
  0
LINE
  8
0
 10
-194.135193
 20
71.877419
 11
-195.435211
 21
69.177383
  0
LINE
  8
0
 10
-194.135620
 20
71.877563
 11
-194.135620
 21
73.477539
  0
LINE
  8
0
 10
-191.535614
 20
63.577545
 11
-187.235626
 21
63.577545
  0
LINE
  8
0
 10
-184.335632
 20
63.477539
 11
-184.335632
 21
73.477539
  0
LINE
  8
0
 10
-185.935638
 20
63.477539
 11
-185.935638
 21
73.477539
  0
LINE
  8
0
 10
-194.135620
 20
65.077545
 11
-193.035614
 21
65.077545
  0
LINE
  8
0
 10
-191.535614
 20
63.577576
 11
-191.535614
 21
73.377563
  0
LINE
  8
0
 10
-193.035614
 20
65.077576
 11
-193.035614
 21
67.777527
  0
LINE
  8
0
 10
-187.235626
 20
63.577576
 11
-187.235626
 21
73.377563
  0
LINE
  8
0
 10
-185.935638
 20
63.477539
 11
-184.335632
 21
63.477539
  0
LINE
  8
0
 10
-185.935638
 20
73.477539
 11
-184.335632
 21
73.477539
  0
LINE
  8
0
 10
-191.535614
 20
73.377533
 11
-187.235626
 21
73.377533
  0
LINE
  8
0
 10
-194.135620
 20
71.877533
 11
-193.035614
 21
71.877533
  0
LINE
  8
0
 10
-187.235626
 20
65.227539
 11
-185.935638
 21
65.227539
  0
LINE
  8
0
 10
-187.235626
 20
71.727539
 11
-185.935638
 21
71.727539
  0
LINE
  8
0
 10
-193.035614
 20
69.177551
 11
-193.035614
 21
71.877563
  0
LINE
  8
0
 10
-191.535461
 20
63.577721
 11
-193.035492
 21
65.077728
  0
LINE
  8
0
 10
-191.535721
 20
73.377754
 11
-193.035721
 21
71.877731
  0
LINE
  8
0
 10
-202.935608
 20
74.977539
 11
-195.135620
 21
74.977539
  0
LINE
  8
0
 10
-202.935608
 20
75.577545
 11
-195.135620
 21
75.577545
  0
LINE
  8
0
 10
-195.785629
 20
73.477539
 11
-195.785629
 21
74.977539
  0
LINE
  8
0
 10
-202.285614
 20
73.477539
 11
-202.285614
 21
74.977539
  0
LINE
  8
0
 10
-195.135635
 20
74.977539
 11
-195.135635
 21
75.577576
  0
LINE
  8
0
 10
-202.935608
 20
74.977539
 11
-202.935608
 21
75.577576
  0
LINE
  8
0
 10
-201.535629
 20
47.977543
 11
-196.535645
 21
47.977543
  0
LINE
  8
0
 10
-196.535629
 20
47.977570
 11
-196.535629
 21
51.977570
  0
LINE
  8
0
 10
-201.535614
 20
47.977570
 11
-201.535614
 21
51.977570
  0
LINE
  8
0
 10
-201.535629
 20
51.977543
 11
-196.535645
 21
51.977543
  0
LINE
  8
0
 10
-202.499725
 20
60.477539
 11
-195.571503
 21
60.477539
  0
LINE
  8
0
 10
-203.035629
 20
59.677551
 11
-195.035645
 21
59.677551
  0
LINE
  8
0
 10
-203.035629
 20
57.177551
 11
-195.035645
 21
57.177551
  0
LINE
  8
0
 10
-195.035629
 20
57.177582
 11
-195.035629
 21
59.677582
  0
LINE
  8
0
 10
-203.035614
 20
57.177582
 11
-203.035614
 21
59.677582
  0
LINE
  8
0
 10
-194.416809
 20
60.834839
 11
-194.416809
 21
64.477539
  0
LINE
  8
0
 10
-196.726242
 20
60.834839
 11
-196.726242
 21
64.477539
  0
LINE
  8
0
 10
-201.345032
 20
60.834839
 11
-201.345032
 21
64.477539
  0
LINE
  8
0
 10
-203.654419
 20
60.834839
 11
-203.654419
 21
64.477539
  0
LINE
  8
0
 10
-196.535629
 20
59.677551
 11
-196.535629
 21
60.477539
  0
LINE
  8
0
 10
-201.535614
 20
59.677551
 11
-201.535614
 21
60.477539
  0
LINE
  8
0
 10
-200.535614
 20
51.977539
 11
-200.535614
 21
57.177551
  0
LINE
  8
0
 10
-197.535629
 20
51.977539
 11
-197.535629
 21
57.177551
  0
LINE
  8
0
 62
     2
 10
-197.806137
 20
51.977539
 11
-197.806137
 21
57.177551
  0
LINE
  8
0
 62
     2
 10
-200.265106
 20
51.977539
 11
-200.265106
 21
57.177551
  0
LINE
  8
0
 10
-191.535721
 20
63.577545
 11
-194.416809
 21
63.577545
  0
LINE
  8
0
 10
-203.285629
 20
126.777542
 11
-194.785629
 21
126.777542
  0
LINE
  8
0
 10
-194.785614
 20
123.577560
 11
-194.785614
 21
126.777588
  0
LINE
  8
0
 10
-203.285614
 20
123.577560
 11
-203.285614
 21
126.777588
  0
LINE
  8
0
 10
-196.535629
 20
154.377533
 11
-201.535629
 21
154.377533
  0
LINE
  8
0
 10
-201.535645
 20
154.377563
 11
-201.535645
 21
150.377563
  0
LINE
  8
0
 10
-196.535645
 20
154.377563
 11
-196.535645
 21
150.377563
  0
LINE
  8
0
 10
-196.535629
 20
150.377533
 11
-201.535629
 21
150.377533
  0
LINE
  8
0
 10
-195.135620
 20
127.377533
 11
-202.935608
 21
127.377533
  0
LINE
  8
0
 10
-195.035629
 20
141.877533
 11
-203.035629
 21
141.877533
  0
LINE
  8
0
 10
-195.035660
 20
142.677521
 11
-203.035660
 21
142.677521
  0
LINE
  8
0
 10
-195.035629
 20
145.177521
 11
-203.035629
 21
145.177521
  0
LINE
  8
0
 10
-203.035645
 20
145.177551
 11
-203.035645
 21
142.677551
  0
LINE
  8
0
 10
-195.035645
 20
145.177551
 11
-195.035645
 21
142.677551
  0
LINE
  8
0
 10
-201.535645
 20
142.677567
 11
-201.535645
 21
141.877579
  0
LINE
  8
0
 10
-196.535645
 20
142.677567
 11
-196.535645
 21
141.877579
  0
LINE
  8
0
 10
-197.535645
 20
150.377579
 11
-197.535645
 21
145.177567
  0
LINE
  8
0
 10
-200.535645
 20
150.377579
 11
-200.535645
 21
145.177567
  0
LINE
  8
0
 62
     2
 10
-200.265137
 20
150.377579
 11
-200.265137
 21
145.177567
  0
LINE
  8
0
 62
     2
 10
-197.806152
 20
150.377579
 11
-197.806152
 21
145.177567
  0
LINE
  8
0
 10
-202.285645
 20
128.877579
 11
-202.285645
 21
127.377579
  0
LINE
  8
0
 10
-195.785645
 20
128.877579
 11
-195.785645
 21
127.377579
  0
LINE
  8
0
 10
-202.935638
 20
127.377579
 11
-202.935638
 21
126.777573
  0
LINE
  8
0
 10
-195.135651
 20
127.377579
 11
-195.135651
 21
126.777573
  0
LINE
  8
0
 10
-194.135635
 20
137.877533
 11
-196.856216
 21
137.877533
  0
LINE
  8
0
 10
-194.135620
 20
128.877533
 11
-196.856216
 21
128.877533
  0
LINE
  8
0
 10
-203.035645
 20
141.877579
 11
-203.035645
 21
137.877579
  0
LINE
  8
0
 10
-195.035645
 20
141.877579
 11
-195.035645
 21
137.877579
  0
LINE
  8
0
 10
-199.035645
 20
141.520309
 11
-199.035645
 21
138.377563
  0
LINE
  8
0
 10
-194.135651
 20
137.877548
 11
-194.135651
 21
134.372589
  0
LINE
  8
0
 10
-203.935638
 20
137.877548
 11
-203.935638
 21
134.372589
  0
LINE
  8
0
 10
-204.017319
 20
78.650017
 11
-204.637955
 21
78.595711
  0
LINE
  8
0
 10
-204.017365
 20
79.504814
 11
-204.638000
 21
79.559105
  0
LINE
  8
0
 10
-199.035645
 20
103.458763
 11
-195.035614
 21
105.768173
  0
LINE
  8
0
 10
-195.035629
 20
110.386963
 11
-195.035629
 21
105.768173
  0
LINE
  8
0
 10
-199.035614
 20
112.696213
 11
-195.035583
 21
110.386803
  0
LINE
  8
0
 10
-203.035599
 20
110.386925
 11
-199.035614
 21
112.696304
  0
LINE
  8
0
 10
-203.035614
 20
110.386963
 11
-203.035614
 21
105.768173
  0
LINE
  8
0
 10
-203.035614
 20
105.768120
 11
-199.035599
 21
103.458710
  0
LINE
  8
0
  6
CENTER
 62
     2
 10
-210.035629
 20
106.577576
 11
-210.035629
 21
100.577576
  0
LINE
  8
0
  6
CENTER
 62
     2
 10
-210.035629
 20
86.577545
 11
-210.035629
 21
80.577545
  0
LINE
  8
0
  6
CENTER
 62
     2
 10
-207.035645
 20
103.577545
 11
-213.035645
 21
103.577545
  0
LINE
  8
0
  6
CENTER
 62
     2
 10
-207.035645
 20
83.577515
 11
-213.035645
 21
83.577515
  0
LINE
  8
0
 10
-194.135635
 20
58.609192
 11
-195.035645
 21
58.609192
  0
LINE
  8
0
 10
-203.035629
 20
58.609192
 11
-203.935623
 21
58.609192
  0
LINE
  8
0
 10
-201.215103
 20
128.877533
 11
-203.935608
 21
128.877533
  0
LINE
  8
0
 10
-194.135651
 20
132.382538
 11
-194.135651
 21
128.877579
  0
LINE
  8
0
 10
-201.215103
 20
137.877533
 11
-203.935669
 21
137.877533
  0
LINE
  8
0
 10
-203.935638
 20
132.382538
 11
-203.935638
 21
128.877579
  0
LINE
  8
0
 10
-201.085648
 20
117.077545
 11
-205.385620
 21
117.077545
  0
LINE
  8
0
 62
     4
 10
-207.285645
 20
65.477463
 11
-207.285645
 21
64.877457
  0
LINE
  8
0
 62
     4
 10
-207.285675
 20
65.477539
 11
-205.685699
 21
65.477539
  0
LINE
  8
0
 62
     4
 10
-204.985687
 20
63.477539
 11
-204.385681
 21
63.477539
  0
LINE
  8
0
 62
     4
 10
-205.685638
 20
66.077484
 11
-205.685638
 21
64.077484
  0
LINE
  8
0
 62
     4
 10
-203.685638
 20
64.477539
 11
-203.685638
 21
64.077484
  0
LINE
  8
0
 62
     4
 10
-205.685699
 20
66.077545
 11
-203.935608
 21
66.077545
  0
LINE
  8
0
 62
     4
 10
-205.185638
 20
70.077484
 11
-205.185638
 21
66.077484
  0
LINE
  8
0
 62
     4
 10
-204.985657
 20
63.477478
 11
-204.985657
 21
62.802277
  0
LINE
  8
0
 62
     4
 10
-206.435699
 20
64.077545
 11
-203.654419
 21
64.077545
  0
LINE
  8
0
 62
     4
 10
-206.585663
 20
64.877533
 11
-207.535675
 21
64.877533
  0
LINE
  8
0
 62
     4
 10
-204.385620
 20
63.477478
 11
-204.385620
 21
62.802277
  0
LINE
  8
0
 62
     4
 10
-203.654419
 20
64.277557
 11
-203.685699
 21
64.277557
  0
LINE
  8
0
 62
     4
 10
-206.285645
 20
64.577484
 11
-206.285645
 21
64.277496
  0
LINE
  8
0
 62
     4
 10
-206.285675
 20
64.277557
 11
-205.685699
 21
64.277557
  0
LINE
  8
0
 62
     4
 10
-203.935608
 20
70.077545
 11
-205.185638
 21
70.077545
  0
LINE
  8
0
 10
156.298752
 20
-9.922415
 11
157.298752
 21
-9.922415
  0
LINE
  8
0
 10
150.598770
 20
-30.922493
 11
150.598770
 21
-5.922486
  0
LINE
  8
0
 10
156.298752
 20
-6.422441
 11
150.598770
 21
-6.422441
  0
LINE
  8
0
  6
CENTER
 62
     2
 10
20.598770
 20
-0.990894
 11
20.598770
 21
-36.209778
  0
LINE
  8
0
 10
157.298752
 20
-10.922415
 11
167.498764
 21
-10.922415
  0
LINE
  8
0
 62
     4
 10
-61.854446
 20
-19.672447
 11
-61.854446
 21
-23.472454
  0
LINE
  8
0
 62
     4
 10
-56.854446
 20
-19.672451
 11
-56.854446
 21
-23.472458
  0
LINE
  8
0
 10
156.298752
 20
-22.422443
 11
150.598770
 21
-22.422443
  0
LINE
  8
0
 62
     4
 10
-46.901230
 20
-22.072468
 11
-46.901230
 21
-19.672466
  0
LINE
  8
0
 62
     4
 10
-47.901230
 20
-22.072468
 11
-47.901230
 21
-19.672466
  0
LINE
  8
0
 62
     4
 10
-61.854446
 20
-22.072456
 11
-72.354446
 21
-22.072456
  0
LINE
  8
0
 62
     4
 10
-46.901230
 20
-22.072456
 11
-56.854446
 21
-22.072456
  0
LINE
  8
0
 62
     4
 10
-109.401230
 20
-18.572454
 11
-109.989120
 21
-18.572454
  0
LINE
  8
0
 10
-109.401230
 20
-22.272461
 11
-61.854446
 21
-22.272461
  0
LINE
  8
0
 10
157.298752
 20
-21.922512
 11
157.298752
 21
-19.922470
  0
LINE
  8
0
 10
156.298752
 20
-17.922440
 11
150.598770
 21
-17.922440
  0
LINE
  8
0
 62
     4
 10
-72.354446
 20
-19.672443
 11
-72.354446
 21
-22.072453
  0
LINE
  8
0
 10
169.198746
 20
-18.422478
 11
160.298737
 21
-18.422478
  0
LINE
  8
0
 62
     2
 10
169.198761
 20
-17.822472
 11
160.298737
 21
-17.822472
  0
LINE
  8
0
 10
169.198746
 20
-13.422478
 11
160.298737
 21
-13.422478
  0
LINE
  8
0
 62
     2
 10
169.198761
 20
-14.022484
 11
160.298737
 21
-14.022484
  0
LINE
  8
0
 10
160.298752
 20
-19.922489
 11
160.298752
 21
-11.922478
  0
LINE
  8
0
 10
169.198746
 20
-18.422501
 11
169.198746
 21
-13.422501
  0
LINE
  8
0
 10
156.298752
 20
-22.422470
 11
156.298752
 21
-6.422468
  0
LINE
  8
0
 10
-109.401230
 20
-21.572422
 11
-109.401230
 21
-30.922447
  0
LINE
  8
0
 10
167.498764
 20
-13.422501
 11
167.498764
 21
-4.122462
  0
LINE
  8
0
 10
167.598770
 20
-1.222431
 11
157.598770
 21
-1.222431
  0
LINE
  8
0
 10
167.598770
 20
-2.822437
 11
157.598770
 21
-2.822437
  0
LINE
  8
0
 10
165.998764
 20
-10.922437
 11
165.998764
 21
-9.922469
  0
LINE
  8
0
 10
167.498764
 20
-8.422430
 11
157.698776
 21
-8.422430
  0
LINE
  8
0
 10
165.998764
 20
-9.922430
 11
159.198776
 21
-9.922430
  0
LINE
  8
0
 10
167.498764
 20
-4.122425
 11
157.698776
 21
-4.122425
  0
LINE
  8
0
 10
167.598770
 20
-2.822473
 11
167.598770
 21
-1.222469
  0
LINE
  8
0
 10
157.598770
 20
-2.822464
 11
157.598770
 21
-1.222457
  0
LINE
  8
0
 10
159.198776
 20
-10.922436
 11
159.198776
 21
-9.922457
  0
LINE
  8
0
 10
165.848770
 20
-4.122455
 11
165.848770
 21
-2.822469
  0
LINE
  8
0
 10
159.348770
 20
-4.122450
 11
159.348770
 21
-2.822460
  0
LINE
  8
0
 10
167.499313
 20
-8.423070
 11
165.999329
 21
-9.923064
  0
LINE
  8
0
 10
157.699326
 20
-8.421913
 11
159.199341
 21
-9.921931
  0
LINE
  8
0
 10
-109.401230
 20
-5.922443
 11
-109.401230
 21
-19.672432
  0
LINE
  8
0
 10
-115.101242
 20
-21.922482
 11
-116.101242
 21
-21.922482
  0
LINE
  8
0
 10
-115.101242
 20
-6.422462
 11
-109.401230
 21
-6.422462
  0
LINE
  8
0
 10
-116.101242
 20
-20.922482
 11
-126.301224
 21
-20.922482
  0
LINE
  8
0
 10
-115.101242
 20
-22.422462
 11
-109.401230
 21
-22.422462
  0
LINE
  8
0
 10
-116.101242
 20
-21.922461
 11
-116.101242
 21
-9.922428
  0
LINE
  8
0
 10
-115.101242
 20
-17.922461
 11
-109.401230
 21
-17.922461
  0
LINE
  8
0
 10
-115.101242
 20
-6.422448
 11
-115.101242
 21
-22.422447
  0
LINE
  8
0
 10
75.079445
 20
-15.922716
 11
77.388832
 21
-19.922697
  0
LINE
  8
0
 10
82.008789
 20
-19.922436
 11
77.389420
 21
-19.922436
  0
LINE
  8
0
 10
82.008018
 20
-11.922436
 11
77.389442
 21
-11.922436
  0
LINE
  8
0
 10
77.389526
 20
-11.922471
 11
75.080124
 21
-15.922473
  0
LINE
  8
0
 10
79.698807
 20
-20.822430
 11
91.498840
 21
-20.822430
  0
LINE
  8
0
 10
94.398827
 20
-20.922449
 11
94.398827
 21
-10.922451
  0
LINE
  8
0
 10
92.798820
 20
-20.922447
 11
92.798820
 21
-10.922451
  0
LINE
  8
0
 10
83.227264
 20
-19.322430
 11
85.698822
 21
-19.322430
  0
LINE
  8
0
 10
87.198830
 20
-20.822445
 11
87.198830
 21
-11.022455
  0
LINE
  8
0
 10
85.698830
 20
-19.322443
 11
85.698830
 21
-12.522455
  0
LINE
  8
0
 10
91.498833
 20
-20.822445
 11
91.498833
 21
-11.022456
  0
LINE
  8
0
 10
92.798828
 20
-20.922436
 11
94.398834
 21
-20.922436
  0
LINE
  8
0
 10
92.798820
 20
-10.922436
 11
94.398827
 21
-10.922436
  0
LINE
  8
0
 10
79.698830
 20
-11.022442
 11
91.498833
 21
-11.022442
  0
LINE
  8
0
 10
83.227272
 20
-12.522442
 11
85.698830
 21
-12.522442
  0
LINE
  8
0
 10
91.498840
 20
-19.172436
 11
92.798828
 21
-19.172436
  0
LINE
  8
0
 10
91.498833
 20
-12.672436
 11
92.798820
 21
-12.672436
  0
LINE
  8
0
 10
87.198105
 20
-20.823095
 11
85.698120
 21
-19.323105
  0
LINE
  8
0
 10
87.199493
 20
-11.023150
 11
85.699471
 21
-12.523164
  0
LINE
  8
0
 10
81.637909
 20
-20.422436
 11
81.810104
 21
-20.422436
  0
LINE
  8
0
 10
156.298752
 20
-21.922485
 11
157.298752
 21
-21.922485
  0
LINE
  8
0
 10
167.098770
 20
-20.922470
 11
167.098770
 21
-18.422501
  0
LINE
  8
0
 10
157.298752
 20
-20.922449
 11
167.098770
 21
-20.922449
  0
LINE
  8
0
 10
156.298752
 20
-19.922449
 11
160.298737
 21
-19.922449
  0
LINE
  8
0
 10
156.298752
 20
-11.922451
 11
160.298752
 21
-11.922451
  0
LINE
  8
0
 10
157.298752
 20
-11.922472
 11
157.298752
 21
-9.922451
  0
LINE
  8
0
 10
157.698776
 20
-11.922472
 11
157.698776
 21
-4.122452
  0
LINE
  8
0
 10
159.941483
 20
-15.922451
 11
156.298752
 21
-15.922451
  0
LINE
  8
0
 10
-109.401230
 20
-5.922462
 11
150.598770
 21
-5.922462
  0
LINE
  8
0
 10
-109.401230
 20
-7.922451
 11
150.598770
 21
-7.922451
  0
LINE
  8
0
 10
-109.401230
 20
-8.922451
 11
150.598770
 21
-8.922451
  0
LINE
  8
0
 10
-109.401230
 20
-19.672453
 11
76.544876
 21
-19.672453
  0
LINE
  8
0
 10
-109.401230
 20
-22.272461
 11
-61.854446
 21
-22.272461
  0
LINE
  8
0
 10
-109.401230
 20
-23.472462
 11
150.598770
 21
-23.472462
  0
LINE
  8
0
 10
-109.401230
 20
-30.922470
 11
150.598755
 21
-30.922470
  0
LINE
  8
0
 10
-121.401550
 20
-11.303095
 11
-125.401512
 21
-13.612479
  0
LINE
  8
0
 10
-125.401230
 20
-18.231838
 11
-125.401230
 21
-13.613030
  0
LINE
  8
0
 10
-117.401230
 20
-18.231831
 11
-117.401230
 21
-13.613049
  0
LINE
  8
0
 10
-117.401314
 20
-13.613153
 11
-121.401314
 21
-11.303749
  0
LINE
  8
0
 10
-126.301224
 20
-20.922459
 11
-126.301224
 21
-4.122430
  0
LINE
  8
0
 10
-126.401230
 20
-1.222469
 11
-116.401230
 21
-1.222469
  0
LINE
  8
0
 10
-126.401230
 20
-2.822475
 11
-116.401230
 21
-2.822475
  0
LINE
  8
0
 10
-124.801224
 20
-12.433608
 11
-124.801224
 21
-9.922448
  0
LINE
  8
0
 10
-126.301224
 20
-8.422466
 11
-116.501236
 21
-8.422466
  0
LINE
  8
0
 10
-124.801224
 20
-9.922466
 11
-118.001236
 21
-9.922466
  0
LINE
  8
0
 10
-126.301224
 20
-4.122463
 11
-116.501236
 21
-4.122463
  0
LINE
  8
0
 10
-126.401230
 20
-2.822442
 11
-126.401230
 21
-1.222435
  0
LINE
  8
0
 10
-116.401230
 20
-2.822445
 11
-116.401230
 21
-1.222439
  0
LINE
  8
0
 10
-116.501236
 20
-15.922438
 11
-116.501236
 21
-4.122433
  0
LINE
  8
0
 10
-118.001236
 20
-12.393993
 11
-118.001236
 21
-9.922436
  0
LINE
  8
0
 10
-124.651230
 20
-4.122430
 11
-124.651230
 21
-2.822444
  0
LINE
  8
0
 10
-118.151230
 20
-4.122433
 11
-118.151230
 21
-2.822445
  0
LINE
  8
0
 10
-126.301872
 20
-8.423176
 11
-124.801888
 21
-9.923161
  0
LINE
  8
0
 10
-116.501892
 20
-8.421844
 11
-118.001907
 21
-9.921854
  0
LINE
  8
0
 10
94.398827
 20
-19.672453
 11
150.598770
 21
-19.672453
  0
LINE
  8
0
 10
84.318047
 20
-15.922684
 11
82.008659
 21
-19.922655
  0
LINE
  8
0
 10
82.008057
 20
-11.922412
 11
84.317482
 21
-15.922461
  0
LINE
  8
0
 10
-56.854446
 20
-22.272461
 11
150.598770
 21
-22.272461
  0
LINE
  8
0
 62
     4
 10
-60.203007
 20
-20.723946
 11
-58.505947
 21
-22.421003
  0
LINE
  8
0
  6
CENTER
 62
     2
 10
-4.401230
 20
-0.990891
 11
-4.401230
 21
-36.209774
  0
LINE
  8
0
  6
CENTER
 62
     2
 10
45.598770
 20
-0.990898
 11
45.598770
 21
-36.209782
  0
LINE
  8
0
 62
     4
 10
-58.505943
 20
-20.723911
 11
-60.202995
 21
-22.420961
  0
LINE
  8
0
 10
-117.401245
 20
-18.231812
 11
-121.401192
 21
-20.541189
  0
LINE
  8
0
 10
-121.401230
 20
-20.541212
 11
-125.401230
 21
-18.231810
  0
LINE
  8
0
 10
-115.101242
 20
-9.922436
 11
-116.101242
 21
-9.922436
  0
LINE
  8
0
 10
-116.101242
 20
-10.922436
 11
-116.501236
 21
-10.922436
  0
LINE
  8
0
 62
     4
 10
-72.354446
 20
-21.572460
 11
-110.792953
 21
-21.572460
  0
LINE
  8
0
 62
     4
 10
-110.792770
 20
-21.572439
 11
-109.988914
 21
-18.572433
  0
LINE
  8
0
 62
     4
 10
-110.792778
 20
-92.422394
 11
-109.988914
 21
-89.422386
  0
LINE
  8
0
 62
     4
 10
-109.401230
 20
-92.422394
 11
-110.792953
 21
-92.422394
  0
LINE
  8
0
  6
CENTER
 62
     2
 10
20.598770
 20
-84.070976
 11
20.598770
 21
-149.179047
  0
LINE
  8
0
 10
149.198776
 20
-104.672478
 11
149.198776
 21
-99.922508
  0
LINE
  8
0
 10
92.098770
 20
-119.922508
 11
114.598770
 21
-119.922508
  0
LINE
  8
0
 10
92.098770
 20
-112.922508
 11
114.598770
 21
-112.922508
  0
LINE
  8
0
 10
83.269577
 20
-83.222511
 11
76.128159
 21
-83.222511
  0
LINE
  8
0
 10
84.598770
 20
-72.122490
 11
84.598770
 21
-72.722496
  0
LINE
  8
0
 10
74.798790
 20
-72.122475
 11
74.798790
 21
-81.122475
  0
LINE
  8
0
 10
74.798874
 20
-81.122505
 11
84.598862
 21
-81.122505
  0
LINE
  8
0
 10
74.798874
 20
-72.122505
 11
84.598862
 21
-72.122505
  0
LINE
  8
0
 10
79.698868
 20
-75.422508
 11
87.198868
 21
-75.422508
  0
LINE
  8
0
 10
79.698868
 20
-76.822502
 11
87.198868
 21
-76.822502
  0
LINE
  8
0
 10
84.599190
 20
-72.722649
 11
83.299210
 21
-75.422592
  0
LINE
  8
0
 10
84.598831
 20
-79.522446
 11
83.298828
 21
-76.822433
  0
LINE
  8
0
 10
84.598770
 20
-79.522484
 11
84.598770
 21
-81.122490
  0
LINE
  8
0
 10
87.198868
 20
-71.222511
 11
91.498856
 21
-71.222511
  0
LINE
  8
0
 10
94.398788
 20
-71.122505
 11
94.398788
 21
-81.122505
  0
LINE
  8
0
 10
92.798782
 20
-71.122505
 11
92.798782
 21
-81.122505
  0
LINE
  8
0
 10
84.598862
 20
-72.722511
 11
85.698868
 21
-72.722511
  0
LINE
  8
0
 10
87.198776
 20
-71.222496
 11
87.198776
 21
-81.022484
  0
LINE
  8
0
 10
85.698776
 20
-72.722496
 11
85.698776
 21
-75.422478
  0
LINE
  8
0
 10
91.498795
 20
-71.222496
 11
91.498795
 21
-81.022484
  0
LINE
  8
0
 10
92.798843
 20
-71.122505
 11
94.398849
 21
-71.122505
  0
LINE
  8
0
 10
92.798843
 20
-81.122505
 11
94.398849
 21
-81.122505
  0
LINE
  8
0
 10
87.198868
 20
-81.022514
 11
91.498856
 21
-81.022514
  0
LINE
  8
0
 10
84.598862
 20
-79.522514
 11
85.698868
 21
-79.522514
  0
LINE
  8
0
 10
91.498856
 20
-72.872505
 11
92.798843
 21
-72.872505
  0
LINE
  8
0
 10
91.498856
 20
-79.372505
 11
92.798843
 21
-79.372505
  0
LINE
  8
0
 10
85.698776
 20
-76.822472
 11
85.698776
 21
-79.522484
  0
LINE
  8
0
 10
87.198914
 20
-71.222588
 11
85.698891
 21
-72.722595
  0
LINE
  8
0
 10
87.198631
 20
-81.022629
 11
85.698631
 21
-79.522621
  0
LINE
  8
0
 10
75.798874
 20
-82.622505
 11
83.598862
 21
-82.622505
  0
LINE
  8
0
 10
75.448868
 20
-83.222511
 11
83.948868
 21
-83.222511
  0
LINE
  8
0
 10
82.948776
 20
-81.122490
 11
82.948776
 21
-82.622490
  0
LINE
  8
0
 10
76.448784
 20
-81.122490
 11
76.448784
 21
-82.622490
  0
LINE
  8
0
 10
83.598770
 20
-82.622490
 11
83.598770
 21
-83.222496
  0
LINE
  8
0
 10
75.798790
 20
-82.622490
 11
75.798790
 21
-83.222496
  0
LINE
  8
0
 10
77.198784
 20
-55.622505
 11
82.198776
 21
-55.622505
  0
LINE
  8
0
 10
82.198776
 20
-55.622505
 11
82.198776
 21
-59.622505
  0
LINE
  8
0
 10
77.198784
 20
-55.622505
 11
77.198784
 21
-59.622505
  0
LINE
  8
0
 10
77.198784
 20
-59.622505
 11
82.198776
 21
-59.622505
  0
LINE
  8
0
 10
76.234756
 20
-68.122505
 11
83.162979
 21
-68.122505
  0
LINE
  8
0
 10
75.698784
 20
-67.322517
 11
83.698776
 21
-67.322517
  0
LINE
  8
0
 10
75.698784
 20
-64.822517
 11
83.698776
 21
-64.822517
  0
LINE
  8
0
 10
83.698776
 20
-64.822517
 11
83.698776
 21
-67.322517
  0
LINE
  8
0
 10
75.698784
 20
-64.822517
 11
75.698784
 21
-67.322517
  0
LINE
  8
0
 10
84.317581
 20
-68.479759
 11
84.317581
 21
-72.122490
  0
LINE
  8
0
 10
82.008163
 20
-68.479759
 11
82.008163
 21
-72.122490
  0
LINE
  8
0
 10
77.389366
 20
-68.479759
 11
77.389366
 21
-72.122490
  0
LINE
  8
0
 10
75.079979
 20
-68.479744
 11
75.079979
 21
-72.122475
  0
LINE
  8
0
 10
82.198776
 20
-67.322502
 11
82.198776
 21
-68.122490
  0
LINE
  8
0
 10
77.198784
 20
-67.322502
 11
77.198784
 21
-68.122490
  0
LINE
  8
0
 10
78.198784
 20
-59.622490
 11
78.198784
 21
-64.822502
  0
LINE
  8
0
 10
81.198776
 20
-59.622490
 11
81.198776
 21
-64.822502
  0
LINE
  8
0
 62
     2
 10
80.928268
 20
-59.622490
 11
80.928268
 21
-64.822502
  0
LINE
  8
0
 62
     2
 10
78.469292
 20
-59.622490
 11
78.469292
 21
-64.822502
  0
LINE
  8
0
 10
75.198784
 20
-99.922508
 11
75.198784
 21
-105.922508
  0
LINE
  8
0
 10
84.898758
 20
-106.922523
 11
75.198784
 21
-106.922523
  0
LINE
  8
0
 10
75.198784
 20
-98.422539
 11
75.198784
 21
-106.922523
  0
LINE
  8
0
 10
91.698776
 20
-95.922493
 11
91.698776
 21
-136.922485
  0
LINE
  8
0
 10
92.098740
 20
-107.422523
 11
93.598740
 21
-107.422523
  0
LINE
  8
0
 10
93.598770
 20
-107.422493
 11
93.598770
 21
-96.422493
  0
LINE
  8
0
 10
92.098770
 20
-107.422493
 11
92.098770
 21
-96.422493
  0
LINE
  8
0
 10
85.998764
 20
-109.422493
 11
85.998764
 21
-95.922493
  0
LINE
  8
0
 10
147.698776
 20
-99.922508
 11
147.698776
 21
-132.922516
  0
LINE
  8
0
 10
93.598740
 20
-104.922523
 11
114.598770
 21
-104.922523
  0
LINE
  8
0
 10
91.698746
 20
-106.922523
 11
92.098740
 21
-106.922523
  0
LINE
  8
0
 10
93.098770
 20
-128.422516
 11
91.698776
 21
-128.422516
  0
LINE
  8
0
 62
     2
 10
93.098770
 20
-128.922516
 11
91.698776
 21
-128.922516
  0
LINE
  8
0
 10
63.098785
 20
-128.422485
 11
79.698776
 21
-128.422485
  0
LINE
  8
0
 62
     2
 10
63.098785
 20
-129.022491
 11
79.698776
 21
-129.022491
  0
LINE
  8
0
 10
147.698776
 20
-104.672493
 11
149.198776
 21
-104.672493
  0
LINE
  8
0
 10
113.098831
 20
-128.172516
 11
113.098831
 21
-132.922516
  0
LINE
  8
0
 10
114.598770
 20
-128.172516
 11
113.098801
 21
-128.172516
  0
LINE
  8
0
 10
167.098801
 20
-134.422485
 11
167.098801
 21
-126.922493
  0
LINE
  8
0
 10
157.298782
 20
-125.922508
 11
167.098801
 21
-125.922508
  0
LINE
  8
0
 10
158.198776
 20
-134.422516
 11
167.098770
 21
-134.422516
  0
LINE
  8
0
 10
158.698776
 20
-134.422516
 11
160.498764
 21
-134.422516
  0
LINE
  8
0
 10
165.098801
 20
-162.022522
 11
160.098801
 21
-162.022522
  0
LINE
  8
0
 10
160.098801
 20
-162.022522
 11
160.098801
 21
-158.022507
  0
LINE
  8
0
 10
165.098801
 20
-162.022522
 11
165.098801
 21
-158.022507
  0
LINE
  8
0
 10
165.098801
 20
-158.022507
 11
160.098801
 21
-158.022507
  0
LINE
  8
0
 10
166.498764
 20
-135.022522
 11
158.698776
 21
-135.022522
  0
LINE
  8
0
 10
166.598770
 20
-149.522522
 11
158.598770
 21
-149.522522
  0
LINE
  8
0
 10
166.598801
 20
-150.322510
 11
158.598801
 21
-150.322510
  0
LINE
  8
0
 10
166.598801
 20
-152.822510
 11
158.598801
 21
-152.822510
  0
LINE
  8
0
 10
158.598801
 20
-152.822510
 11
158.598801
 21
-150.322510
  0
LINE
  8
0
 10
166.598801
 20
-152.822510
 11
166.598801
 21
-150.322510
  0
LINE
  8
0
 10
160.098801
 20
-150.322510
 11
160.098801
 21
-149.522522
  0
LINE
  8
0
 10
165.098801
 20
-150.322510
 11
165.098801
 21
-149.522522
  0
LINE
  8
0
 10
164.098801
 20
-158.022507
 11
164.098801
 21
-152.822510
  0
LINE
  8
0
 10
161.098801
 20
-158.022507
 11
161.098801
 21
-152.822510
  0
LINE
  8
0
 62
     2
 10
161.369308
 20
-158.022507
 11
161.369308
 21
-152.822510
  0
LINE
  8
0
 62
     2
 10
163.828293
 20
-158.022507
 11
163.828293
 21
-152.822510
  0
LINE
  8
0
 10
159.348801
 20
-136.522522
 11
159.348801
 21
-135.022522
  0
LINE
  8
0
 10
165.848801
 20
-136.522522
 11
165.848801
 21
-135.022522
  0
LINE
  8
0
 10
158.698807
 20
-135.022522
 11
158.698807
 21
-134.422516
  0
LINE
  8
0
 10
166.498795
 20
-135.022491
 11
166.498795
 21
-134.422485
  0
LINE
  8
0
 10
167.498764
 20
-145.522522
 11
157.698776
 21
-145.522522
  0
LINE
  8
0
 10
167.498764
 20
-136.522522
 11
157.698776
 21
-136.522522
  0
LINE
  8
0
 10
158.598801
 20
-149.522522
 11
158.598801
 21
-145.522522
  0
LINE
  8
0
 10
166.598801
 20
-149.522491
 11
166.598801
 21
-145.522491
  0
LINE
  8
0
 10
162.598801
 20
-149.165253
 11
162.598801
 21
-145.522522
  0
LINE
  8
0
 10
167.098801
 20
-134.422485
 11
167.098801
 21
-125.922508
  0
LINE
  8
0
 10
157.298782
 20
-135.922516
 11
158.198776
 21
-135.922516
  0
LINE
  8
0
 10
156.298782
 20
-86.622505
 11
156.298782
 21
-146.222504
  0
LINE
  8
0
 10
158.198807
 20
-135.922516
 11
158.198807
 21
-134.422516
  0
LINE
  8
0
 10
157.298782
 20
-124.922508
 11
157.298782
 21
-136.922516
  0
LINE
  8
0
 10
84.998764
 20
-107.922508
 11
85.998764
 21
-107.922508
  0
LINE
  8
0
 10
157.298782
 20
-124.922493
 11
156.298782
 21
-124.922493
  0
LINE
  8
0
 10
157.298782
 20
-136.922485
 11
156.298782
 21
-136.922485
  0
LINE
  8
0
 10
92.098801
 20
-112.922493
 11
92.098801
 21
-119.922493
  0
LINE
  8
0
 10
147.698776
 20
-112.922508
 11
150.598770
 21
-112.922508
  0
LINE
  8
0
 10
147.698776
 20
-119.922508
 11
150.598770
 21
-119.922508
  0
LINE
  8
0
 10
149.198776
 20
-104.422508
 11
150.598770
 21
-104.422508
  0
LINE
  8
0
 62
     2
 10
149.198776
 20
-103.922508
 11
150.598770
 21
-103.922508
  0
LINE
  8
0
 62
     2
 10
149.198746
 20
-99.922508
 11
150.598770
 21
-99.922508
  0
LINE
  8
0
 10
169.198776
 20
-104.422554
 11
160.298752
 21
-104.422554
  0
LINE
  8
0
 62
     2
 10
169.198776
 20
-103.822548
 11
160.298752
 21
-103.822548
  0
LINE
  8
0
 10
159.941483
 20
-99.613152
 11
156.298752
 21
-99.613152
  0
LINE
  8
0
 10
169.198776
 20
-99.422554
 11
160.298721
 21
-99.422554
  0
LINE
  8
0
 62
     2
 10
169.198746
 20
-100.022560
 11
160.298721
 21
-100.022560
  0
LINE
  8
0
 10
160.298782
 20
-105.922569
 11
160.298782
 21
-98.978310
  0
LINE
  8
0
 10
169.198776
 20
-104.422554
 11
169.198776
 21
-99.422554
  0
LINE
  8
0
 10
159.941483
 20
-106.541344
 11
156.298782
 21
-106.541344
  0
LINE
  8
0
 10
160.299225
 20
-105.922806
 11
159.941986
 21
-106.541557
  0
LINE
  8
0
 10
159.941483
 20
-104.231956
 11
156.298782
 21
-104.231956
  0
LINE
  8
0
 10
160.298782
 20
-97.922493
 11
160.298782
 21
-104.866722
  0
LINE
  8
0
 10
159.941483
 20
-97.303749
 11
156.298752
 21
-97.303749
  0
LINE
  8
0
 10
160.299118
 20
-97.922226
 11
159.941895
 21
-97.303474
  0
LINE
  8
0
 10
93.098801
 20
-128.422485
 11
93.098801
 21
-133.422455
  0
LINE
  8
0
 10
114.598770
 20
-99.922493
 11
114.598770
 21
-132.922516
  0
LINE
  8
0
 10
150.598801
 20
-86.422493
 11
150.598801
 21
-146.422516
  0
LINE
  8
0
 10
75.448784
 20
-96.322533
 11
75.448784
 21
-95.422508
  0
LINE
  8
0
 10
83.948776
 20
-96.322517
 11
83.948776
 21
-95.422493
  0
LINE
  8
0
 10
164.698776
 20
-134.422516
 11
166.498764
 21
-134.422516
  0
LINE
  8
0
 10
83.698776
 20
-109.422508
 11
83.698776
 21
-136.922516
  0
LINE
  8
0
 10
83.698761
 20
-109.422508
 11
85.998764
 21
-109.422508
  0
LINE
  8
0
 10
48.748772
 20
-140.622498
 11
150.598801
 21
-140.622498
  0
LINE
  8
0
 10
48.748787
 20
-92.222511
 11
150.598801
 21
-92.222511
  0
LINE
  8
0
 10
146.898788
 20
-99.922508
 11
146.898788
 21
-132.922516
  0
LINE
  8
0
 10
140.898788
 20
-99.922493
 11
140.898788
 21
-132.922516
  0
LINE
  8
0
 10
140.898788
 20
-119.422508
 11
146.898788
 21
-119.422508
  0
LINE
  8
0
 10
140.898788
 20
-113.422508
 11
146.898788
 21
-113.422508
  0
LINE
  8
0
 10
140.898758
 20
-100.422508
 11
146.898758
 21
-100.422508
  0
LINE
  8
0
 10
140.898788
 20
-132.422516
 11
146.898788
 21
-132.422516
  0
LINE
  8
0
 10
150.598740
 20
-86.622505
 11
156.298752
 21
-86.622505
  0
LINE
  8
0
 10
150.598770
 20
-146.222504
 11
156.298782
 21
-146.222504
  0
LINE
  8
0
 10
150.598740
 20
-93.222511
 11
156.298752
 21
-93.222511
  0
LINE
  8
0
 10
150.598770
 20
-139.622528
 11
156.298782
 21
-139.622528
  0
LINE
  8
0
  6
CENTER
 62
     2
 10
158.504532
 20
-116.422493
 11
-118.847412
 21
-116.422493
  0
LINE
  8
0
 10
-108.001205
 20
-128.172516
 11
-108.001205
 21
-132.922485
  0
LINE
  8
0
 10
-50.901222
 20
-112.922493
 11
-73.401199
 21
-112.922493
  0
LINE
  8
0
 10
-50.901222
 20
-119.922493
 11
-73.401199
 21
-119.922493
  0
LINE
  8
0
 10
-42.071915
 20
-149.622498
 11
-34.930496
 21
-149.622498
  0
LINE
  8
0
 10
-43.401207
 20
-160.722534
 11
-43.401207
 21
-160.122528
  0
LINE
  8
0
 10
-33.601204
 20
-160.722549
 11
-33.601204
 21
-151.722534
  0
LINE
  8
0
 10
-33.601227
 20
-151.722504
 11
-43.401215
 21
-151.722504
  0
LINE
  8
0
 10
-33.601227
 20
-160.722504
 11
-43.401215
 21
-160.722504
  0
LINE
  8
0
 10
-38.501221
 20
-157.422485
 11
-46.001221
 21
-157.422485
  0
LINE
  8
0
 10
-38.501221
 20
-156.022491
 11
-46.001221
 21
-156.022491
  0
LINE
  8
0
 10
-43.401157
 20
-160.122559
 11
-42.101170
 21
-157.422562
  0
LINE
  8
0
 10
-43.401173
 20
-153.322479
 11
-42.101158
 21
-156.022522
  0
LINE
  8
0
 10
-43.401207
 20
-153.322540
 11
-43.401207
 21
-151.722534
  0
LINE
  8
0
 10
-46.001221
 20
-161.622498
 11
-50.301208
 21
-161.622498
  0
LINE
  8
0
 10
-53.201187
 20
-161.722519
 11
-53.201187
 21
-151.722534
  0
LINE
  8
0
 10
-51.601181
 20
-161.722519
 11
-51.601181
 21
-151.722534
  0
LINE
  8
0
 10
-43.401215
 20
-160.122498
 11
-44.501221
 21
-160.122498
  0
LINE
  8
0
 10
-46.001205
 20
-161.622528
 11
-46.001205
 21
-151.822540
  0
LINE
  8
0
 10
-44.501205
 20
-160.122528
 11
-44.501205
 21
-157.422546
  0
LINE
  8
0
 10
-50.301193
 20
-161.622528
 11
-50.301193
 21
-151.822540
  0
LINE
  8
0
 10
-51.601196
 20
-161.722504
 11
-53.201202
 21
-161.722504
  0
LINE
  8
0
 10
-51.601196
 20
-151.722504
 11
-53.201202
 21
-151.722504
  0
LINE
  8
0
 10
-46.001221
 20
-151.822479
 11
-50.301208
 21
-151.822479
  0
LINE
  8
0
 10
-43.401215
 20
-153.322479
 11
-44.501221
 21
-153.322479
  0
LINE
  8
0
 10
-50.301208
 20
-159.972504
 11
-51.601196
 21
-159.972504
  0
LINE
  8
0
 10
-50.301208
 20
-153.472504
 11
-51.601196
 21
-153.472504
  0
LINE
  8
0
 10
-44.501205
 20
-156.022537
 11
-44.501205
 21
-153.322540
  0
LINE
  8
0
 10
-46.001068
 20
-161.622620
 11
-44.501087
 21
-160.122635
  0
LINE
  8
0
 10
-46.001247
 20
-151.822586
 11
-44.501251
 21
-153.322571
  0
LINE
  8
0
 10
-34.601212
 20
-150.222504
 11
-42.401199
 21
-150.222504
  0
LINE
  8
0
 10
-34.251205
 20
-149.622498
 11
-42.751205
 21
-149.622498
  0
LINE
  8
0
 10
-41.751198
 20
-151.722534
 11
-41.751198
 21
-150.222534
  0
LINE
  8
0
 10
-35.251198
 20
-151.722534
 11
-35.251198
 21
-150.222534
  0
LINE
  8
0
 10
-42.401192
 20
-150.222534
 11
-42.401192
 21
-149.622528
  0
LINE
  8
0
 10
-34.601204
 20
-150.222534
 11
-34.601204
 21
-149.622528
  0
LINE
  8
0
 10
-36.001198
 20
-177.222504
 11
-41.001198
 21
-177.222504
  0
LINE
  8
0
 10
-41.001198
 20
-177.222504
 11
-41.001198
 21
-173.222504
  0
LINE
  8
0
 10
-36.001198
 20
-177.222504
 11
-36.001198
 21
-173.222504
  0
LINE
  8
0
 10
-36.001198
 20
-173.222504
 11
-41.001198
 21
-173.222504
  0
LINE
  8
0
 10
-35.037109
 20
-164.722504
 11
-41.965332
 21
-164.722504
  0
LINE
  8
0
 10
-34.501198
 20
-165.522491
 11
-42.501213
 21
-165.522491
  0
LINE
  8
0
 10
-34.501198
 20
-168.022491
 11
-42.501213
 21
-168.022491
  0
LINE
  8
0
 10
-42.501213
 20
-168.022491
 11
-42.501213
 21
-165.522491
  0
LINE
  8
0
 10
-34.501198
 20
-168.022491
 11
-34.501198
 21
-165.522491
  0
LINE
  8
0
 10
-43.120018
 20
-164.365265
 11
-43.120018
 21
-160.722534
  0
LINE
  8
0
 10
-40.810585
 20
-164.365265
 11
-40.810585
 21
-160.722534
  0
LINE
  8
0
 10
-36.191780
 20
-164.365265
 11
-36.191780
 21
-160.722534
  0
LINE
  8
0
 10
-33.882393
 20
-164.365265
 11
-33.882393
 21
-160.722549
  0
LINE
  8
0
 10
-41.001198
 20
-165.522522
 11
-41.001198
 21
-164.722534
  0
LINE
  8
0
 10
-36.001198
 20
-165.522522
 11
-36.001198
 21
-164.722534
  0
LINE
  8
0
 10
-37.001198
 20
-173.222534
 11
-37.001198
 21
-168.022522
  0
LINE
  8
0
 10
-40.001198
 20
-173.222534
 11
-40.001198
 21
-168.022522
  0
LINE
  8
0
 62
     2
 10
-39.730690
 20
-173.222534
 11
-39.730690
 21
-168.022522
  0
LINE
  8
0
 62
     2
 10
-37.271706
 20
-173.222534
 11
-37.271706
 21
-168.022522
  0
LINE
  8
0
 10
-34.001198
 20
-132.922516
 11
-34.001198
 21
-126.922508
  0
LINE
  8
0
 10
-43.801216
 20
-125.922478
 11
-34.001198
 21
-125.922478
  0
LINE
  8
0
 10
-34.001198
 20
-134.422516
 11
-34.001198
 21
-125.922478
  0
LINE
  8
0
 10
-50.501205
 20
-136.922516
 11
-50.501205
 21
-95.922508
  0
LINE
  8
0
 10
-50.901199
 20
-125.422478
 11
-52.401199
 21
-125.422478
  0
LINE
  8
0
 10
-52.401199
 20
-125.422508
 11
-52.401199
 21
-136.422516
  0
LINE
  8
0
 10
-50.901199
 20
-125.422508
 11
-50.901199
 21
-136.422546
  0
LINE
  8
0
 10
-44.801216
 20
-123.422508
 11
-44.801216
 21
-136.922516
  0
LINE
  8
0
 10
-106.501221
 20
-132.922485
 11
-106.501221
 21
-99.922508
  0
LINE
  8
0
 10
-52.401199
 20
-127.922478
 11
-73.401230
 21
-127.922478
  0
LINE
  8
0
 10
-50.501205
 20
-125.922478
 11
-50.901199
 21
-125.922478
  0
LINE
  8
0
 10
-51.901215
 20
-104.422493
 11
-50.501205
 21
-104.422493
  0
LINE
  8
0
 62
     2
 10
-51.901215
 20
-103.922493
 11
-50.501205
 21
-103.922493
  0
LINE
  8
0
 10
-38.501244
 20
-105.922600
 11
-38.501244
 21
-99.922508
  0
LINE
  8
0
 10
-38.858490
 20
-106.541328
 11
-42.501205
 21
-106.541328
  0
LINE
  8
0
 10
-38.501316
 20
-105.922508
 11
-38.858570
 21
-106.541290
  0
LINE
  8
0
 10
-38.858490
 20
-104.231941
 11
-42.501205
 21
-104.231941
  0
LINE
  8
0
 10
-38.501244
 20
-97.922157
 11
-38.501244
 21
-104.866753
  0
LINE
  8
0
 10
-106.501236
 20
-128.172516
 11
-108.001205
 21
-128.172516
  0
LINE
  8
0
 10
-71.901253
 20
-104.672508
 11
-71.901253
 21
-99.922508
  0
LINE
  8
0
 10
-73.401199
 20
-104.672478
 11
-71.901230
 21
-104.672478
  0
LINE
  8
0
 10
-125.901230
 20
-98.422539
 11
-125.901230
 21
-105.922539
  0
LINE
  8
0
 10
-116.101212
 20
-106.922493
 11
-125.901230
 21
-106.922493
  0
LINE
  8
0
 10
-117.001236
 20
-98.422493
 11
-125.901230
 21
-98.422493
  0
LINE
  8
0
 10
-117.501236
 20
-98.422493
 11
-119.301224
 21
-98.422493
  0
LINE
  8
0
 10
-123.901230
 20
-70.822487
 11
-118.901230
 21
-70.822487
  0
LINE
  8
0
 10
-118.901230
 20
-70.822487
 11
-118.901230
 21
-74.822487
  0
LINE
  8
0
 10
-123.901230
 20
-70.822487
 11
-123.901230
 21
-74.822487
  0
LINE
  8
0
 10
-123.901230
 20
-74.822487
 11
-118.901230
 21
-74.822487
  0
LINE
  8
0
 10
-125.301224
 20
-97.822487
 11
-117.501236
 21
-97.822487
  0
LINE
  8
0
 10
-125.401199
 20
-83.322487
 11
-117.401199
 21
-83.322487
  0
LINE
  8
0
 10
-125.401230
 20
-82.522499
 11
-117.401230
 21
-82.522499
  0
LINE
  8
0
 10
-125.401230
 20
-80.022499
 11
-117.401230
 21
-80.022499
  0
LINE
  8
0
 10
-117.401230
 20
-80.022499
 11
-117.401230
 21
-82.522499
  0
LINE
  8
0
 10
-125.401230
 20
-80.022499
 11
-125.401230
 21
-82.522499
  0
LINE
  8
0
 10
-118.901230
 20
-82.522545
 11
-118.901230
 21
-83.322533
  0
LINE
  8
0
 10
-123.901230
 20
-82.522545
 11
-123.901230
 21
-83.322533
  0
LINE
  8
0
 10
-122.901230
 20
-74.822533
 11
-122.901230
 21
-80.022545
  0
LINE
  8
0
 10
-119.901230
 20
-74.822533
 11
-119.901230
 21
-80.022545
  0
LINE
  8
0
 62
     2
 10
-120.171738
 20
-74.822533
 11
-120.171738
 21
-80.022545
  0
LINE
  8
0
 62
     2
 10
-122.630722
 20
-74.822533
 11
-122.630722
 21
-80.022545
  0
LINE
  8
0
 10
-118.151230
 20
-96.322533
 11
-118.151230
 21
-97.822533
  0
LINE
  8
0
 10
-124.651230
 20
-96.322533
 11
-124.651230
 21
-97.822533
  0
LINE
  8
0
 10
-117.501236
 20
-97.822533
 11
-117.501236
 21
-98.422539
  0
LINE
  8
0
 10
-125.301224
 20
-97.822533
 11
-125.301224
 21
-98.422539
  0
LINE
  8
0
 10
-126.301193
 20
-87.322487
 11
-116.501205
 21
-87.322487
  0
LINE
  8
0
 10
-126.301224
 20
-96.322487
 11
-116.501236
 21
-96.322487
  0
LINE
  8
0
 10
-117.401230
 20
-83.322533
 11
-117.401230
 21
-87.322533
  0
LINE
  8
0
 10
-125.401230
 20
-83.322533
 11
-125.401230
 21
-87.322533
  0
LINE
  8
0
 10
-121.401230
 20
-83.679802
 11
-121.401230
 21
-87.322533
  0
LINE
  8
0
 10
-116.501236
 20
-87.322533
 11
-116.501236
 21
-96.322533
  0
LINE
  8
0
 10
-126.301224
 20
-87.322533
 11
-126.301224
 21
-96.322533
  0
LINE
  8
0
 10
-125.901230
 20
-98.422539
 11
-125.901230
 21
-106.922493
  0
LINE
  8
0
 10
-116.101212
 20
-96.922493
 11
-117.001236
 21
-96.922493
  0
LINE
  8
0
 10
-109.001205
 20
-107.422493
 11
-107.501205
 21
-107.422493
  0
LINE
  8
0
 10
-107.501236
 20
-107.422539
 11
-107.501236
 21
-99.922508
  0
LINE
  8
0
 10
-109.001236
 20
-107.422539
 11
-109.001236
 21
-99.922508
  0
LINE
  8
0
 10
-115.101212
 20
-146.222504
 11
-115.101212
 21
-86.622520
  0
LINE
  8
0
 10
-117.001236
 20
-96.922539
 11
-117.001236
 21
-98.422539
  0
LINE
  8
0
 10
-107.501190
 20
-104.422493
 11
-106.501236
 21
-104.422493
  0
LINE
  8
0
 10
-109.401215
 20
-106.922493
 11
-109.001190
 21
-106.922493
  0
LINE
  8
0
 10
-116.101212
 20
-107.922539
 11
-116.101212
 21
-95.922539
  0
LINE
  8
0
 10
-43.801216
 20
-124.922493
 11
-44.801216
 21
-124.922493
  0
LINE
  8
0
 10
-116.101212
 20
-107.922508
 11
-115.101212
 21
-107.922508
  0
LINE
  8
0
 10
-116.101242
 20
-95.922508
 11
-115.101242
 21
-95.922508
  0
LINE
  8
0
 10
-50.901222
 20
-119.922508
 11
-50.901222
 21
-112.922523
  0
LINE
  8
0
 10
-106.501236
 20
-119.922493
 11
-109.401230
 21
-119.922493
  0
LINE
  8
0
 10
-106.501236
 20
-112.922493
 11
-109.401230
 21
-112.922493
  0
LINE
  8
0
 10
-108.001205
 20
-128.422485
 11
-109.401230
 21
-128.422485
  0
LINE
  8
0
 62
     2
 10
-108.001205
 20
-128.922485
 11
-109.401230
 21
-128.922485
  0
LINE
  8
0
 62
     2
 10
-108.001205
 20
-132.922485
 11
-109.401230
 21
-132.922485
  0
LINE
  8
0
 10
-51.901222
 20
-104.422523
 11
-51.901222
 21
-99.422554
  0
LINE
  8
0
 10
-73.401207
 20
-132.922516
 11
-73.401207
 21
-99.922508
  0
LINE
  8
0
 10
-109.401230
 20
-146.422485
 11
-109.401230
 21
-86.422508
  0
LINE
  8
0
 10
-34.251198
 20
-136.522491
 11
-34.251198
 21
-137.422516
  0
LINE
  8
0
 10
-42.751198
 20
-136.522522
 11
-42.751198
 21
-137.422516
  0
LINE
  8
0
 10
-123.501236
 20
-98.422493
 11
-125.301224
 21
-98.422493
  0
LINE
  8
0
 10
-42.501198
 20
-123.422508
 11
-42.501198
 21
-95.922493
  0
LINE
  8
0
 10
-42.501198
 20
-123.422493
 11
-44.801216
 21
-123.422493
  0
LINE
  8
0
 10
150.598770
 20
-99.922493
 11
93.698776
 21
-99.922493
  0
LINE
  8
0
 10
150.598801
 20
-132.922485
 11
93.098801
 21
-132.922485
  0
LINE
  8
0
 10
150.598770
 20
-95.622490
 11
93.570541
 21
-95.622490
  0
LINE
  8
0
 10
150.598801
 20
-137.222504
 11
93.570557
 21
-137.222504
  0
LINE
  8
0
 10
42.448784
 20
-92.222496
 11
-1.251240
 21
-92.222496
  0
LINE
  8
0
 10
42.448776
 20
-140.622498
 11
-1.251232
 21
-140.622498
  0
LINE
  8
0
 10
-7.551247
 20
-92.222496
 11
-109.401199
 21
-92.222496
  0
LINE
  8
0
 10
-7.551224
 20
-140.622498
 11
-109.401199
 21
-140.622498
  0
LINE
  8
0
 10
-105.701218
 20
-132.922485
 11
-105.701218
 21
-99.922508
  0
LINE
  8
0
 10
-99.701218
 20
-132.922516
 11
-99.701218
 21
-99.922508
  0
LINE
  8
0
 10
-99.701218
 20
-113.422493
 11
-105.701218
 21
-113.422493
  0
LINE
  8
0
 10
-99.701218
 20
-119.422493
 11
-105.701218
 21
-119.422493
  0
LINE
  8
0
 10
-99.701218
 20
-132.422485
 11
-105.701218
 21
-132.422485
  0
LINE
  8
0
 10
-99.701233
 20
-100.422493
 11
-105.701233
 21
-100.422493
  0
LINE
  8
0
 10
-109.401199
 20
-146.222504
 11
-115.101212
 21
-146.222504
  0
LINE
  8
0
 10
-109.401199
 20
-86.622490
 11
-115.101212
 21
-86.622490
  0
LINE
  8
0
 10
-109.401199
 20
-139.622498
 11
-115.101212
 21
-139.622498
  0
LINE
  8
0
 10
-109.401199
 20
-93.222496
 11
-115.101227
 21
-93.222496
  0
LINE
  8
0
 10
167.498795
 20
-145.522522
 11
167.498795
 21
-136.522491
  0
LINE
  8
0
 10
157.698807
 20
-145.522522
 11
157.698807
 21
-136.522522
  0
LINE
  8
0
 10
94.698776
 20
-97.422493
 11
94.698776
 21
-99.922493
  0
LINE
  8
0
 10
-53.501205
 20
-135.422516
 11
-53.501205
 21
-132.922516
  0
LINE
  8
0
 10
-53.501205
 20
-99.922523
 11
-53.501205
 21
-97.422508
  0
LINE
  8
0
 10
94.698776
 20
-132.922485
 11
94.698776
 21
-135.422485
  0
LINE
  8
0
 10
-52.501205
 20
-132.922485
 11
-109.401230
 21
-132.922485
  0
LINE
  8
0
 10
-51.901222
 20
-99.922493
 11
-109.401230
 21
-99.922493
  0
LINE
  8
0
 10
-52.372971
 20
-95.622490
 11
-109.401230
 21
-95.622490
  0
LINE
  8
0
 10
-52.373009
 20
-137.222504
 11
-109.401230
 21
-137.222504
  0
LINE
  8
0
 10
92.698776
 20
-137.422485
 11
-51.501205
 21
-137.422485
  0
LINE
  8
0
 10
92.698776
 20
-95.422493
 11
-51.501205
 21
-95.422493
  0
LINE
  8
0
 10
91.698776
 20
-136.922485
 11
83.698776
 21
-136.922485
  0
LINE
  8
0
 10
91.698776
 20
-95.922493
 11
85.998764
 21
-95.922493
  0
LINE
  8
0
 10
-44.801216
 20
-136.922485
 11
-50.501205
 21
-136.922485
  0
LINE
  8
0
 10
-42.501205
 20
-95.922493
 11
-50.501205
 21
-95.922493
  0
LINE
  8
0
 10
93.098770
 20
-133.422485
 11
91.698776
 21
-133.422485
  0
LINE
  8
0
 62
     2
 10
93.098770
 20
-132.922485
 11
91.698776
 21
-132.922485
  0
LINE
  8
0
 10
63.098785
 20
-133.422516
 11
79.698792
 21
-133.422516
  0
LINE
  8
0
 62
     2
 10
63.098785
 20
-132.822510
 11
79.698807
 21
-132.822510
  0
LINE
  8
0
 10
-50.901199
 20
-136.422516
 11
-52.233246
 21
-136.422516
  0
LINE
  8
0
 10
-50.501205
 20
-135.922516
 11
-50.901199
 21
-135.922516
  0
LINE
  8
0
 10
-43.801216
 20
-136.922485
 11
-44.801216
 21
-136.922485
  0
LINE
  8
0
 10
92.098740
 20
-96.422493
 11
93.598770
 21
-96.422493
  0
LINE
  8
0
 10
91.698746
 20
-96.922493
 11
92.098740
 21
-96.922493
  0
LINE
  8
0
 10
84.998764
 20
-95.922508
 11
85.998764
 21
-95.922508
  0
LINE
  8
0
 10
-38.501072
 20
-97.922394
 11
-38.858334
 21
-97.303612
  0
LINE
  8
0
 10
-38.858505
 20
-99.613075
 11
-42.501221
 21
-99.613075
  0
LINE
  8
0
 10
-38.858505
 20
-97.303688
 11
-42.501221
 21
-97.303688
  0
LINE
  8
0
 10
-51.901230
 20
-99.422523
 11
-50.501205
 21
-99.422523
  0
LINE
  8
0
 62
     2
 10
-51.901230
 20
-99.922523
 11
-50.501205
 21
-99.922523
  0
LINE
  8
0
 10
-34.001198
 20
-134.422485
 11
-43.801216
 21
-134.422485
  0
LINE
  8
0
 10
-34.251198
 20
-136.522461
 11
-42.751198
 21
-136.522461
  0
LINE
  8
0
 10
-34.501198
 20
-134.422516
 11
-34.501198
 21
-136.522491
  0
LINE
  8
0
 10
-42.501198
 20
-134.422516
 11
-42.501198
 21
-136.522522
  0
LINE
  8
0
 10
-34.251213
 20
-146.422516
 11
-34.251213
 21
-149.622559
  0
LINE
  8
0
 10
-42.751213
 20
-146.422516
 11
-42.751213
 21
-149.622559
  0
LINE
  8
0
 10
75.198776
 20
-98.422523
 11
84.898758
 21
-98.422523
  0
LINE
  8
0
 10
75.448776
 20
-96.322533
 11
83.948776
 21
-96.322533
  0
LINE
  8
0
 10
75.698784
 20
-98.422539
 11
75.698784
 21
-96.322533
  0
LINE
  8
0
 10
83.698776
 20
-98.422539
 11
83.698776
 21
-96.322533
  0
LINE
  8
0
 10
75.448784
 20
-86.422493
 11
75.448784
 21
-83.222450
  0
LINE
  8
0
 10
83.948776
 20
-86.422508
 11
83.948776
 21
-83.222466
  0
LINE
  8
0
 10
79.698807
 20
-126.922417
 11
79.698807
 21
-132.922516
  0
LINE
  8
0
 10
80.056046
 20
-126.303673
 11
83.698776
 21
-126.303673
  0
LINE
  8
0
 10
79.698883
 20
-126.922432
 11
80.056122
 21
-126.303658
  0
LINE
  8
0
 10
80.056046
 20
-128.613068
 11
83.698776
 21
-128.613068
  0
LINE
  8
0
 10
79.698807
 20
-134.922882
 11
79.698807
 21
-127.978264
  0
LINE
  8
0
 10
80.056046
 20
-135.541321
 11
83.698776
 21
-135.541321
  0
LINE
  8
0
 10
80.056046
 20
-133.231903
 11
83.698776
 21
-133.231903
  0
LINE
  8
0
 10
79.698914
 20
-134.922546
 11
80.056175
 21
-135.541321
  0
LINE
  8
0
 10
63.098785
 20
-128.422455
 11
63.098785
 21
-133.422485
  0
LINE
  8
0
 10
-128.001205
 20
-128.422455
 11
-119.101181
 21
-128.422455
  0
LINE
  8
0
 62
     2
 10
-128.001205
 20
-129.022461
 11
-119.101181
 21
-129.022461
  0
LINE
  8
0
 10
-118.743942
 20
-133.231842
 11
-115.101212
 21
-133.231842
  0
LINE
  8
0
 10
-128.001205
 20
-133.422455
 11
-119.101181
 21
-133.422455
  0
LINE
  8
0
 62
     2
 10
-128.001205
 20
-132.822449
 11
-119.101181
 21
-132.822449
  0
LINE
  8
0
 10
-119.101212
 20
-126.922478
 11
-119.101212
 21
-133.866699
  0
LINE
  8
0
 10
-128.001205
 20
-128.422455
 11
-128.001205
 21
-133.422455
  0
LINE
  8
0
 10
-118.743942
 20
-126.303658
 11
-115.101212
 21
-126.303658
  0
LINE
  8
0
 10
-119.101624
 20
-126.922211
 11
-118.744354
 21
-126.303421
  0
LINE
  8
0
 10
-118.743942
 20
-128.613037
 11
-115.101212
 21
-128.613037
  0
LINE
  8
0
 10
-119.101212
 20
-134.922546
 11
-119.101212
 21
-127.978294
  0
LINE
  8
0
 10
-118.743942
 20
-135.541260
 11
-115.101212
 21
-135.541260
  0
LINE
  8
0
 10
-119.101341
 20
-134.922592
 11
-118.744095
 21
-135.541351
  0
LINE
  8
0
 10
150.598801
 20
-146.422485
 11
-109.401215
 21
-146.422485
  0
LINE
  8
0
 10
150.598801
 20
-86.422493
 11
-109.401199
 21
-86.422493
  0
LINE
  8
0
 10
85.998795
 20
-108.922997
 11
91.698807
 21
-108.922997
  0
LINE
  8
0
 10
83.698807
 20
-127.422997
 11
91.698807
 21
-127.422997
  0
LINE
  8
0
 10
-44.801201
 20
-123.922005
 11
-50.501190
 21
-123.922005
  0
LINE
  8
0
 10
-42.501175
 20
-105.422005
 11
-50.501190
 21
-105.422005
  0
LINE
  8
0
 10
-21.901230
 20
-99.422493
 11
-38.501251
 21
-99.422493
  0
LINE
  8
0
 62
     2
 10
-21.901230
 20
-100.022499
 11
-38.501266
 21
-100.022499
  0
LINE
  8
0
 62
     2
 10
-21.901230
 20
-103.822517
 11
-38.501236
 21
-103.822517
  0
LINE
  8
0
 10
-21.901230
 20
-104.422523
 11
-38.501236
 21
-104.422523
  0
LINE
  8
0
 10
-21.901230
 20
-104.422523
 11
-21.901230
 21
-99.422493
  0
LINE
  8
0
 10
84.998764
 20
-107.922478
 11
84.998764
 21
-95.922478
  0
LINE
  8
0
 10
-43.801216
 20
-124.922508
 11
-43.801216
 21
-136.922516
  0
LINE
  8
0
  6
CENTER
 62
     2
 10
40.017960
 20
-91.422508
 11
51.400185
 21
-91.422508
  0
LINE
  8
0
  6
CENTER
 62
     2
 10
45.598770
 20
-85.023415
 11
45.598770
 21
-96.539551
  0
LINE
  8
0
  6
CENTER
 62
     2
 10
40.285774
 20
-141.422516
 11
50.730637
 21
-141.422516
  0
LINE
  8
0
  6
CENTER
 62
     2
 10
45.598770
 20
-134.971313
 11
45.598770
 21
-147.692627
  0
LINE
  8
0
  6
CENTER
 62
     2
 10
-4.401230
 20
-85.023415
 11
-4.401230
 21
-96.539551
  0
LINE
  8
0
  6
CENTER
 62
     2
 10
1.179581
 20
-91.422508
 11
-10.202644
 21
-91.422508
  0
LINE
  8
0
  6
CENTER
 62
     2
 10
-4.401230
 20
-134.971313
 11
-4.401230
 21
-147.692627
  0
LINE
  8
0
  6
CENTER
 62
     2
 10
0.911766
 20
-141.422516
 11
-9.533096
 21
-141.422516
  0
LINE
  8
0
  6
CENTER
 62
     2
 10
-96.090546
 20
-106.422493
 11
-111.465240
 21
-106.422493
  0
LINE
  8
0
  6
CENTER
 62
     2
 10
-95.834305
 20
-126.422493
 11
-110.440262
 21
-126.422493
  0
LINE
  8
0
  6
CENTER
 62
     2
 10
137.288086
 20
-106.422493
 11
152.662781
 21
-106.422493
  0
LINE
  8
0
  6
CENTER
 62
     2
 10
137.031845
 20
-126.422493
 11
151.637802
 21
-126.422493
  0
LINE
  8
0
 62
     4
 10
-109.401260
 20
-89.422409
 11
-109.988876
 21
-89.422409
  0
ARC
  8
0
 10
83.162849
 20
47.322193
 40
2.044656
 50
235.615692
 51
304.384308
  0
ARC
  8
0
 10
76.234642
 20
47.322193
 40
2.044656
 50
235.615692
 51
304.384369
  0
CIRCLE
  8
0
 10
20.598743
 20
68.577576
 40
3.000000
  0
ARC
  8
0
 10
20.598751
 20
117.577576
 40
3.000000
 50
180.000000
 51
0.000000
  0
ARC
  8
0
 10
158.254166
 20
75.613441
 40
2.044655
 50
325.615936
 51
34.384079
  0
ARC
  8
0
 10
152.656082
 20
79.077522
 40
7.642709
 50
342.412079
 51
17.587961
  0
ARC
  8
0
 10
158.254135
 20
82.541664
 40
2.044655
 50
325.615936
 51
34.384079
  0
ARC
  8
0
 10
152.656082
 20
79.077599
 40
7.642721
 50
342.412170
 51
17.588015
  0
ARC
  8
0
 10
160.598816
 20
120.900887
 40
5.776707
 50
69.743835
 51
110.256142
  0
ARC
  8
0
 10
164.598816
 20
120.900887
 40
5.776714
 50
69.743858
 51
110.256165
  0
CIRCLE
  8
0
 10
162.598801
 20
118.677559
 40
2.000000
  0
CIRCLE
  8
0
 10
162.598801
 20
118.677559
 40
5.000000
  0
ARC
  8
0
 62
     2
 10
-33.501198
 20
137.749725
 40
1.827888
 50
99.446442
 51
102.037331
  0
ARC
  8
0
 10
-47.001198
 20
138.777603
 40
0.500001
 50
336.422241
 51
0.000000
  0
ARC
  8
0
 10
-38.501183
 20
134.234863
 40
7.642728
 50
72.412018
 51
107.588005
  0
ARC
  8
0
 10
-41.965279
 20
139.832947
 40
2.044659
 50
55.615746
 51
124.384254
  0
ARC
  8
0
 10
-35.037071
 20
139.832947
 40
2.044657
 50
55.615833
 51
124.384346
  0
ARC
  8
0
 10
-117.056595
 20
111.541710
 40
2.044655
 50
145.615921
 51
214.384079
  0
ARC
  8
0
 10
-111.458511
 20
108.077629
 40
7.642718
 50
162.412064
 51
197.587936
  0
ARC
  8
0
 10
-117.056564
 20
104.613487
 40
2.044655
 50
145.615921
 51
214.384079
  0
ARC
  8
0
 10
-111.458511
 20
108.077553
 40
7.642716
 50
162.412109
 51
197.587967
  0
CIRCLE
  8
0
 62
     2
 10
-4.401257
 20
118.577576
 40
2.000000
  0
CIRCLE
  8
0
 10
-4.401257
 20
118.577576
 40
1.500000
  0
CIRCLE
  8
0
 62
     2
 10
-4.401264
 20
68.577606
 40
2.000000
  0
CIRCLE
  8
0
 10
-4.401264
 20
68.577606
 40
1.500000
  0
ARC
  8
0
 10
-119.401260
 20
66.254234
 40
5.776711
 50
249.743851
 51
290.256165
  0
ARC
  8
0
 10
-123.401260
 20
66.254234
 40
5.776711
 50
249.743851
 51
290.256165
  0
CIRCLE
  8
0
 10
-121.401230
 20
68.477592
 40
2.000000
  0
CIRCLE
  8
0
 10
-121.401230
 20
68.477592
 40
5.000000
  0
ARC
  8
0
 62
     2
 10
74.698769
 20
49.405415
 40
1.827884
 50
279.446472
 51
282.037323
  0
ARC
  8
0
 10
88.198753
 20
48.377533
 40
0.500001
 50
156.422241
 51
180.000000
  0
ARC
  8
0
 10
79.698746
 20
52.920296
 40
7.642724
 50
252.412018
 51
287.587982
  0
CIRCLE
  8
0
 62
     2
 10
45.598797
 20
68.577606
 40
2.000000
  0
CIRCLE
  8
0
 10
45.598797
 20
68.577606
 40
1.500000
  0
CIRCLE
  8
0
 62
     2
 10
45.598804
 20
118.577576
 40
2.000000
  0
CIRCLE
  8
0
 10
45.598804
 20
118.577576
 40
1.500000
  0
CIRCLE
  8
0
 62
     2
 10
-210.035645
 20
103.577583
 40
2.000000
  0
CIRCLE
  8
0
 10
-210.035645
 20
103.577583
 40
1.500000
  0
ARC
  8
0
 10
-191.535645
 20
123.577560
 40
0.500000
 50
180.000000
 51
203.578110
  0
ARC
  8
0
 10
-191.535645
 20
123.577560
 40
0.499994
 50
336.421875
 51
0.000000
  0
ARC
  8
0
 10
-199.035629
 20
79.077545
 40
4.999997
 50
315.572968
 51
224.427109
  0
ARC
  8
0
 10
-206.658142
 20
114.077560
 40
0.500000
 50
90.000000
 51
150.000076
  0
ARC
  8
0
 10
-210.335648
 20
119.577576
 40
4.000000
 50
90.000000
 51
157.668365
  0
CIRCLE
  8
0
 62
     2
 10
-210.035645
 20
83.577553
 40
2.000000
  0
CIRCLE
  8
0
 10
-210.035645
 20
83.577553
 40
1.500000
  0
ARC
  8
0
 10
-206.658112
 20
73.077545
 40
0.500001
 50
209.999924
 51
270.000000
  0
ARC
  8
0
 10
-210.335632
 20
67.577545
 40
4.000000
 50
202.331741
 51
270.000000
  0
ARC
  8
0
 10
-209.833542
 20
76.577545
 40
0.500001
 50
29.999931
 51
90.000000
  0
ARC
  8
0
 10
-209.833557
 20
110.577576
 40
0.500000
 50
270.000000
 51
330.000061
  0
ARC
  8
0
 10
-197.035629
 20
51.054295
 40
5.776711
 50
249.743851
 51
290.256165
  0
ARC
  8
0
 10
-201.035629
 20
51.054295
 40
5.776711
 50
249.743851
 51
290.256165
  0
ARC
  8
0
 10
-199.035614
 20
68.120270
 40
7.642724
 50
252.412018
 51
287.587982
  0
ARC
  8
0
 10
-195.571503
 20
62.522186
 40
2.044652
 50
235.615860
 51
304.384491
  0
ARC
  8
0
 10
-202.499725
 20
62.522186
 40
2.044652
 50
235.615860
 51
304.384552
  0
ARC
  8
0
 10
-190.535614
 20
63.577545
 40
0.499994
 50
156.421890
 51
180.000000
  0
ARC
  8
0
 10
-197.035629
 20
136.100845
 40
5.776714
 50
69.743858
 51
110.256142
  0
ARC
  8
0
 10
-201.035629
 20
136.100845
 40
5.776714
 50
69.743858
 51
110.256142
  0
ARC
  8
0
 10
-199.035614
 20
53.277592
 40
5.000000
 50
128.739548
 51
239.999786
  0
ARC
  8
0
 10
-199.035614
 20
53.277592
 40
5.000002
 50
299.999573
 51
51.260452
  0
CIRCLE
  8
0
 10
-204.550797
 20
77.599762
 40
0.400000
  0
ARC
  8
0
 10
-204.550797
 20
77.599762
 40
0.999998
 50
95.000153
 51
289.038483
  0
ARC
  8
0
 10
-198.735626
 20
79.077545
 40
5.999996
 50
203.818970
 51
233.724777
  0
ARC
  8
0
 10
-198.735626
 20
79.077545
 40
6.000000
 50
299.450317
 51
156.181091
  0
ARC
  8
0
 10
-204.550797
 20
80.555328
 40
0.999997
 50
70.961510
 51
260.521790
  0
CIRCLE
  8
0
 10
-204.550797
 20
80.555328
 40
0.400000
  0
CIRCLE
  8
0
 10
-199.035645
 20
108.077560
 40
2.500000
  0
CIRCLE
  8
0
 62
     2
 10
-199.035645
 20
108.077560
 40
1.800000
  0
CIRCLE
  8
0
 10
-199.035645
 20
108.077560
 40
4.000000
  0
CIRCLE
  8
0
 10
-199.035660
 20
133.377563
 40
5.000000
  0
CIRCLE
  8
0
 10
-199.035660
 20
133.377563
 40
2.000000
  0
ARC
  8
0
 62
     4
 10
-206.585663
 20
64.577484
 40
0.300003
 50
0.000000
 51
90.000000
  0
ARC
  8
0
 62
     4
 10
-204.685699
 20
64.605377
 40
1.827885
 50
196.785873
 51
260.553528
  0
ARC
  8
0
 62
     4
 10
-203.185699
 20
68.077484
 40
1.499997
 50
119.996025
 51
240.003967
  0
ARC
  8
0
 62
     4
 10
-204.685699
 20
64.605377
 40
1.827884
 50
279.446472
 51
304.346313
  0
CIRCLE
  8
0
 62
     4
 10
-59.354446
 20
-21.572456
 40
1.750000
  0
CIRCLE
  8
0
 10
79.698830
 20
-15.922452
 40
4.900000
  0
CIRCLE
  8
0
 10
79.698830
 20
-15.922452
 40
4.000000
  0
CIRCLE
  8
0
 10
79.698830
 20
-15.922452
 40
2.500000
  0
ARC
  8
0
 10
154.522079
 20
-17.922474
 40
5.776651
 50
339.743805
 51
20.256411
  0
ARC
  8
0
 10
154.522079
 20
-13.922475
 40
5.776652
 50
339.743774
 51
20.256411
  0
CIRCLE
  8
0
 10
-121.401230
 20
-15.922438
 40
2.500000
  0
CIRCLE
  8
0
 10
-121.401230
 20
-15.922438
 40
4.900000
  0
CIRCLE
  8
0
 10
-121.401230
 20
-15.922438
 40
4.000000
  0
ARC
  8
0
 10
79.698853
 20
-75.765221
 40
7.642725
 50
72.412071
 51
107.588104
  0
ARC
  8
0
 10
83.162964
 20
-70.167152
 40
2.044659
 50
55.615746
 51
124.384377
  0
ARC
  8
0
 10
76.234741
 20
-70.167152
 40
2.044659
 50
55.615746
 51
124.384377
  0
ARC
  8
0
 62
     2
 10
74.698853
 20
-72.250389
 40
1.827888
 50
77.962715
 51
80.553558
  0
ARC
  8
0
 10
164.598770
 20
-143.745789
 40
5.776714
 50
249.743866
 51
290.256134
  0
ARC
  8
0
 10
160.598770
 20
-143.745789
 40
5.776714
 50
249.743866
 51
290.256287
  0
ARC
  8
0
 10
152.656021
 20
-101.922569
 40
7.642709
 50
342.412079
 51
17.588015
  0
ARC
  8
0
 10
158.254074
 20
-98.458382
 40
2.044655
 50
325.615936
 51
34.384079
  0
ARC
  8
0
 10
152.656021
 20
-101.922478
 40
7.642721
 50
342.412170
 51
17.588015
  0
ARC
  8
0
 10
158.254074
 20
-105.386620
 40
2.044655
 50
325.615936
 51
34.384079
  0
CIRCLE
  8
0
 10
45.598785
 20
-91.422508
 40
3.250000
  0
CIRCLE
  8
0
 10
45.598770
 20
-141.422516
 40
3.250000
  0
CIRCLE
  8
0
 10
45.598785
 20
-91.422508
 40
1.650000
  0
CIRCLE
  8
0
 10
45.598770
 20
-141.422516
 40
1.650000
  0
ARC
  8
0
 10
-47.001205
 20
-161.622528
 40
0.500000
 50
0.000000
 51
23.577766
  0
ARC
  8
0
 10
-38.501198
 20
-157.079803
 40
7.642726
 50
252.412048
 51
287.588013
  0
ARC
  8
0
 10
-41.965317
 20
-162.677872
 40
2.044659
 50
235.615753
 51
304.384247
  0
ARC
  8
0
 10
-35.037094
 20
-162.677872
 40
2.044659
 50
235.615753
 51
304.384247
  0
ARC
  8
0
 62
     2
 10
-33.501190
 20
-160.594635
 40
1.827881
 50
257.962677
 51
260.553558
  0
ARC
  8
0
 10
-40.545883
 20
-105.386665
 40
2.044655
 50
325.615936
 51
34.384140
  0
ARC
  8
0
 10
-46.143936
 20
-101.922523
 40
7.642714
 50
342.411682
 51
17.588015
  0
ARC
  8
0
 10
-123.401215
 20
-89.099236
 40
5.776707
 50
69.743835
 51
110.256165
  0
ARC
  8
0
 10
-119.401215
 20
-89.099236
 40
5.776714
 50
69.743858
 51
110.256233
  0
ARC
  8
0
 10
92.698776
 20
-135.422485
 40
2.000000
 50
270.000000
 51
0.000000
  0
ARC
  8
0
 10
-51.501205
 20
-135.422516
 40
2.000000
 50
180.000000
 51
270.000000
  0
ARC
  8
0
 10
92.698792
 20
-97.422508
 40
2.000000
 50
0.000000
 51
90.000000
  0
ARC
  8
0
 10
-51.501205
 20
-97.422493
 40
2.000000
 50
90.000000
 51
180.000000
  0
ARC
  8
0
 10
-40.545891
 20
-98.458382
 40
2.044655
 50
325.615936
 51
34.384140
  0
ARC
  8
0
 10
81.743454
 20
-127.458351
 40
2.044655
 50
145.615921
 51
214.384247
  0
ARC
  8
0
 10
87.341476
 20
-130.922485
 40
7.642720
 50
162.411636
 51
197.588379
  0
ARC
  8
0
 10
81.743454
 20
-134.386627
 40
2.044655
 50
145.615921
 51
214.384079
  0
ARC
  8
0
 10
-117.056534
 20
-127.458382
 40
2.044655
 50
145.615921
 51
214.384247
  0
ARC
  8
0
 10
-111.458481
 20
-130.922455
 40
7.642716
 50
162.412109
 51
197.588013
  0
ARC
  8
0
 10
-117.056534
 20
-134.386597
 40
2.044655
 50
145.615921
 51
214.384079
  0
ARC
  8
0
 10
-111.458481
 20
-130.922516
 40
7.642716
 50
162.412109
 51
197.588013
  0
CIRCLE
  8
0
 10
-4.401245
 20
-91.422508
 40
3.250000
  0
CIRCLE
  8
0
 10
-4.401245
 20
-91.422508
 40
1.650000
  0
CIRCLE
  8
0
 10
-4.401230
 20
-141.422516
 40
3.250000
  0
CIRCLE
  8
0
 10
-4.401230
 20
-141.422516
 40
1.650000
  0
TEXT
  8
0
 10
174.200241
 20
180.830002
 40
6.300000
  1
DATE: MAY ,1993
 50
0.000000
 41
1.052632
 51
0.000000
  7
STANDARD
  0
TEXT
  8
0
 10
167.564667
 20
-192.100006
 40
9.000000
  1
KOGANEI CORP.
 50
0.000000
 41
1.052632
 51
0.000000
  7
STANDARD
  0
TEXT
  8
0
 10
-269.149719
 20
180.830002
 40
6.300000
  1
HANDLING MODULE
 50
0.000000
 41
1.052632
 51
0.000000
  7
STANDARD
  0
TEXT
  8
0
 10
-270.049713
 20
155.830002
 40
6.300000
  1
MODEL:SHM72S-ML
 50
0.000000
 41
1.052632
 51
0.000000
  7
STANDARD
  0
ENDSEC
  0
EOF
