  0
SECTION
  2
HEADER
  0
ENDSEC
  0
SECTION
  2
TABLES
  0
TABLE
  2
LTYPE
 70
     4
  0
LTYPE
  2
CONTINUOUS
 70
    64
  3
Solid line
 72
    65
 73
     0
 40
0.000000
  0
LTYPE
  2
DASHED
 70
    64
  3
__ __ __ __ __ __ __ __ __ __ __ __ __ __ __
 72
    65
 73
     2
 40
3.500000
 49
2.000000
 49
-1.500000
  0
LTYPE
  2
CENTER
 70
    64
  3
____ _ ____ _ ____ _ ____ _ ____ _ ____ _ ____
 72
    65
 73
     4
 40
17.500000
 49
13.000000
 49
-1.500000
 49
1.500000
 49
-1.500000
  0
LTYPE
  2
PHANTOM
 70
    64
  3
_____ _ _ _____ _ _ _____ _ _ _____ _ _ ____  
 72
    65
 73
     6
 40
15.500000
 49
8.000000
 49
-1.500000
 49
1.500000
 49
-1.500000
 49
1.500000
 49
-1.500000
  0
LTYPE
  2
DASHED1
 70
    64
  3
__ __ __ __ __ __ __ __ __ __ __ __ __ __ __
 72
    65
 73
     2
 40
1.500000
 49
1.000000
 49
-0.500000
  0
LTYPE
  2
DASHED2
 70
    64
  3
__ __ __ __ __ __ __ __ __ __ __ __ __ __ __
 72
    65
 73
     2
 40
3.500000
 49
2.500000
 49
-1.000000
  0
LTYPE
  2
DASHED3
 70
    64
  3
__ __ __ __ __ __ __ __ __ __ __ __ __ __ __
 72
    65
 73
     2
 40
6.000000
 49
4.000000
 49
-2.000000
  0
LTYPE
  2
DASHED4
 70
    64
  3
__ __ __ __ __ __ __ __ __ __ __ __ __ __ __
 72
    65
 73
     2
 40
12.000000
 49
10.000000
 49
-2.000000
  0
LTYPE
  2
DASHED5
 70
    64
  3
__ __ __ __ __ __ __ __ __ __ __ __ __ __ __
 72
    65
 73
     2
 40
17.000000
 49
15.000000
 49
-2.000000
  0
LTYPE
  2
DASHED6
 70
    64
  3
__ __ __ __ __ __ __ __ __ __ __ __ __ __ __
 72
    65
 73
     2
 40
29.000000
 49
27.000000
 49
-2.000000
  0
LTYPE
  2
PHANTOM1
 70
    64
  3
_____ _ _ _____ _ _ _____ _ _ _____ _ _ ____  
 72
    65
 73
     6
 40
31.000000
 49
25.000000
 49
-1.500000
 49
1.000000
 49
-1.000000
 49
1.000000
 49
-1.500000
  0
LTYPE
  2
PHANTOM2
 70
    64
  3
_____ _ _ _____ _ _ _____ _ _ _____ _ _ ____  
 72
    65
 73
     6
 40
36.000000
 49
27.000000
 49
-1.500000
 49
2.500000
 49
-1.000000
 49
2.500000
 49
-1.500000
  0
LTYPE
  2
PHANTOM3
 70
    64
  3
_____ _ _ _____ _ _ _____ _ _ _____ _ _ ____  
 72
    65
 73
     6
 40
78.000000
 49
64.000000
 49
-2.000000
 49
4.000000
 49
-2.000000
 49
4.000000
 49
-2.000000
  0
LTYPE
  2
CENTER1
 70
    64
  3
____ _ ____ _ ____ _ ____ _ ____ _ ____ _ ____
 72
    65
 73
     4
 40
19.000000
 49
14.000000
 49
-1.000000
 49
3.000000
 49
-1.000000
  0
LTYPE
  2
CENTER2
 70
    64
  3
____ _ ____ _ ____ _ ____ _ ____ _ ____ _ ____
 72
    65
 73
     4
 40
28.500000
 49
25.000000
 49
-1.000000
 49
1.500000
 49
-1.000000
  0
LTYPE
  2
CENTER3
 70
    64
  3
____ _ ____ _ ____ _ ____ _ ____ _ ____ _ ____
 72
    65
 73
     4
 40
31.500000
 49
27.000000
 49
-1.000000
 49
2.500000
 49
-1.000000
  0
LTYPE
  2
CENTER4
 70
    64
  3
____ _ ____ _ ____ _ ____ _ ____ _ ____ _ ____
 72
    65
 73
     4
 40
50.000000
 49
45.000000
 49
-1.000000
 49
3.000000
 49
-1.000000
  0
LTYPE
  2
CENTER5
 70
    64
  3
____ _ ____ _ ____ _ ____ _ ____ _ ____ _ ____
 72
    65
 73
     4
 40
100.000000
 49
92.000000
 49
-2.000000
 49
4.000000
 49
-2.000000
  0
LTYPE
  2
SBK1
 70
    64
  3
______ _ _ _ ______ _ _ _ ______ _ _ _ _____  
 72
    65
 73
     8
 40
60.500000
 49
45.000000
 49
-2.000000
 49
2.500000
 49
-2.000000
 49
2.500000
 49
-2.000000
 49
2.500000
 49
-2.000000
  0
LTYPE
  2
SBK2
 70
    64
  3
______ _ _ _ ______ _ _ _ ______ _ _ _ _____  
 72
    65
 73
     8
 40
84.000000
 49
64.000000
 49
-2.000000
 49
4.000000
 49
-2.000000
 49
4.000000
 49
-2.000000
 49
4.000000
 49
-2.000000
  0
LTYPE
  2
STCH
 70
    64
  3
__ __ __ __ __ __ __ __ __ __ __ __ __ __ __
 72
    65
 73
     2
 40
3.000000
 49
1.000000
 49
-2.000000
  0
LTYPE
  2
MTCH
 70
    64
  3
_____ _ _ _____ _ _ _____ _ _ _____ _ _ ____  
 72
    65
 73
     6
 40
80.000000
 49
66.000000
 49
-2.000000
 49
4.000000
 49
-2.000000
 49
4.000000
 49
-2.000000
  0
ENDTAB
  0
TABLE
  2
LAYER
 70
     1
  0
LAYER
  2
0
 70
     0
 62
     7
  6
CONTINUOUS
  0
ENDTAB
  0
TABLE
  2
STYLE
 70
     1
  0
STYLE
  2
STANDARD
 70
     0
 40
0.000000
 41
1.000000
 50
0.000000
 71
     0
 42
0.200000
  3
txt
  4
BIGFONT
  0
ENDTAB
  0
TABLE
  2
VIEW
 70
     0
  0
ENDTAB
  0
ENDSEC
  0
SECTION
  2
BLOCKS
  0
ENDSEC
  0
SECTION
  2
ENTITIES
  0
LINE
  8
0
 10
-281.250000
 20
195.500000
 11
282.099976
 21
195.500000
  0
LINE
  8
0
 10
-281.250000
 20
195.500000
 11
-281.250000
 21
-195.000000
  0
LINE
  8
0
 10
282.099976
 20
195.500000
 11
282.099976
 21
-195.000000
  0
LINE
  8
0
 10
-281.250000
 20
-195.000000
 11
282.099976
 21
-195.000000
  0
LINE
  8
0
 10
162.099976
 20
-175.000000
 11
162.099976
 21
-195.000000
  0
LINE
  8
0
 10
162.099976
 20
-175.000000
 11
282.099976
 21
-175.000000
  0
LINE
  8
0
 10
162.099976
 20
175.500000
 11
282.099976
 21
175.500000
  0
LINE
  8
0
 10
-281.250000
 20
175.500000
 11
-161.250000
 21
175.500000
  0
LINE
  8
0
 10
162.099976
 20
195.500000
 11
162.099976
 21
175.500000
  0
LINE
  8
0
 10
-161.250000
 20
195.500000
 11
-161.250000
 21
175.500000
  0
LINE
  8
0
  6
CENTER
 62
     2
 10
11.975037
 20
50.750992
 11
11.975037
 21
125.523689
  0
LINE
  8
0
 10
8.975029
 20
117.485909
 11
8.975029
 21
111.485909
  0
LINE
  8
0
 10
14.975021
 20
117.485909
 11
14.975021
 21
111.485909
  0
LINE
  8
0
  6
CENTER
 62
     2
 10
104.857178
 20
87.485909
 11
-80.868607
 21
87.485909
  0
LINE
  8
0
 10
97.675079
 20
57.685883
 11
97.675079
 21
117.285866
  0
LINE
  8
0
 10
91.975082
 20
57.485905
 11
91.975082
 21
117.485855
  0
LINE
  8
0
 10
97.675087
 20
57.685936
 11
91.975075
 21
57.685936
  0
LINE
  8
0
 10
97.675087
 20
117.285927
 11
91.975090
 21
117.285927
  0
LINE
  8
0
 10
110.575073
 20
75.485947
 11
101.675064
 21
75.485947
  0
LINE
  8
0
 62
     2
 10
110.575089
 20
74.885941
 11
101.675064
 21
74.885941
  0
LINE
  8
0
 10
101.317825
 20
70.676544
 11
97.675095
 21
70.676544
  0
LINE
  8
0
 10
110.575073
 20
70.485931
 11
101.675064
 21
70.485931
  0
LINE
  8
0
 62
     2
 10
110.575089
 20
71.085937
 11
101.675064
 21
71.085937
  0
LINE
  8
0
 10
101.675064
 20
76.985939
 11
101.675064
 21
70.041695
  0
LINE
  8
0
 10
110.575073
 20
75.485924
 11
110.575073
 21
70.485909
  0
LINE
  8
0
 10
101.317810
 20
77.604736
 11
97.675079
 21
77.604736
  0
LINE
  8
0
 10
101.675423
 20
76.986046
 11
101.318161
 21
77.604820
  0
LINE
  8
0
 10
101.317825
 20
75.295334
 11
97.675095
 21
75.295334
  0
LINE
  8
0
 10
101.675064
 20
68.985863
 11
101.675064
 21
75.930092
  0
LINE
  8
0
 10
101.317825
 20
68.367142
 11
97.675095
 21
68.367142
  0
LINE
  8
0
 10
101.675896
 20
68.985413
 11
101.318642
 21
68.366631
  0
LINE
  8
0
 10
108.475067
 20
105.485939
 11
108.475067
 21
96.985901
  0
LINE
  8
0
 10
98.675064
 20
96.985924
 11
108.475067
 21
96.985924
  0
LINE
  8
0
 10
106.475075
 20
133.085907
 11
101.475082
 21
133.085907
  0
LINE
  8
0
 10
101.475067
 20
133.085876
 11
101.475067
 21
129.085876
  0
LINE
  8
0
 10
106.475067
 20
133.085876
 11
106.475067
 21
129.085876
  0
LINE
  8
0
 10
106.475075
 20
129.085907
 11
101.475082
 21
129.085907
  0
LINE
  8
0
 10
107.875076
 20
106.085930
 11
100.075073
 21
106.085930
  0
LINE
  8
0
 10
107.975105
 20
120.585915
 11
99.975098
 21
120.585915
  0
LINE
  8
0
 10
107.975075
 20
121.385902
 11
99.975082
 21
121.385902
  0
LINE
  8
0
 10
107.975075
 20
123.885887
 11
99.975082
 21
123.885887
  0
LINE
  8
0
 10
99.975067
 20
123.885880
 11
99.975067
 21
121.385880
  0
LINE
  8
0
 10
107.975067
 20
123.885872
 11
107.975067
 21
121.385872
  0
LINE
  8
0
 10
101.475067
 20
121.385902
 11
101.475067
 21
120.585915
  0
LINE
  8
0
 10
106.475067
 20
121.385902
 11
106.475067
 21
120.585915
  0
LINE
  8
0
 10
105.475067
 20
129.085907
 11
105.475067
 21
123.885902
  0
LINE
  8
0
 10
102.475067
 20
129.085907
 11
102.475067
 21
123.885902
  0
LINE
  8
0
 62
     2
 10
102.745575
 20
129.085907
 11
102.745575
 21
123.885902
  0
LINE
  8
0
 62
     2
 10
105.204559
 20
129.085907
 11
105.204559
 21
123.885902
  0
LINE
  8
0
 10
100.725067
 20
107.585915
 11
100.725067
 21
106.085915
  0
LINE
  8
0
 10
107.225067
 20
107.585945
 11
107.225067
 21
106.085945
  0
LINE
  8
0
 10
100.075073
 20
106.085915
 11
100.075073
 21
105.485909
  0
LINE
  8
0
 10
107.875061
 20
106.085945
 11
107.875061
 21
105.485939
  0
LINE
  8
0
 10
108.875084
 20
116.585915
 11
106.975090
 21
116.585915
  0
LINE
  8
0
 10
108.875076
 20
107.585930
 11
99.075089
 21
107.585930
  0
LINE
  8
0
 10
99.975067
 20
120.585922
 11
99.975067
 21
116.585915
  0
LINE
  8
0
 10
107.975067
 20
120.585915
 11
107.975067
 21
116.585915
  0
LINE
  8
0
 10
103.975067
 20
120.228645
 11
103.975067
 21
117.585884
  0
LINE
  8
0
 10
99.075073
 20
116.585915
 11
99.075073
 21
113.580910
  0
LINE
  8
0
 10
108.875061
 20
116.585915
 11
108.875061
 21
113.580910
  0
LINE
  8
0
 10
108.475067
 20
105.485939
 11
108.475067
 21
104.165329
  0
LINE
  8
0
 10
98.675064
 20
106.985924
 11
99.575073
 21
106.985924
  0
LINE
  8
0
 10
98.675049
 20
93.485909
 11
97.675049
 21
93.485909
  0
LINE
  8
0
 10
98.675064
 20
110.485893
 11
97.675064
 21
110.485893
  0
LINE
  8
0
 10
98.675064
 20
110.485878
 11
98.675064
 21
93.485886
  0
LINE
  8
0
 10
99.575073
 20
106.985909
 11
99.575073
 21
105.485909
  0
LINE
  8
0
 10
99.575073
 20
105.485924
 11
108.475082
 21
105.485924
  0
LINE
  8
0
 10
108.875061
 20
111.590889
 11
108.875061
 21
107.585945
  0
LINE
  8
0
 10
99.075073
 20
111.590858
 11
99.075073
 21
107.585915
  0
LINE
  8
0
 10
100.975060
 20
116.585915
 11
99.075096
 21
116.585915
  0
LINE
  8
0
 10
5.175056
 20
131.785950
 11
5.175056
 21
135.431610
  0
LINE
  8
0
 10
-0.695624
 20
120.685951
 11
6.445795
 21
120.685951
  0
LINE
  8
0
 10
-2.024956
 20
131.785934
 11
-2.024956
 21
131.185928
  0
LINE
  8
0
 10
7.775047
 20
131.785889
 11
7.775047
 21
122.785912
  0
LINE
  8
0
 10
7.775079
 20
122.785957
 11
-2.024908
 21
122.785957
  0
LINE
  8
0
 10
7.775088
 20
131.785950
 11
-2.024907
 21
131.785950
  0
LINE
  8
0
 10
2.875086
 20
128.485931
 11
-4.624914
 21
128.485931
  0
LINE
  8
0
 10
2.875086
 20
127.085960
 11
-4.624914
 21
127.085960
  0
LINE
  8
0
 10
-2.024739
 20
131.186035
 11
-0.724746
 21
128.486053
  0
LINE
  8
0
 10
-2.025122
 20
124.386009
 11
-0.725101
 21
127.086060
  0
LINE
  8
0
 10
-2.024956
 20
124.385941
 11
-2.024956
 21
122.785934
  0
LINE
  8
0
 10
-4.624912
 20
132.685944
 11
-8.924892
 21
132.685944
  0
LINE
  8
0
 10
-11.824944
 20
132.785934
 11
-11.824944
 21
122.785934
  0
LINE
  8
0
 10
-10.224937
 20
132.785934
 11
-10.224937
 21
122.785934
  0
LINE
  8
0
 10
-2.024907
 20
131.185944
 11
-3.124913
 21
131.185944
  0
LINE
  8
0
 10
-4.624947
 20
132.685928
 11
-4.624947
 21
122.885941
  0
LINE
  8
0
 10
-3.124947
 20
131.185928
 11
-3.124947
 21
128.485947
  0
LINE
  8
0
 10
-8.924950
 20
132.685928
 11
-8.924950
 21
122.885941
  0
LINE
  8
0
 10
-10.224880
 20
132.785950
 11
-11.824886
 21
132.785950
  0
LINE
  8
0
 10
-10.224892
 20
122.785957
 11
-11.824898
 21
122.785957
  0
LINE
  8
0
 10
-4.624916
 20
122.885948
 11
-8.924904
 21
122.885948
  0
LINE
  8
0
 10
-2.024908
 20
124.385948
 11
-3.124914
 21
124.385948
  0
LINE
  8
0
 10
-8.924887
 20
131.035950
 11
-10.224874
 21
131.035950
  0
LINE
  8
0
 10
-8.924904
 20
124.535957
 11
-10.224892
 21
124.535957
  0
LINE
  8
0
 10
-3.124947
 20
127.085922
 11
-3.124947
 21
124.385941
  0
LINE
  8
0
 10
-4.624879
 20
132.685913
 11
-3.124877
 21
131.185913
  0
LINE
  8
0
 10
-4.624860
 20
122.885849
 11
-3.124872
 21
124.385841
  0
LINE
  8
0
 10
6.775079
 20
121.285957
 11
-1.024909
 21
121.285957
  0
LINE
  8
0
 10
7.125085
 20
120.685951
 11
-1.374915
 21
120.685951
  0
LINE
  8
0
 10
-0.374947
 20
122.785927
 11
-0.374947
 21
121.285927
  0
LINE
  8
0
 10
6.125053
 20
122.785927
 11
6.125053
 21
121.285927
  0
LINE
  8
0
 10
-1.024940
 20
121.285934
 11
-1.024940
 21
120.685928
  0
LINE
  8
0
 10
6.775047
 20
121.285927
 11
6.775047
 21
120.685921
  0
LINE
  8
0
 10
5.375068
 20
148.285950
 11
0.375069
 21
148.285950
  0
LINE
  8
0
 10
0.375053
 20
148.285950
 11
0.375053
 21
144.285950
  0
LINE
  8
0
 10
5.375053
 20
148.285950
 11
5.375053
 21
144.285950
  0
LINE
  8
0
 10
5.375068
 20
144.285950
 11
0.375068
 21
144.285950
  0
LINE
  8
0
 10
6.339206
 20
135.785950
 11
-0.589024
 21
135.785950
  0
LINE
  8
0
 10
6.875065
 20
136.585937
 11
-1.124950
 21
136.585937
  0
LINE
  8
0
 10
6.875065
 20
139.085937
 11
-1.124950
 21
139.085937
  0
LINE
  8
0
 10
-1.124962
 20
139.085953
 11
-1.124962
 21
136.585953
  0
LINE
  8
0
 10
6.875053
 20
139.085937
 11
6.875053
 21
136.585937
  0
LINE
  8
0
 10
-1.743767
 20
135.428665
 11
-1.743767
 21
131.785934
  0
LINE
  8
0
 10
0.565666
 20
135.428650
 11
0.565666
 21
131.785919
  0
LINE
  8
0
 10
7.493858
 20
135.428619
 11
7.493858
 21
131.785889
  0
LINE
  8
0
 10
0.375053
 20
136.585907
 11
0.375053
 21
135.785919
  0
LINE
  8
0
 10
5.375053
 20
136.585907
 11
5.375053
 21
135.785919
  0
LINE
  8
0
 10
4.375053
 20
144.285919
 11
4.375053
 21
139.085907
  0
LINE
  8
0
 10
1.375053
 20
144.285919
 11
1.375053
 21
139.085907
  0
LINE
  8
0
 62
     2
 10
1.645561
 20
144.285919
 11
1.645561
 21
139.085907
  0
LINE
  8
0
 62
     2
 10
4.104546
 20
144.285919
 11
4.104546
 21
139.085907
  0
LINE
  8
0
 10
-1.374962
 20
117.485909
 11
-1.374962
 21
120.685928
  0
LINE
  8
0
 10
7.125038
 20
117.485893
 11
7.125038
 21
120.685905
  0
LINE
  8
0
 10
-73.724976
 20
117.285927
 11
-73.724976
 21
57.685928
  0
LINE
  8
0
 10
-68.024994
 20
117.485901
 11
-68.024994
 21
57.485943
  0
LINE
  8
0
 10
-73.724998
 20
117.285896
 11
-68.024986
 21
117.285896
  0
LINE
  8
0
 10
-73.724983
 20
57.685905
 11
-68.025002
 21
57.685905
  0
LINE
  8
0
 10
-86.624969
 20
99.485893
 11
-77.724976
 21
99.485893
  0
LINE
  8
0
 62
     2
 10
-86.625000
 20
100.085899
 11
-77.724976
 21
100.085899
  0
LINE
  8
0
 10
-77.367737
 20
104.295296
 11
-73.725006
 21
104.295296
  0
LINE
  8
0
 10
-86.624969
 20
104.485893
 11
-77.724976
 21
104.485893
  0
LINE
  8
0
 62
     2
 10
-86.625000
 20
103.885887
 11
-77.724976
 21
103.885887
  0
LINE
  8
0
 10
-77.724976
 20
97.985886
 11
-77.724976
 21
104.930130
  0
LINE
  8
0
 10
-86.624969
 20
99.485916
 11
-86.624969
 21
104.485916
  0
LINE
  8
0
 10
-77.367706
 20
97.367104
 11
-73.724976
 21
97.367104
  0
LINE
  8
0
 10
-77.725227
 20
97.985786
 11
-77.367989
 21
97.367027
  0
LINE
  8
0
 10
-77.367737
 20
99.676506
 11
-73.725006
 21
99.676506
  0
LINE
  8
0
 10
-77.724976
 20
105.985970
 11
-77.724976
 21
99.041733
  0
LINE
  8
0
 10
-77.367737
 20
106.604683
 11
-73.725006
 21
106.604683
  0
LINE
  8
0
 10
-77.725945
 20
105.986534
 11
-77.368690
 21
106.605309
  0
LINE
  8
0
 10
-84.524963
 20
69.485893
 11
-84.524963
 21
77.985939
  0
LINE
  8
0
 10
-74.724976
 20
77.985916
 11
-84.524963
 21
77.985916
  0
LINE
  8
0
 10
-82.524971
 20
41.885925
 11
-77.524971
 21
41.885925
  0
LINE
  8
0
 10
-77.524963
 20
41.885948
 11
-77.524963
 21
45.885948
  0
LINE
  8
0
 10
-82.524963
 20
41.885948
 11
-82.524963
 21
45.885948
  0
LINE
  8
0
 10
-82.524971
 20
45.885925
 11
-77.524971
 21
45.885925
  0
LINE
  8
0
 10
-83.924957
 20
68.885910
 11
-76.124969
 21
68.885910
  0
LINE
  8
0
 10
-84.025002
 20
54.385918
 11
-76.025002
 21
54.385918
  0
LINE
  8
0
 10
-84.024971
 20
53.585930
 11
-76.024971
 21
53.585930
  0
LINE
  8
0
 10
-84.024971
 20
51.085945
 11
-76.024971
 21
51.085945
  0
LINE
  8
0
 10
-76.024963
 20
51.085964
 11
-76.024963
 21
53.585949
  0
LINE
  8
0
 10
-84.024963
 20
51.085968
 11
-84.024963
 21
53.585953
  0
LINE
  8
0
 10
-77.524963
 20
53.585899
 11
-77.524963
 21
54.385887
  0
LINE
  8
0
 10
-82.524963
 20
53.585899
 11
-82.524963
 21
54.385887
  0
LINE
  8
0
 10
-81.524963
 20
45.885887
 11
-81.524963
 21
51.085899
  0
LINE
  8
0
 10
-78.524963
 20
45.885887
 11
-78.524963
 21
51.085899
  0
LINE
  8
0
 62
     2
 10
-78.795471
 20
45.885887
 11
-78.795471
 21
51.085899
  0
LINE
  8
0
 62
     2
 10
-81.254456
 20
45.885887
 11
-81.254456
 21
51.085899
  0
LINE
  8
0
 10
-76.774963
 20
67.385887
 11
-76.774963
 21
68.885887
  0
LINE
  8
0
 10
-83.274963
 20
67.385887
 11
-83.274963
 21
68.885887
  0
LINE
  8
0
 10
-76.124969
 20
68.885887
 11
-76.124969
 21
69.485893
  0
LINE
  8
0
 10
-83.924957
 20
68.885887
 11
-83.924957
 21
69.485893
  0
LINE
  8
0
 10
-84.924995
 20
58.385918
 11
-83.025002
 21
58.385918
  0
LINE
  8
0
 10
-84.924957
 20
67.385910
 11
-75.124969
 21
67.385910
  0
LINE
  8
0
 10
-76.024963
 20
54.385891
 11
-76.024963
 21
58.385895
  0
LINE
  8
0
 10
-84.024963
 20
54.385887
 11
-84.024963
 21
58.385887
  0
LINE
  8
0
 10
-80.024963
 20
54.743156
 11
-80.024963
 21
57.385933
  0
LINE
  8
0
 10
-75.124969
 20
58.385895
 11
-75.124969
 21
61.390907
  0
LINE
  8
0
 10
-84.924957
 20
58.385887
 11
-84.924957
 21
61.390907
  0
LINE
  8
0
 10
-84.524963
 20
69.485893
 11
-84.524963
 21
70.806496
  0
LINE
  8
0
 10
-74.724976
 20
67.985916
 11
-75.624969
 21
67.985916
  0
LINE
  8
0
 10
-74.724945
 20
81.485931
 11
-73.724945
 21
81.485931
  0
LINE
  8
0
 10
-74.724945
 20
64.485931
 11
-73.724945
 21
64.485931
  0
LINE
  8
0
 10
-74.724976
 20
64.485924
 11
-74.724976
 21
81.485939
  0
LINE
  8
0
 10
-75.624969
 20
67.985909
 11
-75.624969
 21
69.485909
  0
LINE
  8
0
 10
-75.624969
 20
69.485916
 11
-84.524963
 21
69.485916
  0
LINE
  8
0
 10
-84.924957
 20
63.380943
 11
-84.924957
 21
67.385887
  0
LINE
  8
0
 10
-75.124969
 20
63.380943
 11
-75.124969
 21
67.385887
  0
LINE
  8
0
 10
-77.024971
 20
58.385918
 11
-75.125008
 21
58.385918
  0
LINE
  8
0
 10
91.975090
 20
71.985916
 11
-68.024963
 21
71.985916
  0
LINE
  8
0
 10
91.975098
 20
102.985909
 11
-68.024963
 21
102.985909
  0
LINE
  8
0
 10
-68.024956
 20
117.485893
 11
91.975105
 21
117.485893
  0
LINE
  8
0
 10
-68.025002
 20
57.485909
 11
91.975082
 21
57.485909
  0
LINE
  8
0
 10
18.775032
 20
43.185898
 11
18.775032
 21
39.540207
  0
LINE
  8
0
 10
24.645729
 20
54.285896
 11
17.504309
 21
54.285896
  0
LINE
  8
0
 10
25.975044
 20
43.185894
 11
25.975044
 21
43.785900
  0
LINE
  8
0
 10
16.175041
 20
43.185928
 11
16.175041
 21
52.185921
  0
LINE
  8
0
 10
16.175024
 20
52.185890
 11
25.975012
 21
52.185890
  0
LINE
  8
0
 10
16.175014
 20
43.185898
 11
25.975010
 21
43.185898
  0
LINE
  8
0
 10
21.075022
 20
46.485901
 11
28.575018
 21
46.485901
  0
LINE
  8
0
 10
21.075022
 20
47.885887
 11
28.575018
 21
47.885887
  0
LINE
  8
0
 10
25.974802
 20
43.785816
 11
24.674816
 21
46.485779
  0
LINE
  8
0
 10
25.975155
 20
50.585831
 11
24.675137
 21
47.885796
  0
LINE
  8
0
 10
25.975044
 20
50.585888
 11
25.975044
 21
52.185894
  0
LINE
  8
0
 10
28.575016
 20
42.285904
 11
32.874996
 21
42.285904
  0
LINE
  8
0
 10
35.775032
 20
42.185894
 11
35.775032
 21
52.185894
  0
LINE
  8
0
 10
34.175026
 20
42.185894
 11
34.175026
 21
52.185894
  0
LINE
  8
0
 10
25.975010
 20
43.785904
 11
27.075016
 21
43.785904
  0
LINE
  8
0
 10
28.575035
 20
42.285900
 11
28.575035
 21
52.085888
  0
LINE
  8
0
 10
27.075035
 20
43.785900
 11
27.075035
 21
46.485882
  0
LINE
  8
0
 10
32.875038
 20
42.285900
 11
32.875038
 21
52.085888
  0
LINE
  8
0
 10
34.174984
 20
42.185898
 11
35.774990
 21
42.185898
  0
LINE
  8
0
 10
34.174995
 20
52.185890
 11
35.775002
 21
52.185890
  0
LINE
  8
0
 10
28.575018
 20
52.085899
 11
32.875008
 21
52.085899
  0
LINE
  8
0
 10
25.975012
 20
50.585899
 11
27.075018
 21
50.585899
  0
LINE
  8
0
 10
32.874992
 20
43.935898
 11
34.174980
 21
43.935898
  0
LINE
  8
0
 10
32.875008
 20
50.435890
 11
34.174995
 21
50.435890
  0
LINE
  8
0
 10
27.075035
 20
47.885906
 11
27.075035
 21
50.585888
  0
LINE
  8
0
 10
28.575033
 20
42.285961
 11
27.075033
 21
43.785965
  0
LINE
  8
0
 10
28.575012
 20
52.085911
 11
27.075024
 21
50.585918
  0
LINE
  8
0
 10
17.175024
 20
53.685890
 11
24.975014
 21
53.685890
  0
LINE
  8
0
 10
16.825018
 20
54.285896
 11
25.325024
 21
54.285896
  0
LINE
  8
0
 10
24.325035
 20
52.185898
 11
24.325035
 21
53.685898
  0
LINE
  8
0
 10
17.825035
 20
52.185913
 11
17.825035
 21
53.685913
  0
LINE
  8
0
 10
24.975029
 20
53.685894
 11
24.975029
 21
54.285900
  0
LINE
  8
0
 10
17.175041
 20
53.685905
 11
17.175041
 21
54.285912
  0
LINE
  8
0
 10
18.575018
 20
26.685890
 11
23.575018
 21
26.685890
  0
LINE
  8
0
 10
23.575035
 20
26.685890
 11
23.575035
 21
30.685890
  0
LINE
  8
0
 10
18.575035
 20
26.685890
 11
18.575035
 21
30.685890
  0
LINE
  8
0
 10
18.575024
 20
30.685890
 11
23.575024
 21
30.685890
  0
LINE
  8
0
 10
17.610897
 20
39.185898
 11
24.539127
 21
39.185898
  0
LINE
  8
0
 10
17.075024
 20
38.385910
 11
25.075039
 21
38.385910
  0
LINE
  8
0
 10
17.075024
 20
35.885910
 11
25.075039
 21
35.885910
  0
LINE
  8
0
 10
25.075050
 20
35.885906
 11
25.075050
 21
38.385906
  0
LINE
  8
0
 10
17.075035
 20
35.885910
 11
17.075035
 21
38.385910
  0
LINE
  8
0
 10
25.693855
 20
39.543163
 11
25.693855
 21
43.185894
  0
LINE
  8
0
 10
23.384422
 20
39.543167
 11
23.384422
 21
43.185898
  0
LINE
  8
0
 10
16.456230
 20
39.543198
 11
16.456230
 21
43.185928
  0
LINE
  8
0
 10
23.575035
 20
38.385910
 11
23.575035
 21
39.185898
  0
LINE
  8
0
 10
18.575035
 20
38.385925
 11
18.575035
 21
39.185913
  0
LINE
  8
0
 10
19.575035
 20
30.685913
 11
19.575035
 21
35.885925
  0
LINE
  8
0
 10
22.575035
 20
30.685913
 11
22.575035
 21
35.885925
  0
LINE
  8
0
 62
     2
 10
22.304527
 20
30.685913
 11
22.304527
 21
35.885925
  0
LINE
  8
0
 62
     2
 10
19.845543
 20
30.685913
 11
19.845543
 21
35.885925
  0
LINE
  8
0
 10
25.325050
 20
57.485916
 11
25.325050
 21
54.285900
  0
LINE
  8
0
 10
16.825050
 20
57.485939
 11
16.825050
 21
54.285927
  0
LINE
  8
0
  6
CENTER
 62
     2
 10
33.975075
 20
62.485931
 11
39.975079
 21
62.485931
  0
LINE
  8
0
  6
CENTER
 62
     2
 10
-16.024994
 20
62.485947
 11
-10.024994
 21
62.485947
  0
LINE
  8
0
  6
CENTER
 62
     2
 10
-16.024981
 20
112.485909
 11
-10.024981
 21
112.485909
  0
LINE
  8
0
  6
CENTER
 62
     2
 10
33.975094
 20
112.485909
 11
39.975094
 21
112.485909
  0
LINE
  8
0
  6
CENTER
 62
     2
 10
-13.024986
 20
109.485916
 11
-13.024986
 21
115.485916
  0
LINE
  8
0
  6
CENTER
 62
     2
 10
36.975090
 20
109.485901
 11
36.975090
 21
115.485901
  0
LINE
  8
0
  6
CENTER
 62
     2
 10
-13.024986
 20
59.485950
 11
-13.024986
 21
65.485947
  0
LINE
  8
0
  6
CENTER
 62
     2
 10
36.975082
 20
59.485928
 11
36.975082
 21
65.485931
  0
LINE
  8
0
  6
CENTER
 62
     2
 10
7.475010
 20
62.485916
 11
16.475010
 21
62.485916
  0
LINE
  8
0
 10
-193.471802
 20
103.485809
 11
-193.471802
 21
90.485825
  0
LINE
  8
0
 10
-189.771912
 20
117.485840
 11
-186.021912
 21
117.485840
  0
LINE
  8
0
 10
-191.471924
 20
111.685883
 11
-193.471893
 21
111.685883
  0
LINE
  8
0
 10
-191.471802
 20
112.835785
 11
-191.471802
 21
111.685791
  0
LINE
  8
0
 10
-188.971924
 20
112.835876
 11
-191.471924
 21
112.835876
  0
LINE
  8
0
 10
-188.971802
 20
107.135811
 11
-188.971802
 21
112.835815
  0
LINE
  8
0
 10
-188.971909
 20
107.135857
 11
-191.471909
 21
107.135857
  0
LINE
  8
0
 10
-191.471802
 20
107.135811
 11
-191.471802
 21
108.285797
  0
LINE
  8
0
 10
-191.471924
 20
108.285858
 11
-193.471893
 21
108.285858
  0
LINE
  8
0
 10
-184.821808
 20
110.785858
 11
-184.821808
 21
113.685837
  0
LINE
  8
0
 10
-186.021820
 20
116.185822
 11
-186.021820
 21
117.485809
  0
LINE
  8
0
 10
-182.221802
 20
116.185822
 11
-182.221802
 21
117.485825
  0
LINE
  8
0
 10
-186.971802
 20
113.685822
 11
-186.971802
 21
116.185822
  0
LINE
  8
0
 10
-186.971893
 20
116.185852
 11
-186.021912
 21
116.185852
  0
LINE
  8
0
 10
-186.971893
 20
113.685852
 11
-184.821930
 21
113.685852
  0
LINE
  8
0
 10
-168.471802
 20
102.985931
 11
-168.471802
 21
117.485855
  0
LINE
  8
0
 10
-168.971802
 20
67.285843
 11
-168.971802
 21
117.285843
  0
LINE
  8
0
 10
-168.471954
 20
102.985870
 11
-168.671936
 21
102.785896
  0
LINE
  8
0
 10
-186.471863
 20
84.485863
 11
-193.471863
 21
84.485863
  0
LINE
  8
0
 10
-186.471863
 20
90.485863
 11
-193.471863
 21
90.485863
  0
LINE
  8
0
 10
-186.471802
 20
84.485832
 11
-186.471802
 21
90.485832
  0
LINE
  8
0
 10
-168.971893
 20
117.285858
 11
-180.521912
 21
117.285858
  0
LINE
  8
0
 10
-184.971802
 20
64.185837
 11
-184.971802
 21
110.785843
  0
LINE
  8
0
 10
-168.471725
 20
71.985916
 11
-168.671677
 21
72.185867
  0
LINE
  8
0
 10
-168.471802
 20
71.985779
 11
-168.471802
 21
67.285843
  0
LINE
  8
0
 10
-180.521820
 20
110.785843
 11
-180.521820
 21
117.285828
  0
LINE
  8
0
 10
-184.821808
 20
64.185860
 11
-184.821808
 21
61.285843
  0
LINE
  8
0
 10
-186.021820
 20
58.785835
 11
-186.021820
 21
57.485832
  0
LINE
  8
0
 10
-186.971802
 20
61.285835
 11
-186.971802
 21
58.785835
  0
LINE
  8
0
 10
-186.971832
 20
58.785881
 11
-186.021820
 21
58.785881
  0
LINE
  8
0
 10
-186.971832
 20
61.285881
 11
-184.821808
 21
61.285881
  0
LINE
  8
0
 10
-183.371796
 20
63.985863
 11
-184.821808
 21
63.985863
  0
LINE
  8
0
 10
-186.527100
 20
108.235687
 11
-188.836502
 21
104.235680
  0
LINE
  8
0
 10
-185.971802
 20
103.485817
 11
-185.971802
 21
107.985817
  0
LINE
  8
0
 10
-184.971893
 20
108.485870
 11
-186.094391
 21
108.485870
  0
LINE
  8
0
 10
-184.971893
 20
107.985863
 11
-185.971893
 21
107.985863
  0
LINE
  8
0
 10
-193.471802
 20
71.485825
 11
-193.471802
 21
84.485825
  0
LINE
  8
0
 10
-189.771820
 20
57.485863
 11
-186.021820
 21
57.485863
  0
LINE
  8
0
 10
-191.471832
 20
63.285851
 11
-193.471832
 21
63.285851
  0
LINE
  8
0
 10
-191.471802
 20
62.135857
 11
-191.471802
 21
63.285851
  0
LINE
  8
0
 10
-188.971832
 20
62.135857
 11
-191.471832
 21
62.135857
  0
LINE
  8
0
 10
-188.971802
 20
67.835838
 11
-188.971802
 21
62.135826
  0
LINE
  8
0
 10
-188.971848
 20
67.835869
 11
-191.471848
 21
67.835869
  0
LINE
  8
0
 10
-191.471802
 20
67.835838
 11
-191.471802
 21
66.685844
  0
LINE
  8
0
 10
-191.471832
 20
66.685875
 11
-193.471832
 21
66.685875
  0
LINE
  8
0
 10
-186.527420
 20
66.735847
 11
-188.836807
 21
70.735855
  0
LINE
  8
0
 10
-185.971802
 20
71.485832
 11
-185.971802
 21
66.985832
  0
LINE
  8
0
 10
-184.971832
 20
66.485863
 11
-186.094330
 21
66.485863
  0
LINE
  8
0
 10
-184.971832
 20
66.985863
 11
-185.971832
 21
66.985863
  0
LINE
  8
0
 10
-168.471893
 20
117.485840
 11
-182.721893
 21
117.485840
  0
LINE
  8
0
  6
CENTER
 62
     2
 10
-160.195801
 20
87.485863
 11
-196.855988
 21
87.485863
  0
LINE
  8
0
 10
-193.471802
 20
108.285828
 11
-193.471802
 21
103.985809
  0
LINE
  8
0
 10
-193.471802
 20
111.685822
 11
-193.471802
 21
115.005676
  0
LINE
  8
0
 10
-193.471802
 20
66.685822
 11
-193.471802
 21
70.985825
  0
LINE
  8
0
 10
-193.471802
 20
63.285812
 11
-193.471802
 21
59.965958
  0
LINE
  8
0
 10
-189.269791
 20
103.985863
 11
-193.471878
 21
103.985863
  0
LINE
  8
0
 10
-189.269760
 20
70.985863
 11
-193.471848
 21
70.985863
  0
LINE
  8
0
 10
-185.971848
 20
71.485863
 11
-193.471848
 21
71.485863
  0
LINE
  8
0
 10
-185.971878
 20
103.485863
 11
-193.471878
 21
103.485863
  0
LINE
  8
0
 10
-185.471802
 20
107.985825
 11
-185.471802
 21
66.985840
  0
LINE
  8
0
 10
-168.671814
 20
72.185776
 11
-168.671814
 21
102.785919
  0
LINE
  8
0
 10
-180.521912
 20
110.785858
 11
-184.971893
 21
110.785858
  0
LINE
  8
0
 10
-183.371796
 20
64.185875
 11
-184.971832
 21
64.185875
  0
LINE
  8
0
 10
-180.971741
 20
26.685913
 11
-175.971741
 21
26.685913
  0
LINE
  8
0
 10
-175.971802
 20
26.685905
 11
-175.971802
 21
30.685905
  0
LINE
  8
0
 10
-180.971802
 20
26.685898
 11
-180.971802
 21
30.685898
  0
LINE
  8
0
 10
-180.971741
 20
30.685913
 11
-175.971741
 21
30.685913
  0
LINE
  8
0
 10
-182.471802
 20
39.185928
 11
-174.471802
 21
39.185928
  0
LINE
  8
0
 10
-182.471741
 20
38.385941
 11
-174.471741
 21
38.385941
  0
LINE
  8
0
 10
-182.471741
 20
35.885941
 11
-174.471741
 21
35.885941
  0
LINE
  8
0
 10
-174.471802
 20
35.885933
 11
-174.471802
 21
38.385933
  0
LINE
  8
0
 10
-182.471802
 20
35.885925
 11
-182.471802
 21
38.385925
  0
LINE
  8
0
 10
-175.971802
 20
38.385887
 11
-175.971802
 21
39.185875
  0
LINE
  8
0
 10
-180.971802
 20
38.385880
 11
-180.971802
 21
39.185867
  0
LINE
  8
0
 10
-179.971802
 20
30.685867
 11
-179.971802
 21
35.885880
  0
LINE
  8
0
 10
-176.971802
 20
30.685875
 11
-176.971802
 21
35.885887
  0
LINE
  8
0
 62
     2
 10
-177.242310
 20
30.685875
 11
-177.242310
 21
35.885887
  0
LINE
  8
0
 62
     2
 10
-179.701294
 20
30.685867
 11
-179.701294
 21
35.885880
  0
LINE
  8
0
 10
-183.371811
 20
43.185928
 11
-180.971756
 21
43.185928
  0
LINE
  8
0
 10
-174.471802
 20
39.185875
 11
-174.471802
 21
43.185875
  0
LINE
  8
0
 10
-182.471802
 20
39.185867
 11
-182.471802
 21
43.185867
  0
LINE
  8
0
 10
-178.471802
 20
39.543144
 11
-178.471802
 21
41.885841
  0
LINE
  8
0
 10
-175.971756
 20
43.185928
 11
-173.571823
 21
43.185928
  0
LINE
  8
0
 10
-173.571808
 20
43.185921
 11
-173.571808
 21
52.185875
  0
LINE
  8
0
 10
-183.371796
 20
43.185913
 11
-183.371796
 21
52.185867
  0
LINE
  8
0
 10
-180.521851
 20
116.185852
 11
-182.221893
 21
116.185852
  0
LINE
  8
0
 10
-174.901108
 20
69.485863
 11
-182.042526
 21
69.485863
  0
LINE
  8
0
 10
-173.571808
 20
58.385841
 11
-173.571808
 21
58.985847
  0
LINE
  8
0
 10
-183.371796
 20
58.385834
 11
-183.371796
 21
67.385834
  0
LINE
  8
0
 10
-183.371811
 20
67.385857
 11
-173.571823
 21
67.385857
  0
LINE
  8
0
 10
-183.371796
 20
58.385857
 11
-173.571808
 21
58.385857
  0
LINE
  8
0
 10
-178.471832
 20
61.685844
 11
-170.971832
 21
61.685844
  0
LINE
  8
0
 10
-178.471832
 20
63.085869
 11
-170.971832
 21
63.085869
  0
LINE
  8
0
 10
-173.571838
 20
58.985828
 11
-174.871826
 21
61.685810
  0
LINE
  8
0
 10
-173.571442
 20
65.785629
 11
-174.871445
 21
63.085632
  0
LINE
  8
0
 10
-173.571808
 20
65.785835
 11
-173.571808
 21
67.385841
  0
LINE
  8
0
 10
-170.971832
 20
57.485863
 11
-166.671844
 21
57.485863
  0
LINE
  8
0
 10
-163.771820
 20
57.385857
 11
-163.771820
 21
67.385857
  0
LINE
  8
0
 10
-165.371826
 20
57.385849
 11
-165.371826
 21
67.385849
  0
LINE
  8
0
 10
-173.571808
 20
58.985863
 11
-172.471832
 21
58.985863
  0
LINE
  8
0
 10
-170.971802
 20
57.485855
 11
-170.971802
 21
67.285843
  0
LINE
  8
0
 10
-172.471802
 20
58.985847
 11
-172.471802
 21
61.685829
  0
LINE
  8
0
 10
-166.671814
 20
57.485855
 11
-166.671814
 21
67.285843
  0
LINE
  8
0
 10
-165.371857
 20
57.385857
 11
-163.771820
 21
57.385857
  0
LINE
  8
0
 10
-165.371872
 20
67.385857
 11
-163.771835
 21
67.385857
  0
LINE
  8
0
 10
-170.971848
 20
67.285851
 11
-166.671860
 21
67.285851
  0
LINE
  8
0
 10
-173.571808
 20
65.785851
 11
-172.471832
 21
65.785851
  0
LINE
  8
0
 10
-166.671844
 20
59.135857
 11
-165.371857
 21
59.135857
  0
LINE
  8
0
 10
-166.671844
 20
65.635857
 11
-165.371857
 21
65.635857
  0
LINE
  8
0
 10
-172.471802
 20
63.085838
 11
-172.471802
 21
65.785835
  0
LINE
  8
0
 10
-170.971756
 20
57.485996
 11
-172.471802
 21
58.986027
  0
LINE
  8
0
 10
-170.972000
 20
67.285942
 11
-172.471970
 21
65.785942
  0
LINE
  8
0
 10
-182.371811
 20
68.885857
 11
-174.571823
 21
68.885857
  0
LINE
  8
0
 10
-182.371811
 20
69.485863
 11
-174.571823
 21
69.485863
  0
LINE
  8
0
 10
-175.221802
 20
67.385841
 11
-175.221802
 21
68.885841
  0
LINE
  8
0
 10
-181.721802
 20
67.385834
 11
-181.721802
 21
68.885834
  0
LINE
  8
0
 10
-174.571838
 20
68.885841
 11
-174.571838
 21
69.485847
  0
LINE
  8
0
 10
-182.371796
 20
68.885834
 11
-182.371796
 21
69.485840
  0
LINE
  8
0
 10
-180.971756
 20
41.885849
 11
-175.971756
 21
41.885849
  0
LINE
  8
0
 10
-175.971802
 20
41.885841
 11
-175.971802
 21
45.885841
  0
LINE
  8
0
 10
-180.971802
 20
41.885834
 11
-180.971802
 21
45.885834
  0
LINE
  8
0
 10
-180.971756
 20
45.885849
 11
-175.971756
 21
45.885849
  0
LINE
  8
0
 10
-181.935944
 20
54.385841
 11
-175.007721
 21
54.385841
  0
LINE
  8
0
 10
-182.471756
 20
51.085861
 11
-174.471756
 21
51.085861
  0
LINE
  8
0
 10
-174.471802
 20
51.085854
 11
-174.471802
 21
53.585899
  0
LINE
  8
0
 10
-182.471802
 20
51.085846
 11
-182.471802
 21
53.585892
  0
LINE
  8
0
 10
-173.852997
 20
54.743111
 11
-173.852997
 21
58.385841
  0
LINE
  8
0
 10
-176.162415
 20
54.743111
 11
-176.162415
 21
58.385841
  0
LINE
  8
0
 10
-180.781219
 20
54.743103
 11
-180.781219
 21
58.385834
  0
LINE
  8
0
 10
-183.090607
 20
54.743103
 11
-183.090607
 21
58.385834
  0
LINE
  8
0
 10
-175.971802
 20
53.585854
 11
-175.971802
 21
54.385841
  0
LINE
  8
0
 10
-180.971802
 20
53.585846
 11
-180.971802
 21
54.385834
  0
LINE
  8
0
 10
-179.971802
 20
45.885834
 11
-179.971802
 21
51.085846
  0
LINE
  8
0
 10
-176.971802
 20
45.885841
 11
-176.971802
 21
51.085854
  0
LINE
  8
0
 62
     2
 10
-177.242310
 20
45.885841
 11
-177.242310
 21
51.085854
  0
LINE
  8
0
 62
     2
 10
-179.701294
 20
45.885834
 11
-179.701294
 21
51.085846
  0
LINE
  8
0
 10
-170.971924
 20
57.485863
 11
-173.852997
 21
57.485863
  0
LINE
  8
0
 10
-182.721893
 20
120.685822
 11
-174.221893
 21
120.685822
  0
LINE
  8
0
 10
-174.221802
 20
117.485840
 11
-174.221802
 21
120.685852
  0
LINE
  8
0
 10
-182.721802
 20
117.485825
 11
-182.721802
 21
120.685852
  0
LINE
  8
0
 10
-175.971893
 20
148.285828
 11
-180.971893
 21
148.285828
  0
LINE
  8
0
 10
-180.971832
 20
148.285828
 11
-180.971832
 21
144.285828
  0
LINE
  8
0
 10
-175.971832
 20
148.285828
 11
-175.971832
 21
144.285828
  0
LINE
  8
0
 10
-175.971893
 20
144.285828
 11
-180.971893
 21
144.285828
  0
LINE
  8
0
 10
-174.571869
 20
121.285828
 11
-182.371857
 21
121.285828
  0
LINE
  8
0
 10
-174.471924
 20
135.785828
 11
-182.471924
 21
135.785828
  0
LINE
  8
0
 10
-174.471893
 20
136.585815
 11
-182.471893
 21
136.585815
  0
LINE
  8
0
 10
-174.471893
 20
139.085815
 11
-182.471893
 21
139.085815
  0
LINE
  8
0
 10
-182.471832
 20
139.085815
 11
-182.471832
 21
136.585815
  0
LINE
  8
0
 10
-174.471832
 20
139.085815
 11
-174.471832
 21
136.585815
  0
LINE
  8
0
 10
-180.971832
 20
136.585831
 11
-180.971832
 21
135.785843
  0
LINE
  8
0
 10
-175.971832
 20
136.585846
 11
-175.971832
 21
135.785858
  0
LINE
  8
0
 10
-176.971832
 20
144.285858
 11
-176.971832
 21
139.085846
  0
LINE
  8
0
 10
-179.971832
 20
144.285843
 11
-179.971832
 21
139.085831
  0
LINE
  8
0
 62
     2
 10
-179.701324
 20
144.285843
 11
-179.701324
 21
139.085831
  0
LINE
  8
0
 62
     2
 10
-177.242340
 20
144.285858
 11
-177.242340
 21
139.085846
  0
LINE
  8
0
 10
-181.721832
 20
122.785843
 11
-181.721832
 21
121.285843
  0
LINE
  8
0
 10
-175.221832
 20
122.785858
 11
-175.221832
 21
121.285858
  0
LINE
  8
0
 10
-182.371826
 20
121.285843
 11
-182.371826
 21
120.685837
  0
LINE
  8
0
 10
-174.571838
 20
121.285858
 11
-174.571838
 21
120.685852
  0
LINE
  8
0
 10
-173.571915
 20
131.785828
 11
-176.292419
 21
131.785828
  0
LINE
  8
0
 10
-173.571884
 20
122.785828
 11
-176.292450
 21
122.785828
  0
LINE
  8
0
 10
-182.471832
 20
135.785843
 11
-182.471832
 21
131.785843
  0
LINE
  8
0
 10
-174.471832
 20
135.785858
 11
-174.471832
 21
131.785858
  0
LINE
  8
0
 10
-178.471832
 20
135.428589
 11
-178.471832
 21
132.285828
  0
LINE
  8
0
 10
-173.571838
 20
131.785828
 11
-173.571838
 21
128.280853
  0
LINE
  8
0
 10
-183.371826
 20
131.785812
 11
-183.371826
 21
128.280853
  0
LINE
  8
0
 10
-183.453506
 20
72.558189
 11
-184.074127
 21
72.503899
  0
LINE
  8
0
 10
-183.453568
 20
73.413124
 11
-184.074203
 21
73.467415
  0
LINE
  8
0
 10
-178.471832
 20
97.367081
 11
-174.471832
 21
99.676483
  0
LINE
  8
0
 10
-174.471802
 20
104.295250
 11
-174.471802
 21
99.676445
  0
LINE
  8
0
 10
-178.471878
 20
106.604416
 11
-174.471878
 21
104.295029
  0
LINE
  8
0
 10
-182.471909
 20
104.295242
 11
-178.471909
 21
106.604645
  0
LINE
  8
0
 10
-182.471802
 20
104.295242
 11
-182.471802
 21
99.676437
  0
LINE
  8
0
 10
-182.471970
 20
99.676292
 11
-178.471939
 21
97.366882
  0
LINE
  8
0
  6
CENTER
 62
     2
 10
-186.971848
 20
97.485870
 11
-191.971848
 21
97.485870
  0
LINE
  8
0
  6
CENTER
 62
     2
 10
-186.971817
 20
77.485840
 11
-191.971817
 21
77.485840
  0
LINE
  8
0
  6
CENTER
 62
     2
 10
-189.471832
 20
79.985817
 11
-189.471832
 21
74.985817
  0
LINE
  8
0
  6
CENTER
 62
     2
 10
-189.471832
 20
99.985847
 11
-189.471832
 21
94.985847
  0
LINE
  8
0
 10
-173.571762
 20
52.185883
 11
-174.471756
 21
52.185883
  0
LINE
  8
0
 10
-182.471756
 20
52.185883
 11
-183.371750
 21
52.185883
  0
LINE
  8
0
 10
-174.471771
 20
53.585907
 11
-182.471771
 21
53.585907
  0
LINE
  8
0
 10
-180.651306
 20
122.785828
 11
-183.371872
 21
122.785828
  0
LINE
  8
0
 10
-183.371826
 20
126.290802
 11
-183.371826
 21
122.785843
  0
LINE
  8
0
 10
-180.651337
 20
131.785828
 11
-183.371933
 21
131.785828
  0
LINE
  8
0
 10
-173.571838
 20
126.290817
 11
-173.571838
 21
122.785858
  0
LINE
  8
0
 62
     4
 10
-185.121887
 20
59.985863
 11
-183.371796
 21
59.985863
  0
LINE
  8
0
 62
     4
 10
-183.371796
 20
63.985863
 11
-184.621826
 21
63.985863
  0
LINE
  8
0
 62
     4
 10
-185.721863
 20
58.185875
 11
-185.121887
 21
58.185875
  0
LINE
  8
0
 62
     4
 10
-185.721832
 20
58.485802
 11
-185.721832
 21
58.185814
  0
LINE
  8
0
 62
     4
 10
-183.090607
 20
58.185875
 11
-183.121887
 21
58.185875
  0
LINE
  8
0
 62
     4
 10
-183.821808
 20
57.385796
 11
-183.821808
 21
56.710594
  0
LINE
  8
0
 62
     4
 10
-186.021851
 20
58.785851
 11
-186.971863
 21
58.785851
  0
LINE
  8
0
 62
     4
 10
-185.871887
 20
57.985863
 11
-183.090607
 21
57.985863
  0
LINE
  8
0
 62
     4
 10
-184.421844
 20
57.385796
 11
-184.421844
 21
56.710594
  0
LINE
  8
0
 62
     4
 10
-184.621826
 20
63.985802
 11
-184.621826
 21
59.985802
  0
LINE
  8
0
 62
     4
 10
-186.721832
 20
59.385780
 11
-186.721832
 21
58.785774
  0
LINE
  8
0
 62
     4
 10
-186.721863
 20
59.385857
 11
-185.121887
 21
59.385857
  0
LINE
  8
0
 62
     4
 10
-184.421875
 20
57.385857
 11
-183.821869
 21
57.385857
  0
LINE
  8
0
 62
     4
 10
-185.121826
 20
59.985802
 11
-185.121826
 21
57.985802
  0
LINE
  8
0
 62
     4
 10
-183.121826
 20
58.385857
 11
-183.121826
 21
57.985802
  0
LINE
  8
0
 10
97.675026
 20
-14.013992
 11
98.675026
 21
-14.013992
  0
LINE
  8
0
 10
91.975029
 20
-35.014061
 11
91.975029
 21
-10.014058
  0
LINE
  8
0
 10
97.675026
 20
-10.514019
 11
91.975029
 21
-10.514019
  0
LINE
  8
0
  6
CENTER
 62
     2
 10
11.975037
 20
-5.082470
 11
11.975037
 21
-40.301353
  0
LINE
  8
0
 62
     4
 10
-20.478188
 20
-23.764034
 11
-20.478188
 21
-27.564039
  0
LINE
  8
0
 62
     4
 10
-15.478188
 20
-23.764036
 11
-15.478188
 21
-27.564043
  0
LINE
  8
0
 10
97.675018
 20
-26.514021
 11
91.975029
 21
-26.514021
  0
LINE
  8
0
 62
     4
 10
-5.524971
 20
-26.164053
 11
-5.524971
 21
-23.764053
  0
LINE
  8
0
 62
     4
 10
-6.524971
 20
-26.164053
 11
-6.524971
 21
-23.764053
  0
LINE
  8
0
 62
     4
 10
-20.478191
 20
-26.164034
 11
-30.978191
 21
-26.164034
  0
LINE
  8
0
 62
     4
 10
-5.524973
 20
-26.164034
 11
-15.478189
 21
-26.164034
  0
LINE
  8
0
 10
-68.024963
 20
-26.364038
 11
-20.478191
 21
-26.364038
  0
LINE
  8
0
 10
97.675026
 20
-22.014017
 11
91.975029
 21
-22.014017
  0
LINE
  8
0
 62
     4
 10
-30.978188
 20
-23.764030
 11
-30.978188
 21
-26.164036
  0
LINE
  8
0
 10
110.575012
 20
-22.514055
 11
101.675003
 21
-22.514055
  0
LINE
  8
0
 62
     2
 10
110.575027
 20
-21.914049
 11
101.675003
 21
-21.914049
  0
LINE
  8
0
 10
110.575012
 20
-17.514055
 11
101.675003
 21
-17.514055
  0
LINE
  8
0
 62
     2
 10
110.575027
 20
-18.114061
 11
101.675003
 21
-18.114061
  0
LINE
  8
0
 10
101.675011
 20
-24.014061
 11
101.675011
 21
-16.014050
  0
LINE
  8
0
 10
110.575012
 20
-22.514072
 11
110.575012
 21
-17.514071
  0
LINE
  8
0
 10
97.675026
 20
-26.514042
 11
97.675026
 21
-10.514040
  0
LINE
  8
0
 10
-68.024963
 20
-25.664005
 11
-68.024963
 21
-35.014030
  0
LINE
  8
0
 10
108.875031
 20
-25.014042
 11
108.875031
 21
-22.514071
  0
LINE
  8
0
 10
108.975037
 20
-5.314007
 11
98.975029
 21
-5.314007
  0
LINE
  8
0
 10
108.975037
 20
-6.914013
 11
98.975029
 21
-6.914013
  0
LINE
  8
0
 10
107.375031
 20
-15.014043
 11
107.375031
 21
-14.014041
  0
LINE
  8
0
 10
108.875031
 20
-12.514008
 11
99.075035
 21
-12.514008
  0
LINE
  8
0
 10
107.375031
 20
-14.014008
 11
100.575035
 21
-14.014008
  0
LINE
  8
0
 10
108.875031
 20
-8.214003
 11
99.075035
 21
-8.214003
  0
LINE
  8
0
 10
108.975037
 20
-6.914042
 11
108.975037
 21
-5.314037
  0
LINE
  8
0
 10
98.975029
 20
-6.914034
 11
98.975029
 21
-5.314028
  0
LINE
  8
0
 10
100.575035
 20
-15.014042
 11
100.575035
 21
-14.014029
  0
LINE
  8
0
 10
107.225037
 20
-8.214026
 11
107.225037
 21
-6.914039
  0
LINE
  8
0
 10
100.725029
 20
-8.214022
 11
100.725029
 21
-6.914030
  0
LINE
  8
0
 10
108.875732
 20
-12.514793
 11
107.375748
 21
-14.014789
  0
LINE
  8
0
 10
99.075623
 20
-12.513481
 11
100.575630
 21
-14.013497
  0
LINE
  8
0
 10
-68.024963
 20
-10.014026
 11
-68.024963
 21
-23.764019
  0
LINE
  8
0
 10
-73.724976
 20
-14.014013
 11
-74.724976
 21
-14.014013
  0
LINE
  8
0
 10
-73.724976
 20
-10.514040
 11
-68.024963
 21
-10.514040
  0
LINE
  8
0
 10
-73.724976
 20
-26.514040
 11
-68.024963
 21
-26.514040
  0
LINE
  8
0
 10
-74.724976
 20
-26.014048
 11
-74.724976
 21
-14.014013
  0
LINE
  8
0
 10
-73.724976
 20
-10.514032
 11
-73.724976
 21
-26.514030
  0
LINE
  8
0
 10
16.455784
 20
-20.014252
 11
18.765169
 21
-24.014229
  0
LINE
  8
0
 10
23.385061
 20
-24.014013
 11
18.765688
 21
-24.014013
  0
LINE
  8
0
 10
23.384285
 20
-16.014013
 11
18.765709
 21
-16.014013
  0
LINE
  8
0
 10
18.765812
 20
-16.014057
 11
16.456406
 21
-20.014057
  0
LINE
  8
0
 10
21.075083
 20
-24.914007
 11
32.875107
 21
-24.914007
  0
LINE
  8
0
 10
35.775093
 20
-25.014019
 11
35.775093
 21
-15.014019
  0
LINE
  8
0
 10
34.175087
 20
-25.014019
 11
34.175087
 21
-15.014021
  0
LINE
  8
0
 10
24.603529
 20
-23.414007
 11
27.075087
 21
-23.414007
  0
LINE
  8
0
 10
28.575096
 20
-24.914013
 11
28.575096
 21
-15.114025
  0
LINE
  8
0
 10
27.075096
 20
-23.414013
 11
27.075096
 21
-16.614025
  0
LINE
  8
0
 10
32.875099
 20
-24.914013
 11
32.875099
 21
-15.114027
  0
LINE
  8
0
 10
34.175095
 20
-25.014013
 11
35.775101
 21
-25.014013
  0
LINE
  8
0
 10
34.175087
 20
-15.014013
 11
35.775093
 21
-15.014013
  0
LINE
  8
0
 10
21.075096
 20
-15.114019
 11
32.875099
 21
-15.114019
  0
LINE
  8
0
 10
24.603539
 20
-16.614019
 11
27.075096
 21
-16.614019
  0
LINE
  8
0
 10
32.875107
 20
-23.264013
 11
34.175095
 21
-23.264013
  0
LINE
  8
0
 10
32.875099
 20
-16.764013
 11
34.175087
 21
-16.764013
  0
LINE
  8
0
 10
28.574383
 20
-24.914669
 11
27.074390
 21
-23.414677
  0
LINE
  8
0
 10
28.575733
 20
-15.114712
 11
27.075726
 21
-16.614719
  0
LINE
  8
0
 10
97.675018
 20
-26.014063
 11
98.675018
 21
-26.014063
  0
LINE
  8
0
 10
98.675018
 20
-25.014027
 11
108.875031
 21
-25.014027
  0
LINE
  8
0
 10
97.675018
 20
-24.014027
 11
101.675003
 21
-24.014027
  0
LINE
  8
0
 10
97.675026
 20
-16.014029
 11
101.675011
 21
-16.014029
  0
LINE
  8
0
 10
98.675026
 20
-16.014042
 11
98.675026
 21
-14.014021
  0
LINE
  8
0
 10
99.075035
 20
-16.014042
 11
99.075035
 21
-8.214022
  0
LINE
  8
0
 10
101.317741
 20
-20.014029
 11
97.675026
 21
-20.014029
  0
LINE
  8
0
 10
-68.024963
 20
-10.014040
 11
91.975029
 21
-10.014040
  0
LINE
  8
0
 10
-68.024963
 20
-12.014029
 11
91.975029
 21
-12.014029
  0
LINE
  8
0
 10
-68.024963
 20
-23.764030
 11
17.921137
 21
-23.764030
  0
LINE
  8
0
 10
-68.024963
 20
-26.364038
 11
-20.478191
 21
-26.364038
  0
LINE
  8
0
 10
-68.024963
 20
-27.564039
 11
91.975029
 21
-27.564039
  0
LINE
  8
0
 10
-68.024963
 20
-35.014046
 11
91.975021
 21
-35.014046
  0
LINE
  8
0
 10
-80.025261
 20
-15.394664
 11
-84.025230
 21
-17.704050
  0
LINE
  8
0
 10
-84.024963
 20
-22.323421
 11
-84.024963
 21
-17.704617
  0
LINE
  8
0
 10
-76.024963
 20
-22.323423
 11
-76.024963
 21
-17.704632
  0
LINE
  8
0
 10
-76.025032
 20
-17.704723
 11
-80.025032
 21
-15.395318
  0
LINE
  8
0
 10
-84.924957
 20
-25.014023
 11
-84.924957
 21
-8.214013
  0
LINE
  8
0
 10
-85.024963
 20
-5.314045
 11
-75.024963
 21
-5.314045
  0
LINE
  8
0
 10
-85.024963
 20
-6.914051
 11
-75.024963
 21
-6.914051
  0
LINE
  8
0
 10
-83.424957
 20
-16.485592
 11
-83.424957
 21
-14.014035
  0
LINE
  8
0
 10
-84.924957
 20
-12.514044
 11
-75.124969
 21
-12.514044
  0
LINE
  8
0
 10
-83.424957
 20
-14.014044
 11
-76.624969
 21
-14.014044
  0
LINE
  8
0
 10
-84.924957
 20
-8.214041
 11
-75.124969
 21
-8.214041
  0
LINE
  8
0
 10
-85.024963
 20
-6.914029
 11
-85.024963
 21
-5.314023
  0
LINE
  8
0
 10
-75.024963
 20
-6.914030
 11
-75.024963
 21
-5.314024
  0
LINE
  8
0
 10
-75.124969
 20
-20.014023
 11
-75.124969
 21
-8.214018
  0
LINE
  8
0
 10
-76.624969
 20
-16.485577
 11
-76.624969
 21
-14.014021
  0
LINE
  8
0
 10
-83.274963
 20
-8.214013
 11
-83.274963
 21
-6.914029
  0
LINE
  8
0
 10
-76.774963
 20
-8.214018
 11
-76.774963
 21
-6.914030
  0
LINE
  8
0
 10
-84.925621
 20
-12.514780
 11
-83.425629
 21
-14.014769
  0
LINE
  8
0
 10
-75.125816
 20
-12.513276
 11
-76.625824
 21
-14.013279
  0
LINE
  8
0
 10
35.775093
 20
-23.764030
 11
91.975029
 21
-23.764030
  0
LINE
  8
0
 10
25.694302
 20
-20.014242
 11
23.384914
 21
-24.014214
  0
LINE
  8
0
 10
23.384262
 20
-16.014017
 11
25.693687
 21
-20.014065
  0
LINE
  8
0
 10
-15.478189
 20
-26.364038
 11
91.975029
 21
-26.364038
  0
LINE
  8
0
 62
     4
 10
-18.826715
 20
-26.512577
 11
-17.129660
 21
-24.815521
  0
LINE
  8
0
 10
98.675018
 20
-26.014076
 11
98.675018
 21
-24.014042
  0
LINE
  8
0
 10
108.875031
 20
-17.514071
 11
108.875031
 21
-8.214034
  0
LINE
  8
0
  6
CENTER
 62
     2
 10
-13.024963
 20
-5.082466
 11
-13.024963
 21
-40.301353
  0
LINE
  8
0
  6
CENTER
 62
     2
 10
36.975037
 20
-5.082474
 11
36.975037
 21
-40.301361
  0
LINE
  8
0
 62
     4
 10
-18.826725
 20
-24.815523
 11
-17.129669
 21
-26.512581
  0
LINE
  8
0
 10
108.875031
 20
-15.014029
 11
98.675026
 21
-15.014029
  0
LINE
  8
0
 10
-74.724976
 20
-15.014037
 11
-75.124969
 21
-15.014037
  0
LINE
  8
0
 10
-74.724976
 20
-25.014038
 11
-84.924957
 21
-25.014038
  0
LINE
  8
0
 10
-73.724976
 20
-26.014061
 11
-74.724976
 21
-26.014061
  0
LINE
  8
0
 10
-76.024986
 20
-22.323400
 11
-80.024925
 21
-24.632769
  0
LINE
  8
0
 10
-80.024971
 20
-24.632822
 11
-84.024956
 21
-22.323425
  0
LINE
  8
0
 62
     4
 10
-70.001724
 20
-25.664030
 11
-69.197876
 21
-22.664028
  0
LINE
  8
0
 62
     4
 10
-30.978191
 20
-25.664038
 11
-70.001923
 21
-25.664038
  0
LINE
  8
0
 62
     4
 10
-68.024963
 20
-22.664032
 11
-69.198090
 21
-22.664032
  0
LINE
  8
0
 62
     4
 10
-68.024956
 20
-93.513878
 11
-69.198082
 21
-93.513878
  0
LINE
  8
0
 62
     4
 10
-70.001724
 20
-96.513863
 11
-69.197884
 21
-93.513863
  0
LINE
  8
0
 62
     4
 10
-68.024994
 20
-96.513878
 11
-70.001923
 21
-96.513878
  0
LINE
  8
0
  6
CENTER
 62
     2
 10
11.975037
 20
-152.865540
 11
11.975037
 21
-87.757446
  0
LINE
  8
0
 10
-66.624969
 20
-132.263977
 11
-66.624969
 21
-137.013931
  0
LINE
  8
0
 10
-9.524971
 20
-117.013977
 11
-32.024971
 21
-117.013977
  0
LINE
  8
0
 10
-9.524973
 20
-124.013977
 11
-32.024971
 21
-124.013977
  0
LINE
  8
0
 10
5.175026
 20
-165.514038
 11
5.175026
 21
-165.713989
  0
LINE
  8
0
 10
-0.695786
 20
-153.713989
 11
6.445632
 21
-153.713989
  0
LINE
  8
0
 10
-2.024971
 20
-164.813995
 11
-2.024971
 21
-164.213959
  0
LINE
  8
0
 10
7.775017
 20
-164.814026
 11
7.775017
 21
-155.814026
  0
LINE
  8
0
 10
7.774916
 20
-155.813995
 11
-2.025072
 21
-155.813995
  0
LINE
  8
0
 10
7.774911
 20
-164.813995
 11
-2.025077
 21
-164.813995
  0
LINE
  8
0
 10
2.874918
 20
-161.513977
 11
-4.625082
 21
-161.513977
  0
LINE
  8
0
 10
2.874920
 20
-160.114014
 11
-4.625082
 21
-160.114014
  0
LINE
  8
0
 10
-2.025376
 20
-164.213821
 11
-0.725377
 21
-161.513870
  0
LINE
  8
0
 10
-2.024976
 20
-157.414017
 11
-0.724968
 21
-160.114014
  0
LINE
  8
0
 10
-2.024971
 20
-157.413971
 11
-2.024971
 21
-155.813995
  0
LINE
  8
0
 10
-4.625086
 20
-165.713989
 11
-8.925066
 21
-165.713989
  0
LINE
  8
0
 10
-11.824974
 20
-165.813965
 11
-11.824974
 21
-155.813965
  0
LINE
  8
0
 10
-10.224968
 20
-165.813965
 11
-10.224968
 21
-155.813965
  0
LINE
  8
0
 10
-2.025077
 20
-164.213989
 11
-3.125083
 21
-164.213989
  0
LINE
  8
0
 10
-4.624977
 20
-165.713959
 11
-4.624977
 21
-155.913971
  0
LINE
  8
0
 10
-3.124977
 20
-164.213959
 11
-3.124977
 21
-161.514008
  0
LINE
  8
0
 10
-8.924980
 20
-165.713959
 11
-8.924980
 21
-155.913971
  0
LINE
  8
0
 10
-10.225054
 20
-165.813995
 11
-11.825060
 21
-165.813995
  0
LINE
  8
0
 10
-10.225048
 20
-155.813995
 11
-11.825054
 21
-155.813995
  0
LINE
  8
0
 10
-4.625080
 20
-155.914001
 11
-8.925060
 21
-155.914001
  0
LINE
  8
0
 10
-2.025074
 20
-157.414001
 11
-3.125080
 21
-157.414001
  0
LINE
  8
0
 10
-8.925062
 20
-164.063995
 11
-10.225050
 21
-164.063995
  0
LINE
  8
0
 10
-8.925060
 20
-157.563995
 11
-10.225048
 21
-157.563995
  0
LINE
  8
0
 10
-3.124977
 20
-160.113983
 11
-3.124977
 21
-157.413971
  0
LINE
  8
0
 10
-4.624976
 20
-165.713959
 11
-3.124985
 21
-164.213974
  0
LINE
  8
0
 10
-4.625190
 20
-155.914154
 11
-3.125200
 21
-157.414154
  0
LINE
  8
0
 10
6.774916
 20
-154.313995
 11
-1.025071
 21
-154.313995
  0
LINE
  8
0
 10
7.124922
 20
-153.713989
 11
-1.375077
 21
-153.713989
  0
LINE
  8
0
 10
-0.374977
 20
-155.813995
 11
-0.374977
 21
-154.313995
  0
LINE
  8
0
 10
6.125023
 20
-155.814026
 11
6.125023
 21
-154.314026
  0
LINE
  8
0
 10
-1.024971
 20
-154.313995
 11
-1.024971
 21
-153.713959
  0
LINE
  8
0
 10
6.775017
 20
-154.314026
 11
6.775017
 21
-153.713989
  0
LINE
  8
0
 10
5.374993
 20
-181.313995
 11
0.374992
 21
-181.313995
  0
LINE
  8
0
 10
0.375023
 20
-181.313965
 11
0.375023
 21
-177.313965
  0
LINE
  8
0
 10
5.375023
 20
-181.313995
 11
5.375023
 21
-177.313995
  0
LINE
  8
0
 10
5.374995
 20
-177.313995
 11
0.374995
 21
-177.313995
  0
LINE
  8
0
 10
6.339028
 20
-168.813995
 11
-0.589197
 21
-168.813995
  0
LINE
  8
0
 10
6.875000
 20
-169.613983
 11
-1.125002
 21
-169.613983
  0
LINE
  8
0
 10
6.874996
 20
-172.113983
 11
-1.125004
 21
-172.113983
  0
LINE
  8
0
 10
-1.124977
 20
-172.113953
 11
-1.124977
 21
-169.613953
  0
LINE
  8
0
 10
6.875023
 20
-172.113983
 11
6.875023
 21
-169.613983
  0
LINE
  8
0
 10
-1.743782
 20
-168.456696
 11
-1.743782
 21
-164.813995
  0
LINE
  8
0
 10
0.565636
 20
-168.456696
 11
0.565636
 21
-164.813995
  0
LINE
  8
0
 10
5.184441
 20
-168.456726
 11
5.184441
 21
-164.814026
  0
LINE
  8
0
 10
7.493828
 20
-168.456757
 11
7.493828
 21
-164.814026
  0
LINE
  8
0
 10
0.375023
 20
-169.613983
 11
0.375023
 21
-168.813995
  0
LINE
  8
0
 10
5.375023
 20
-169.614014
 11
5.375023
 21
-168.814026
  0
LINE
  8
0
 10
4.375023
 20
-177.314026
 11
4.375023
 21
-172.114014
  0
LINE
  8
0
 10
1.375023
 20
-177.314026
 11
1.375023
 21
-172.114014
  0
LINE
  8
0
 62
     2
 10
1.645531
 20
-177.314026
 11
1.645531
 21
-172.114014
  0
LINE
  8
0
 62
     2
 10
4.104515
 20
-177.314026
 11
4.104515
 21
-172.114014
  0
LINE
  8
0
 10
7.375023
 20
-137.013977
 11
7.375023
 21
-131.013977
  0
LINE
  8
0
 10
-2.324965
 20
-130.013977
 11
7.375018
 21
-130.013977
  0
LINE
  8
0
 10
7.375023
 20
-138.513977
 11
7.375023
 21
-130.013962
  0
LINE
  8
0
 10
-9.124977
 20
-141.013992
 11
-9.124977
 21
-100.013977
  0
LINE
  8
0
 10
-9.524946
 20
-129.513977
 11
-11.024946
 21
-129.513977
  0
LINE
  8
0
 10
-11.024971
 20
-129.514008
 11
-11.024971
 21
-140.513992
  0
LINE
  8
0
 10
-9.524971
 20
-129.514008
 11
-9.524971
 21
-140.513992
  0
LINE
  8
0
 10
-3.424965
 20
-127.514008
 11
-3.424965
 21
-141.013992
  0
LINE
  8
0
 10
-65.124969
 20
-137.013931
 11
-65.124969
 21
-104.013931
  0
LINE
  8
0
 10
-11.024946
 20
-132.013977
 11
-32.024975
 21
-132.013977
  0
LINE
  8
0
 10
-9.124952
 20
-130.013977
 11
-9.524946
 21
-130.013977
  0
LINE
  8
0
 10
-10.524965
 20
-108.513977
 11
-9.124971
 21
-108.513977
  0
LINE
  8
0
 62
     2
 10
-10.524965
 20
-108.013977
 11
-9.124971
 21
-108.013977
  0
LINE
  8
0
 10
9.475042
 20
-108.514008
 11
2.875036
 21
-108.514008
  0
LINE
  8
0
 62
     2
 10
9.475058
 20
-107.914001
 11
2.875036
 21
-107.914001
  0
LINE
  8
0
 10
-65.124977
 20
-132.264008
 11
-66.624977
 21
-132.264008
  0
LINE
  8
0
 10
-30.525017
 20
-108.763954
 11
-30.525017
 21
-104.013954
  0
LINE
  8
0
 10
-32.024967
 20
-108.763962
 11
-30.524998
 21
-108.763962
  0
LINE
  8
0
 10
-84.524994
 20
-102.513954
 11
-84.524994
 21
-110.013954
  0
LINE
  8
0
 10
-74.724976
 20
-111.013977
 11
-84.524994
 21
-111.013977
  0
LINE
  8
0
 10
-75.624962
 20
-102.513977
 11
-84.524956
 21
-102.513977
  0
LINE
  8
0
 10
-76.124962
 20
-102.513977
 11
-77.924950
 21
-102.513977
  0
LINE
  8
0
 10
-82.524971
 20
-74.913971
 11
-77.524971
 21
-74.913971
  0
LINE
  8
0
 10
-77.524994
 20
-74.913925
 11
-77.524994
 21
-78.913925
  0
LINE
  8
0
 10
-82.524994
 20
-74.913925
 11
-82.524994
 21
-78.913925
  0
LINE
  8
0
 10
-82.524971
 20
-78.913971
 11
-77.524971
 21
-78.913971
  0
LINE
  8
0
 10
-83.924950
 20
-101.913971
 11
-76.124962
 21
-101.913971
  0
LINE
  8
0
 10
-84.024948
 20
-87.413971
 11
-76.024948
 21
-87.413971
  0
LINE
  8
0
 10
-84.024971
 20
-86.613983
 11
-76.024971
 21
-86.613983
  0
LINE
  8
0
 10
-84.024971
 20
-84.113983
 11
-76.024971
 21
-84.113983
  0
LINE
  8
0
 10
-76.024994
 20
-84.113937
 11
-76.024994
 21
-86.613937
  0
LINE
  8
0
 10
-84.024994
 20
-84.113937
 11
-84.024994
 21
-86.613937
  0
LINE
  8
0
 10
-77.524994
 20
-86.613937
 11
-77.524994
 21
-87.413925
  0
LINE
  8
0
 10
-82.524994
 20
-86.613937
 11
-82.524994
 21
-87.413925
  0
LINE
  8
0
 10
-81.524994
 20
-78.913925
 11
-81.524994
 21
-84.113937
  0
LINE
  8
0
 10
-78.524994
 20
-78.913925
 11
-78.524994
 21
-84.113937
  0
LINE
  8
0
 62
     2
 10
-78.795502
 20
-78.913925
 11
-78.795502
 21
-84.113937
  0
LINE
  8
0
 62
     2
 10
-81.254486
 20
-78.913925
 11
-81.254486
 21
-84.113937
  0
LINE
  8
0
 10
-76.774994
 20
-100.413925
 11
-76.774994
 21
-101.913925
  0
LINE
  8
0
 10
-83.274994
 20
-100.413925
 11
-83.274994
 21
-101.913925
  0
LINE
  8
0
 10
-76.125000
 20
-101.913925
 11
-76.125000
 21
-102.513931
  0
LINE
  8
0
 10
-83.924988
 20
-101.913956
 11
-83.924988
 21
-102.513962
  0
LINE
  8
0
 10
-84.924942
 20
-91.413971
 11
-75.124954
 21
-91.413971
  0
LINE
  8
0
 10
-84.924950
 20
-100.413971
 11
-75.124962
 21
-100.413971
  0
LINE
  8
0
 10
-76.024994
 20
-87.413925
 11
-76.024994
 21
-91.413925
  0
LINE
  8
0
 10
-84.024994
 20
-87.413956
 11
-84.024994
 21
-91.413956
  0
LINE
  8
0
 10
-80.024994
 20
-87.771194
 11
-80.024994
 21
-91.413925
  0
LINE
  8
0
 10
-84.524994
 20
-102.513954
 11
-84.524994
 21
-111.013924
  0
LINE
  8
0
 10
-74.724968
 20
-101.013977
 11
-75.624962
 21
-101.013977
  0
LINE
  8
0
 10
-67.624969
 20
-111.513977
 11
-66.124969
 21
-111.513977
  0
LINE
  8
0
 10
-66.125000
 20
-111.513931
 11
-66.125000
 21
-104.013931
  0
LINE
  8
0
 10
-67.625000
 20
-111.513931
 11
-67.625000
 21
-104.013931
  0
LINE
  8
0
 10
-73.724976
 20
-150.313950
 11
-73.724976
 21
-90.713928
  0
LINE
  8
0
 10
-75.625000
 20
-101.013931
 11
-75.625000
 21
-102.513931
  0
LINE
  8
0
 10
-66.124969
 20
-108.513977
 11
-65.124969
 21
-108.513977
  0
LINE
  8
0
 10
-68.024963
 20
-111.013977
 11
-67.624969
 21
-111.013977
  0
LINE
  8
0
 10
-74.724976
 20
-112.013931
 11
-74.724976
 21
-100.013931
  0
LINE
  8
0
 10
-2.424970
 20
-129.013977
 11
-3.424970
 21
-129.013977
  0
LINE
  8
0
 10
-74.724976
 20
-112.013992
 11
-73.724976
 21
-112.013992
  0
LINE
  8
0
 10
-74.724968
 20
-100.013992
 11
-73.724968
 21
-100.013992
  0
LINE
  8
0
 10
-9.524986
 20
-124.014000
 11
-9.524986
 21
-117.013985
  0
LINE
  8
0
 62
     2
 10
-32.024971
 20
-123.206139
 11
-32.024971
 21
-117.816048
  0
LINE
  8
0
 10
-65.124969
 20
-124.013977
 11
-68.024963
 21
-124.013977
  0
LINE
  8
0
 10
-65.124969
 20
-117.013977
 11
-68.024963
 21
-117.013977
  0
LINE
  8
0
 10
-66.624977
 20
-132.513977
 11
-68.024971
 21
-132.513977
  0
LINE
  8
0
 62
     2
 10
-66.624977
 20
-133.013977
 11
-68.024971
 21
-133.013977
  0
LINE
  8
0
 62
     2
 10
-66.624947
 20
-137.013977
 11
-68.024971
 21
-137.013977
  0
LINE
  8
0
 10
-86.624977
 20
-132.513947
 11
-77.724953
 21
-132.513947
  0
LINE
  8
0
 62
     2
 10
-86.624977
 20
-133.113953
 11
-77.724953
 21
-133.113953
  0
LINE
  8
0
 10
-77.367683
 20
-137.323364
 11
-73.724953
 21
-137.323364
  0
LINE
  8
0
 10
-86.624977
 20
-137.513947
 11
-77.724922
 21
-137.513947
  0
LINE
  8
0
 62
     2
 10
-86.624947
 20
-136.913940
 11
-77.724922
 21
-136.913940
  0
LINE
  8
0
 10
-77.724976
 20
-131.013885
 11
-77.724976
 21
-137.958145
  0
LINE
  8
0
 10
-86.624969
 20
-132.513885
 11
-86.624969
 21
-137.513885
  0
LINE
  8
0
 10
-77.367683
 20
-130.395142
 11
-73.724983
 21
-130.395142
  0
LINE
  8
0
 10
-77.725449
 20
-131.013687
 11
-77.368179
 21
-130.394913
  0
LINE
  8
0
 10
-77.367683
 20
-132.704529
 11
-73.724983
 21
-132.704529
  0
LINE
  8
0
 10
-77.724976
 20
-139.013962
 11
-77.724976
 21
-132.069733
  0
LINE
  8
0
 10
-77.367683
 20
-139.632751
 11
-73.724953
 21
-139.632751
  0
LINE
  8
0
 10
-77.725235
 20
-139.014114
 11
-77.367989
 21
-139.632889
  0
LINE
  8
0
 10
-10.524986
 20
-108.513977
 11
-10.524986
 21
-103.514008
  0
LINE
  8
0
 10
-32.024971
 20
-137.013977
 11
-32.024971
 21
-104.013954
  0
LINE
  8
0
 10
-68.024994
 20
-150.513962
 11
-68.024994
 21
-90.513931
  0
LINE
  8
0
 10
7.125023
 20
-140.613953
 11
7.125023
 21
-141.513977
  0
LINE
  8
0
 10
-1.374977
 20
-140.613968
 11
-1.374977
 21
-141.513977
  0
LINE
  8
0
 10
-82.124962
 20
-102.513977
 11
-83.924950
 21
-102.513977
  0
LINE
  8
0
 10
-1.124977
 20
-127.513977
 11
-1.124977
 21
-100.013969
  0
LINE
  8
0
 10
-1.124957
 20
-127.513985
 11
-3.424968
 21
-127.513985
  0
LINE
  8
0
 10
-16.174961
 20
-96.313980
 11
-68.024986
 21
-96.313980
  0
LINE
  8
0
 10
-16.174978
 20
-144.713989
 11
-68.025002
 21
-144.713989
  0
LINE
  8
0
 10
-64.324982
 20
-137.013931
 11
-64.324982
 21
-104.013931
  0
LINE
  8
0
 10
-58.324982
 20
-137.013962
 11
-58.324982
 21
-104.013947
  0
LINE
  8
0
 10
-58.324982
 20
-117.513977
 11
-64.324982
 21
-117.513977
  0
LINE
  8
0
 10
-58.324982
 20
-123.513977
 11
-64.324982
 21
-123.513977
  0
LINE
  8
0
 10
-58.324959
 20
-136.513977
 11
-64.324959
 21
-136.513977
  0
LINE
  8
0
 10
-58.324974
 20
-104.513977
 11
-64.324974
 21
-104.513977
  0
LINE
  8
0
 10
-68.024956
 20
-150.313995
 11
-73.724968
 21
-150.313995
  0
LINE
  8
0
 10
-68.024948
 20
-90.713974
 11
-73.724960
 21
-90.713974
  0
LINE
  8
0
 10
-68.024940
 20
-143.713989
 11
-73.724953
 21
-143.713989
  0
LINE
  8
0
 10
-68.024956
 20
-97.313965
 11
-73.724968
 21
-97.313965
  0
LINE
  8
0
  6
CENTER
 62
     2
 10
-75.930725
 20
-120.513992
 11
101.421219
 21
-120.513992
  0
LINE
  8
0
 10
90.575020
 20
-108.764008
 11
90.575020
 21
-104.014038
  0
LINE
  8
0
 10
33.475029
 20
-124.013992
 11
55.975006
 21
-124.013992
  0
LINE
  8
0
 10
33.475029
 20
-117.013992
 11
55.975006
 21
-117.013992
  0
LINE
  8
0
 10
24.645737
 20
-87.313995
 11
17.504320
 21
-87.313995
  0
LINE
  8
0
 10
25.975014
 20
-76.213959
 11
25.975014
 21
-76.813965
  0
LINE
  8
0
 10
16.175011
 20
-76.213943
 11
16.175011
 21
-85.213943
  0
LINE
  8
0
 10
16.175055
 20
-85.213989
 11
25.975042
 21
-85.213989
  0
LINE
  8
0
 10
16.175056
 20
-76.213989
 11
25.975044
 21
-76.213989
  0
LINE
  8
0
 10
21.075052
 20
-79.513992
 11
28.575048
 21
-79.513992
  0
LINE
  8
0
 10
21.075052
 20
-80.913986
 11
28.575048
 21
-80.913986
  0
LINE
  8
0
 10
25.974943
 20
-76.813919
 11
24.674948
 21
-79.513908
  0
LINE
  8
0
 10
25.974918
 20
-83.614059
 11
24.674911
 21
-80.914040
  0
LINE
  8
0
 10
25.975014
 20
-83.613968
 11
25.975014
 21
-85.213974
  0
LINE
  8
0
 10
28.575050
 20
-75.313995
 11
32.875038
 21
-75.313995
  0
LINE
  8
0
 10
35.774994
 20
-75.213989
 11
35.774994
 21
-85.213974
  0
LINE
  8
0
 10
34.174988
 20
-75.213989
 11
34.174988
 21
-85.213974
  0
LINE
  8
0
 10
25.975044
 20
-76.813995
 11
27.075050
 21
-76.813995
  0
LINE
  8
0
 10
28.575012
 20
-75.313965
 11
28.575012
 21
-85.113968
  0
LINE
  8
0
 10
27.075012
 20
-76.813965
 11
27.075012
 21
-79.513962
  0
LINE
  8
0
 10
32.875000
 20
-75.313965
 11
32.875000
 21
-85.113968
  0
LINE
  8
0
 10
34.175026
 20
-75.213989
 11
35.775032
 21
-75.213989
  0
LINE
  8
0
 10
34.175018
 20
-85.213989
 11
35.775024
 21
-85.213989
  0
LINE
  8
0
 10
28.575045
 20
-85.113998
 11
32.875031
 21
-85.113998
  0
LINE
  8
0
 10
25.975042
 20
-83.613998
 11
27.075048
 21
-83.613998
  0
LINE
  8
0
 10
32.875038
 20
-76.963989
 11
34.175026
 21
-76.963989
  0
LINE
  8
0
 10
32.875031
 20
-83.463989
 11
34.175018
 21
-83.463989
  0
LINE
  8
0
 10
27.075012
 20
-80.913956
 11
27.075012
 21
-83.613968
  0
LINE
  8
0
 10
28.574984
 20
-75.313957
 11
27.075003
 21
-76.813957
  0
LINE
  8
0
 10
28.575111
 20
-85.113838
 11
27.075117
 21
-83.613853
  0
LINE
  8
0
 10
17.175035
 20
-86.713989
 11
24.975021
 21
-86.713989
  0
LINE
  8
0
 10
16.825029
 20
-87.313995
 11
25.325027
 21
-87.313995
  0
LINE
  8
0
 10
24.325005
 20
-85.213966
 11
24.325005
 21
-86.713966
  0
LINE
  8
0
 10
17.825005
 20
-85.213959
 11
17.825005
 21
-86.713959
  0
LINE
  8
0
 10
24.974998
 20
-86.713974
 11
24.974998
 21
-87.313980
  0
LINE
  8
0
 10
17.175011
 20
-86.713959
 11
17.175011
 21
-87.313965
  0
LINE
  8
0
 10
18.575037
 20
-59.713989
 11
23.575037
 21
-59.713989
  0
LINE
  8
0
 10
23.575005
 20
-59.713997
 11
23.575005
 21
-63.713997
  0
LINE
  8
0
 10
18.575005
 20
-59.713989
 11
18.575005
 21
-63.713989
  0
LINE
  8
0
 10
18.575035
 20
-63.713989
 11
23.575035
 21
-63.713989
  0
LINE
  8
0
 10
17.610939
 20
-72.213989
 11
24.539162
 21
-72.213989
  0
LINE
  8
0
 10
17.075027
 20
-71.414001
 11
25.075043
 21
-71.414001
  0
LINE
  8
0
 10
17.075031
 20
-68.914001
 11
25.075047
 21
-68.914001
  0
LINE
  8
0
 10
25.075020
 20
-68.914017
 11
25.075020
 21
-71.414017
  0
LINE
  8
0
 10
17.075005
 20
-68.914001
 11
17.075005
 21
-71.414001
  0
LINE
  8
0
 10
25.693825
 20
-72.571228
 11
25.693825
 21
-76.213959
  0
LINE
  8
0
 10
23.384392
 20
-72.571220
 11
23.384392
 21
-76.213951
  0
LINE
  8
0
 10
18.765587
 20
-72.571213
 11
18.765587
 21
-76.213943
  0
LINE
  8
0
 10
16.456200
 20
-72.571213
 11
16.456200
 21
-76.213943
  0
LINE
  8
0
 10
23.575005
 20
-71.413963
 11
23.575005
 21
-72.213951
  0
LINE
  8
0
 10
18.575005
 20
-71.413956
 11
18.575005
 21
-72.213943
  0
LINE
  8
0
 10
19.575005
 20
-63.713943
 11
19.575005
 21
-68.913956
  0
LINE
  8
0
 10
22.575005
 20
-63.713943
 11
22.575005
 21
-68.913956
  0
LINE
  8
0
 62
     2
 10
22.304497
 20
-63.713943
 11
22.304497
 21
-68.913956
  0
LINE
  8
0
 62
     2
 10
19.845512
 20
-63.713943
 11
19.845512
 21
-68.913956
  0
LINE
  8
0
 10
16.575005
 20
-104.013977
 11
16.575005
 21
-110.013977
  0
LINE
  8
0
 10
26.375029
 20
-111.014008
 11
16.575010
 21
-111.014008
  0
LINE
  8
0
 10
16.575005
 20
-102.513977
 11
16.575005
 21
-111.014008
  0
LINE
  8
0
 10
33.075012
 20
-100.013992
 11
33.075012
 21
-141.013977
  0
LINE
  8
0
 10
33.475006
 20
-111.514008
 11
34.975006
 21
-111.514008
  0
LINE
  8
0
 10
34.975006
 20
-111.513992
 11
34.975006
 21
-100.513992
  0
LINE
  8
0
 10
33.475006
 20
-111.513985
 11
33.475006
 21
-100.513962
  0
LINE
  8
0
 10
27.375023
 20
-113.513985
 11
27.375023
 21
-100.013985
  0
LINE
  8
0
 10
89.075035
 20
-104.014038
 11
89.075035
 21
-137.014008
  0
LINE
  8
0
 10
34.975014
 20
-109.014008
 11
55.975037
 21
-109.014008
  0
LINE
  8
0
 10
33.075012
 20
-111.014008
 11
33.475006
 21
-111.014008
  0
LINE
  8
0
 10
34.475021
 20
-132.514008
 11
33.075005
 21
-132.514008
  0
LINE
  8
0
 62
     2
 10
34.475021
 20
-133.014008
 11
33.075005
 21
-133.014008
  0
LINE
  8
0
 10
21.075050
 20
-131.013901
 11
21.075050
 21
-137.013977
  0
LINE
  8
0
 10
21.432295
 20
-130.395172
 11
25.075010
 21
-130.395172
  0
LINE
  8
0
 10
21.075167
 20
-131.013992
 11
21.432413
 21
-130.395248
  0
LINE
  8
0
 10
21.432295
 20
-132.704559
 11
25.075010
 21
-132.704559
  0
LINE
  8
0
 10
21.075050
 20
-139.014343
 11
21.075050
 21
-132.069748
  0
LINE
  8
0
 10
89.075043
 20
-108.763977
 11
90.575005
 21
-108.763977
  0
LINE
  8
0
 10
54.475060
 20
-132.264008
 11
54.475060
 21
-137.013992
  0
LINE
  8
0
 10
55.974998
 20
-132.264008
 11
54.475037
 21
-132.264008
  0
LINE
  8
0
 10
108.475037
 20
-138.514023
 11
108.475037
 21
-131.014008
  0
LINE
  8
0
 10
98.675018
 20
-130.014008
 11
108.475021
 21
-130.014008
  0
LINE
  8
0
 10
99.575035
 20
-138.514008
 11
108.475037
 21
-138.514008
  0
LINE
  8
0
 10
100.075035
 20
-138.514008
 11
101.875023
 21
-138.514008
  0
LINE
  8
0
 10
106.474998
 20
-166.114014
 11
101.475006
 21
-166.114014
  0
LINE
  8
0
 10
101.475029
 20
-166.114044
 11
101.475029
 21
-162.114044
  0
LINE
  8
0
 10
106.475037
 20
-166.114044
 11
106.475037
 21
-162.114044
  0
LINE
  8
0
 10
106.474998
 20
-162.114014
 11
101.475006
 21
-162.114014
  0
LINE
  8
0
 10
107.875031
 20
-139.114014
 11
100.075035
 21
-139.114014
  0
LINE
  8
0
 10
107.974998
 20
-153.614014
 11
99.974991
 21
-153.614014
  0
LINE
  8
0
 10
107.974998
 20
-154.414001
 11
99.975006
 21
-154.414001
  0
LINE
  8
0
 10
107.974998
 20
-156.914001
 11
99.975006
 21
-156.914001
  0
LINE
  8
0
 10
99.975029
 20
-156.914032
 11
99.975029
 21
-154.414032
  0
LINE
  8
0
 10
107.975037
 20
-156.914032
 11
107.975037
 21
-154.414032
  0
LINE
  8
0
 10
101.475029
 20
-154.413971
 11
101.475029
 21
-153.613983
  0
LINE
  8
0
 10
106.475037
 20
-154.413971
 11
106.475037
 21
-153.613983
  0
LINE
  8
0
 10
105.475037
 20
-162.113983
 11
105.475037
 21
-156.913971
  0
LINE
  8
0
 10
102.475037
 20
-162.113983
 11
102.475037
 21
-156.913971
  0
LINE
  8
0
 62
     2
 10
102.745544
 20
-162.113983
 11
102.745544
 21
-156.913971
  0
LINE
  8
0
 62
     2
 10
105.204529
 20
-162.113983
 11
105.204529
 21
-156.913971
  0
LINE
  8
0
 10
100.725029
 20
-140.613983
 11
100.725029
 21
-139.113983
  0
LINE
  8
0
 10
107.225037
 20
-140.613983
 11
107.225037
 21
-139.113983
  0
LINE
  8
0
 10
100.075035
 20
-139.113983
 11
100.075035
 21
-138.514008
  0
LINE
  8
0
 10
107.875031
 20
-139.113983
 11
107.875031
 21
-138.514008
  0
LINE
  8
0
 10
108.874992
 20
-149.614014
 11
99.075005
 21
-149.614014
  0
LINE
  8
0
 10
108.875031
 20
-140.614014
 11
99.075035
 21
-140.614014
  0
LINE
  8
0
 10
99.975029
 20
-153.613983
 11
99.975029
 21
-149.613983
  0
LINE
  8
0
 10
107.975037
 20
-153.613983
 11
107.975037
 21
-149.613983
  0
LINE
  8
0
 10
103.975037
 20
-153.256744
 11
103.975037
 21
-149.613983
  0
LINE
  8
0
 10
99.075035
 20
-149.613983
 11
99.075035
 21
-140.613983
  0
LINE
  8
0
 10
108.875031
 20
-149.614014
 11
108.875031
 21
-140.613998
  0
LINE
  8
0
 10
108.475037
 20
-138.514023
 11
108.475037
 21
-130.014053
  0
LINE
  8
0
 10
98.675018
 20
-140.014008
 11
99.575035
 21
-140.014008
  0
LINE
  8
0
 10
91.574997
 20
-129.514008
 11
90.074997
 21
-129.514008
  0
LINE
  8
0
 10
90.075035
 20
-129.513992
 11
90.075035
 21
-137.014008
  0
LINE
  8
0
 10
91.575035
 20
-129.513992
 11
91.575035
 21
-137.014008
  0
LINE
  8
0
 10
97.675026
 20
-90.714020
 11
97.675026
 21
-150.313995
  0
LINE
  8
0
 10
99.575035
 20
-140.014008
 11
99.575035
 21
-138.514008
  0
LINE
  8
0
 10
90.074989
 20
-132.514008
 11
89.075035
 21
-132.514008
  0
LINE
  8
0
 10
91.975014
 20
-130.014008
 11
91.574989
 21
-130.014008
  0
LINE
  8
0
 10
98.675026
 20
-129.013992
 11
98.675026
 21
-141.014008
  0
LINE
  8
0
 10
26.375027
 20
-112.013992
 11
27.375027
 21
-112.013992
  0
LINE
  8
0
 10
98.675018
 20
-129.013977
 11
97.675018
 21
-129.013977
  0
LINE
  8
0
 10
98.675041
 20
-141.013977
 11
97.675041
 21
-141.013977
  0
LINE
  8
0
 10
33.475029
 20
-117.013985
 11
33.475029
 21
-124.013985
  0
LINE
  8
0
 62
     2
 10
55.975014
 20
-117.821831
 11
55.975014
 21
-123.211906
  0
LINE
  8
0
 10
89.075043
 20
-117.013992
 11
91.975029
 21
-117.013992
  0
LINE
  8
0
 10
89.075043
 20
-124.013992
 11
91.975029
 21
-124.013992
  0
LINE
  8
0
 10
90.575005
 20
-108.513992
 11
91.975029
 21
-108.513992
  0
LINE
  8
0
 62
     2
 10
90.575012
 20
-108.013992
 11
91.975037
 21
-108.013992
  0
LINE
  8
0
 62
     2
 10
90.575012
 20
-104.013992
 11
91.975037
 21
-104.013992
  0
LINE
  8
0
 10
34.475029
 20
-132.513992
 11
34.475029
 21
-137.513977
  0
LINE
  8
0
 10
55.975014
 20
-104.014000
 11
55.975014
 21
-137.013992
  0
LINE
  8
0
 10
91.975029
 20
-90.514038
 11
91.975029
 21
-150.514008
  0
LINE
  8
0
 10
16.825005
 20
-100.414001
 11
16.825005
 21
-99.513977
  0
LINE
  8
0
 10
25.325005
 20
-100.413979
 11
25.325005
 21
-99.513985
  0
LINE
  8
0
 10
106.075043
 20
-138.514008
 11
107.875031
 21
-138.514008
  0
LINE
  8
0
 10
25.075005
 20
-113.513985
 11
25.075005
 21
-141.014008
  0
LINE
  8
0
 10
25.075005
 20
-113.513992
 11
27.375023
 21
-113.513992
  0
LINE
  8
0
 10
-68.024971
 20
-137.014008
 11
-11.124979
 21
-137.014008
  0
LINE
  8
0
 10
-68.024986
 20
-104.013992
 11
-10.524979
 21
-104.013992
  0
LINE
  8
0
 10
-68.024971
 20
-141.314026
 11
-10.996738
 21
-141.314026
  0
LINE
  8
0
 10
-68.024986
 20
-99.713989
 11
-10.996738
 21
-99.713989
  0
LINE
  8
0
 10
-9.874983
 20
-144.713989
 11
33.825016
 21
-144.713989
  0
LINE
  8
0
 10
-9.874958
 20
-96.313995
 11
33.825039
 21
-96.313995
  0
LINE
  8
0
 10
40.125019
 20
-144.713989
 11
91.974998
 21
-144.713989
  0
LINE
  8
0
 10
40.125042
 20
-96.313995
 11
91.975021
 21
-96.313995
  0
LINE
  8
0
 10
88.275032
 20
-104.014038
 11
88.275032
 21
-137.014008
  0
LINE
  8
0
 10
82.275032
 20
-104.014008
 11
82.275032
 21
-137.014008
  0
LINE
  8
0
 10
82.275024
 20
-123.513992
 11
88.275024
 21
-123.513992
  0
LINE
  8
0
 10
82.275024
 20
-117.513992
 11
88.275024
 21
-117.513992
  0
LINE
  8
0
 10
82.275032
 20
-104.513992
 11
88.275032
 21
-104.513992
  0
LINE
  8
0
 10
82.275032
 20
-136.514008
 11
88.275032
 21
-136.514008
  0
LINE
  8
0
 10
91.975021
 20
-90.713989
 11
97.675034
 21
-90.713989
  0
LINE
  8
0
 10
91.974998
 20
-150.314026
 11
97.675011
 21
-150.314026
  0
LINE
  8
0
 10
91.975006
 20
-97.313980
 11
97.675026
 21
-97.313980
  0
LINE
  8
0
 10
91.975006
 20
-143.713989
 11
97.675026
 21
-143.713989
  0
LINE
  8
0
 10
-84.924988
 20
-91.413918
 11
-84.924988
 21
-100.413948
  0
LINE
  8
0
 10
-75.125000
 20
-91.413925
 11
-75.125000
 21
-100.413925
  0
LINE
  8
0
 10
-12.124977
 20
-139.513992
 11
-12.124977
 21
-137.014023
  0
LINE
  8
0
 10
36.075012
 20
-101.513992
 11
36.075012
 21
-104.013992
  0
LINE
  8
0
 10
36.075012
 20
-137.013977
 11
36.075012
 21
-139.513977
  0
LINE
  8
0
 10
-12.124977
 20
-104.013977
 11
-12.124977
 21
-101.513977
  0
LINE
  8
0
 10
35.075020
 20
-104.013992
 11
91.975037
 21
-104.013992
  0
LINE
  8
0
 10
34.475021
 20
-137.014008
 11
91.975029
 21
-137.014008
  0
LINE
  8
0
 10
34.946770
 20
-141.314026
 11
91.975029
 21
-141.314026
  0
LINE
  8
0
 10
34.946827
 20
-99.713989
 11
91.975037
 21
-99.713989
  0
LINE
  8
0
 10
-10.124966
 20
-99.513992
 11
34.075024
 21
-99.513992
  0
LINE
  8
0
 10
-10.124981
 20
-141.514008
 11
34.074997
 21
-141.514008
  0
LINE
  8
0
 10
-9.124966
 20
-100.013992
 11
-1.124967
 21
-100.013992
  0
LINE
  8
0
 10
-9.124981
 20
-141.014008
 11
-3.424968
 21
-141.014008
  0
LINE
  8
0
 10
27.375034
 20
-100.013992
 11
33.075024
 21
-100.013992
  0
LINE
  8
0
 10
25.075005
 20
-141.014008
 11
33.075005
 21
-141.014008
  0
LINE
  8
0
 10
-10.524963
 20
-103.514008
 11
-9.124969
 21
-103.514008
  0
LINE
  8
0
 62
     2
 10
-10.524963
 20
-104.014008
 11
-9.124969
 21
-104.014008
  0
LINE
  8
0
 10
9.475047
 20
-103.513977
 11
2.875024
 21
-103.513977
  0
LINE
  8
0
 62
     2
 10
9.475046
 20
-104.113983
 11
2.875009
 21
-104.113983
  0
LINE
  8
0
 10
33.475018
 20
-100.513977
 11
34.975018
 21
-100.513977
  0
LINE
  8
0
 10
33.075024
 20
-101.013977
 11
33.475018
 21
-101.013977
  0
LINE
  8
0
 10
26.375034
 20
-100.013992
 11
27.375034
 21
-100.013992
  0
LINE
  8
0
 10
-9.524944
 20
-140.514008
 11
-11.024982
 21
-140.514008
  0
LINE
  8
0
 10
-9.124950
 20
-140.014008
 11
-9.524944
 21
-140.014008
  0
LINE
  8
0
 10
-2.424968
 20
-141.013977
 11
-3.424968
 21
-141.013977
  0
LINE
  8
0
 10
21.074877
 20
-139.014099
 11
21.432137
 21
-139.632889
  0
LINE
  8
0
 10
21.432308
 20
-137.323425
 11
25.075024
 21
-137.323425
  0
LINE
  8
0
 10
21.432304
 20
-139.632812
 11
25.075020
 21
-139.632812
  0
LINE
  8
0
 10
34.475029
 20
-137.513977
 11
33.075005
 21
-137.513977
  0
LINE
  8
0
 62
     2
 10
34.475029
 20
-137.013977
 11
33.075005
 21
-137.013977
  0
LINE
  8
0
 10
16.575016
 20
-102.514008
 11
26.375034
 21
-102.514008
  0
LINE
  8
0
 10
16.825016
 20
-100.414017
 11
25.325016
 21
-100.414017
  0
LINE
  8
0
 10
17.075005
 20
-102.513977
 11
17.075005
 21
-100.414001
  0
LINE
  8
0
 10
25.075005
 20
-102.513985
 11
25.075005
 21
-100.413979
  0
LINE
  8
0
 10
16.825020
 20
-90.513977
 11
16.825020
 21
-87.313934
  0
LINE
  8
0
 10
25.325020
 20
-90.513985
 11
25.325020
 21
-87.313950
  0
LINE
  8
0
 10
7.375020
 20
-138.513977
 11
-2.324960
 21
-138.513977
  0
LINE
  8
0
 10
7.125020
 20
-140.613953
 11
-1.374980
 21
-140.613953
  0
LINE
  8
0
 10
6.875023
 20
-138.513977
 11
6.875023
 21
-140.613953
  0
LINE
  8
0
 10
-1.124977
 20
-138.513962
 11
-1.124977
 21
-140.613937
  0
LINE
  8
0
 10
7.125023
 20
-150.514008
 11
7.125023
 21
-153.714050
  0
LINE
  8
0
 10
-1.374977
 20
-150.513947
 11
-1.374977
 21
-153.714020
  0
LINE
  8
0
 10
2.874992
 20
-110.014069
 11
2.874992
 21
-104.013977
  0
LINE
  8
0
 10
2.517759
 20
-110.632812
 11
-1.124971
 21
-110.632812
  0
LINE
  8
0
 10
2.874984
 20
-110.014069
 11
2.517735
 21
-110.632820
  0
LINE
  8
0
 10
2.517759
 20
-108.323410
 11
-1.124971
 21
-108.323410
  0
LINE
  8
0
 10
2.874992
 20
-102.013611
 11
2.874992
 21
-108.958221
  0
LINE
  8
0
 10
2.517764
 20
-101.395172
 11
-1.124967
 21
-101.395172
  0
LINE
  8
0
 10
2.517762
 20
-103.704575
 11
-1.124969
 21
-103.704575
  0
LINE
  8
0
 10
2.874950
 20
-102.013939
 11
2.517686
 21
-101.395149
  0
LINE
  8
0
 10
9.475021
 20
-108.514023
 11
9.475021
 21
-103.513992
  0
LINE
  8
0
 10
110.575012
 20
-108.514023
 11
101.674988
 21
-108.514023
  0
LINE
  8
0
 62
     2
 10
110.575012
 20
-107.914017
 11
101.674988
 21
-107.914017
  0
LINE
  8
0
 10
101.317757
 20
-103.704636
 11
97.675026
 21
-103.704636
  0
LINE
  8
0
 10
110.575027
 20
-103.514023
 11
101.674995
 21
-103.514023
  0
LINE
  8
0
 62
     2
 10
110.575012
 20
-104.114029
 11
101.674995
 21
-104.114029
  0
LINE
  8
0
 10
101.675011
 20
-110.014053
 11
101.675011
 21
-103.069839
  0
LINE
  8
0
 10
110.575012
 20
-108.514076
 11
110.575012
 21
-103.514076
  0
LINE
  8
0
 10
101.317749
 20
-110.632828
 11
97.675018
 21
-110.632828
  0
LINE
  8
0
 10
101.675537
 20
-110.014351
 11
101.318283
 21
-110.633118
  0
LINE
  8
0
 10
101.317749
 20
-108.323441
 11
97.675018
 21
-108.323441
  0
LINE
  8
0
 10
101.675011
 20
-102.013992
 11
101.675011
 21
-108.958237
  0
LINE
  8
0
 10
101.317757
 20
-101.395233
 11
97.675026
 21
-101.395233
  0
LINE
  8
0
 10
101.675255
 20
-102.013947
 11
101.317978
 21
-101.395142
  0
LINE
  8
0
 10
-68.024979
 20
-90.513992
 11
91.975037
 21
-90.513992
  0
LINE
  8
0
 10
-68.025017
 20
-150.514008
 11
91.974983
 21
-150.514008
  0
LINE
  8
0
 10
-3.424983
 20
-128.013489
 11
-9.124998
 21
-128.013489
  0
LINE
  8
0
 10
-1.124987
 20
-109.513489
 11
-9.124987
 21
-109.513489
  0
LINE
  8
0
 10
27.375011
 20
-113.014481
 11
33.074997
 21
-113.014481
  0
LINE
  8
0
 10
25.074980
 20
-131.514496
 11
33.074989
 21
-131.514496
  0
LINE
  8
0
 10
14.475026
 20
-137.514008
 11
21.075054
 21
-137.514008
  0
LINE
  8
0
 62
     2
 10
14.475027
 20
-136.914001
 11
21.075069
 21
-136.914001
  0
LINE
  8
0
 62
     2
 10
14.475016
 20
-133.113983
 11
21.075041
 21
-133.113983
  0
LINE
  8
0
 10
14.475031
 20
-132.513977
 11
21.075041
 21
-132.513977
  0
LINE
  8
0
 10
14.475037
 20
-132.513977
 11
14.475037
 21
-137.514008
  0
LINE
  8
0
 10
-2.424965
 20
-129.014008
 11
-2.424965
 21
-141.014023
  0
LINE
  8
0
 10
26.375023
 20
-112.013985
 11
26.375023
 21
-100.013985
  0
LINE
  8
0
  6
CENTER
 62
     2
 10
-7.447184
 20
-145.513977
 11
-18.779001
 21
-145.513977
  0
LINE
  8
0
  6
CENTER
 62
     2
 10
-13.024979
 20
-152.486801
 11
-13.024979
 21
-140.089600
  0
LINE
  8
0
  6
CENTER
 62
     2
 10
-70.014305
 20
-130.513992
 11
-54.711502
 21
-130.513992
  0
LINE
  8
0
  6
CENTER
 62
     2
 10
-13.024979
 20
-88.541153
 11
-13.024979
 21
-100.938370
  0
LINE
  8
0
  6
CENTER
 62
     2
 10
-7.447159
 20
-95.514015
 11
-18.778976
 21
-95.514015
  0
LINE
  8
0
  6
CENTER
 62
     2
 10
-70.014297
 20
-110.513992
 11
-54.711502
 21
-110.513992
  0
LINE
  8
0
  6
CENTER
 62
     2
 10
36.975052
 20
-152.486832
 11
36.975052
 21
-140.089615
  0
LINE
  8
0
  6
CENTER
 62
     2
 10
31.397228
 20
-145.513977
 11
42.729046
 21
-145.513977
  0
LINE
  8
0
  6
CENTER
 62
     2
 10
31.397255
 20
-95.514015
 11
42.729069
 21
-95.514015
  0
LINE
  8
0
  6
CENTER
 62
     2
 10
36.975052
 20
-88.541183
 11
36.975052
 21
-100.938385
  0
LINE
  8
0
  6
CENTER
 62
     2
 10
93.964363
 20
-130.513992
 11
78.661568
 21
-130.513992
  0
LINE
  8
0
  6
CENTER
 62
     2
 10
93.964371
 20
-110.513992
 11
78.661575
 21
-110.513992
  0
ARC
  8
0
 10
21.075014
 20
46.828644
 40
7.642725
 50
252.412003
 51
287.587952
  0
ARC
  8
0
 62
     2
 10
16.075031
 20
43.313782
 40
1.827884
 50
279.446472
 51
282.037323
  0
ARC
  8
0
 10
17.610905
 20
41.230545
 40
2.044655
 50
235.615723
 51
304.384430
  0
ARC
  8
0
 10
24.539112
 20
41.230545
 40
2.044656
 50
235.615692
 51
304.384308
  0
CIRCLE
  8
0
 10
11.975010
 20
62.485916
 40
3.000000
  0
ARC
  8
0
 10
11.975018
 20
111.485909
 40
3.000000
 50
180.000000
 51
0.000000
  0
ARC
  8
0
 10
99.630440
 20
69.521782
 40
2.044655
 50
325.615936
 51
34.384079
  0
ARC
  8
0
 10
94.032356
 20
72.985863
 40
7.642716
 50
342.412109
 51
17.587961
  0
ARC
  8
0
 10
99.630409
 20
76.450005
 40
2.044655
 50
325.615936
 51
34.384079
  0
ARC
  8
0
 10
94.032356
 20
72.985939
 40
7.642714
 50
342.412170
 51
17.588015
  0
CIRCLE
  8
0
 62
     2
 10
36.975079
 20
62.485928
 40
2.000000
  0
CIRCLE
  8
0
 10
36.975079
 20
62.485928
 40
1.500000
  0
CIRCLE
  8
0
 62
     2
 10
36.975094
 20
112.485901
 40
2.000000
  0
CIRCLE
  8
0
 10
36.975094
 20
112.485901
 40
1.500000
  0
ARC
  8
0
 10
101.975090
 20
114.809242
 40
5.776707
 50
69.743835
 51
110.256142
  0
ARC
  8
0
 10
105.975090
 20
114.809242
 40
5.776714
 50
69.743858
 51
110.256165
  0
CIRCLE
  8
0
 10
103.975067
 20
112.585884
 40
2.000000
  0
CIRCLE
  8
0
 10
103.975067
 20
112.585884
 40
5.000000
  0
ARC
  8
0
 62
     2
 10
7.875072
 20
131.658051
 40
1.827888
 50
99.446442
 51
102.037376
  0
ARC
  8
0
 10
2.875086
 20
128.143188
 40
7.642728
 50
72.412018
 51
107.587997
  0
ARC
  8
0
 10
-0.589017
 20
133.741272
 40
2.044659
 50
55.615765
 51
124.384285
  0
ARC
  8
0
 10
6.339199
 20
133.741272
 40
2.044658
 50
55.615799
 51
124.384300
  0
ARC
  8
0
 10
-75.680328
 20
105.450050
 40
2.044655
 50
145.615921
 51
214.384079
  0
ARC
  8
0
 10
-70.082245
 20
101.985962
 40
7.642718
 50
162.412064
 51
197.587936
  0
ARC
  8
0
 10
-75.680298
 20
98.521820
 40
2.044655
 50
145.615921
 51
214.384079
  0
ARC
  8
0
 10
-70.082245
 20
101.985886
 40
7.642716
 50
162.412109
 51
197.587967
  0
CIRCLE
  8
0
 62
     2
 10
-13.024981
 20
112.485916
 40
2.000000
  0
CIRCLE
  8
0
 10
-13.024981
 20
112.485916
 40
1.500000
  0
CIRCLE
  8
0
 62
     2
 10
-13.024992
 20
62.485950
 40
2.000000
  0
CIRCLE
  8
0
 10
-13.024992
 20
62.485950
 40
1.500000
  0
ARC
  8
0
 10
-78.025002
 20
60.162590
 40
5.776711
 50
249.743851
 51
290.256165
  0
ARC
  8
0
 10
-82.025002
 20
60.162590
 40
5.776711
 50
249.743851
 51
290.256165
  0
CIRCLE
  8
0
 10
-80.024963
 20
62.385933
 40
2.000000
  0
CIRCLE
  8
0
 10
-80.024963
 20
62.385933
 40
5.000000
  0
CIRCLE
  8
0
 10
-178.471848
 20
101.985825
 40
2.500000
  0
CIRCLE
  8
0
 62
     2
 10
-178.471848
 20
101.985825
 40
1.800000
  0
CIRCLE
  8
0
 10
-178.471848
 20
101.985825
 40
4.000000
  0
CIRCLE
  8
0
 62
     2
 10
-189.471848
 20
97.485847
 40
2.000000
  0
CIRCLE
  8
0
 10
-189.471848
 20
97.485847
 40
1.500000
  0
ARC
  8
0
 10
-170.971863
 20
117.485840
 40
0.500000
 50
180.000000
 51
203.578110
  0
ARC
  8
0
 10
-170.971863
 20
117.485840
 40
0.499994
 50
336.421875
 51
0.000000
  0
ARC
  8
0
 10
-178.471817
 20
72.985825
 40
4.999997
 50
315.572968
 51
224.427109
  0
ARC
  8
0
 10
-186.094360
 20
107.985825
 40
0.500000
 50
90.000000
 51
150.000076
  0
ARC
  8
0
 10
-189.771881
 20
113.485809
 40
4.000000
 50
90.000000
 51
157.668365
  0
CIRCLE
  8
0
 62
     2
 10
-189.471817
 20
77.485817
 40
2.000000
  0
CIRCLE
  8
0
 10
-189.471817
 20
77.485817
 40
1.500000
  0
ARC
  8
0
 10
-186.094299
 20
66.985825
 40
0.500001
 50
209.999924
 51
270.000000
  0
ARC
  8
0
 10
-189.771790
 20
61.485817
 40
4.000000
 50
202.331741
 51
270.000000
  0
ARC
  8
0
 10
-189.269730
 20
70.485817
 40
0.500001
 50
29.999931
 51
90.000000
  0
ARC
  8
0
 10
-189.269760
 20
104.485817
 40
0.500000
 50
270.000000
 51
330.000061
  0
ARC
  8
0
 10
-176.471786
 20
44.962578
 40
5.776711
 50
249.743851
 51
290.256165
  0
ARC
  8
0
 10
-180.471786
 20
44.962570
 40
5.776711
 50
249.743851
 51
290.256317
  0
ARC
  8
0
 10
-178.471802
 20
62.028549
 40
7.642728
 50
252.412018
 51
287.587982
  0
ARC
  8
0
 10
-175.007690
 20
56.430473
 40
2.044652
 50
235.615860
 51
304.384491
  0
ARC
  8
0
 10
-181.935913
 20
56.430466
 40
2.044652
 50
235.615860
 51
304.384552
  0
ARC
  8
0
 10
-169.971802
 20
57.485840
 40
0.499994
 50
156.421890
 51
180.000000
  0
ARC
  8
0
 10
-176.471878
 20
130.009125
 40
5.776714
 50
69.743858
 51
110.256279
  0
ARC
  8
0
 10
-180.471878
 20
130.009109
 40
5.776714
 50
69.743858
 51
110.256142
  0
CIRCLE
  8
0
 10
-183.986984
 20
71.508041
 40
0.400000
  0
ARC
  8
0
 10
-183.986984
 20
71.508041
 40
0.999998
 50
95.000153
 51
289.038483
  0
ARC
  8
0
 10
-178.171829
 20
72.985832
 40
5.999996
 50
203.818970
 51
233.724777
  0
ARC
  8
0
 10
-178.171829
 20
72.985832
 40
6.000000
 50
299.450317
 51
156.181152
  0
ARC
  8
0
 10
-183.986984
 20
74.463608
 40
0.999997
 50
70.961510
 51
260.521790
  0
CIRCLE
  8
0
 10
-183.986984
 20
74.463608
 40
0.400000
  0
CIRCLE
  8
0
 10
-178.471878
 20
127.285828
 40
2.000000
  0
CIRCLE
  8
0
 10
-178.471878
 20
127.285828
 40
5.000000
  0
ARC
  8
0
 62
     4
 10
-184.121887
 20
58.513695
 40
1.827884
 50
279.446472
 51
304.346313
  0
ARC
  8
0
 62
     4
 10
-182.621887
 20
61.985802
 40
1.500000
 50
119.995956
 51
240.004044
  0
ARC
  8
0
 62
     4
 10
-184.121887
 20
58.513695
 40
1.827886
 50
196.785995
 51
260.553528
  0
ARC
  8
0
 62
     4
 10
-186.021851
 20
58.485802
 40
0.300003
 50
0.000000
 51
90.000000
  0
CIRCLE
  8
0
 10
-80.024963
 20
-20.014023
 40
2.500000
  0
CIRCLE
  8
0
 10
-80.024963
 20
-20.014023
 40
4.900000
  0
CIRCLE
  8
0
 10
-80.024963
 20
-20.014023
 40
4.000000
  0
CIRCLE
  8
0
 62
     4
 10
-17.978189
 20
-25.664043
 40
1.750000
  0
CIRCLE
  8
0
 10
21.075094
 20
-20.014023
 40
4.900000
  0
CIRCLE
  8
0
 10
21.075094
 20
-20.014023
 40
4.000000
  0
CIRCLE
  8
0
 10
21.075094
 20
-20.014023
 40
2.500000
  0
ARC
  8
0
 10
95.898354
 20
-22.014048
 40
5.776651
 50
339.743805
 51
20.256428
  0
ARC
  8
0
 10
95.898354
 20
-18.014050
 40
5.776651
 50
339.743805
 51
20.256428
  0
ARC
  8
0
 10
99.630341
 20
-102.549927
 40
2.044655
 50
325.615936
 51
34.384197
  0
ARC
  8
0
 10
94.032288
 20
-106.014008
 40
7.642714
 50
342.412170
 51
17.588015
  0
ARC
  8
0
 10
2.874933
 20
-161.171265
 40
7.642724
 50
252.412109
 51
287.588165
  0
ARC
  8
0
 10
-0.589179
 20
-166.769348
 40
2.044657
 50
235.615829
 51
304.384338
  0
ARC
  8
0
 10
6.339043
 20
-166.769348
 40
2.044658
 50
235.615799
 51
304.384308
  0
ARC
  8
0
 62
     2
 10
7.874932
 20
-164.686096
 40
1.827880
 50
257.962738
 51
260.553711
  0
ARC
  8
0
 10
-82.024948
 20
-93.190651
 40
5.776714
 50
69.743858
 51
110.256233
  0
ARC
  8
0
 10
-78.024948
 20
-93.190659
 40
5.776711
 50
69.743935
 51
110.256233
  0
ARC
  8
0
 10
-70.082222
 20
-135.013885
 40
7.642716
 50
162.412109
 51
197.588013
  0
ARC
  8
0
 10
-75.680275
 20
-138.478073
 40
2.044655
 50
145.615921
 51
214.384201
  0
ARC
  8
0
 10
-70.082222
 20
-135.013977
 40
7.642716
 50
162.412109
 51
197.588013
  0
ARC
  8
0
 10
-75.680275
 20
-131.549835
 40
2.044655
 50
145.615921
 51
214.384079
  0
CIRCLE
  8
0
 10
-13.024992
 20
-145.513947
 40
3.250000
  0
CIRCLE
  8
0
 10
-13.024958
 20
-95.513962
 40
3.250000
  0
CIRCLE
  8
0
 10
-13.024992
 20
-145.513947
 40
1.650000
  0
CIRCLE
  8
0
 10
-13.024958
 20
-95.513962
 40
1.650000
  0
ARC
  8
0
 10
29.575035
 20
-75.313965
 40
0.500000
 50
180.000000
 51
203.577759
  0
ARC
  8
0
 10
21.075029
 20
-79.856697
 40
7.642726
 50
72.412048
 51
107.588036
  0
ARC
  8
0
 10
24.539146
 20
-74.258621
 40
2.044653
 50
55.615623
 51
124.384377
  0
ARC
  8
0
 10
17.610924
 20
-74.258621
 40
2.044653
 50
55.615623
 51
124.384377
  0
ARC
  8
0
 62
     2
 10
16.075020
 20
-76.341843
 40
1.827888
 50
77.962715
 51
80.553619
  0
ARC
  8
0
 10
23.119688
 20
-131.549850
 40
2.044655
 50
145.615921
 51
214.384140
  0
ARC
  8
0
 10
28.717733
 20
-135.013992
 40
7.642714
 50
162.411743
 51
197.588013
  0
ARC
  8
0
 10
105.974998
 20
-147.837311
 40
5.776714
 50
249.743866
 51
290.256195
  0
ARC
  8
0
 10
101.974998
 20
-147.837311
 40
5.776711
 50
249.743927
 51
290.256348
  0
CIRCLE
  8
0
 10
36.975040
 20
-95.513992
 40
3.250000
  0
CIRCLE
  8
0
 10
36.975018
 20
-145.514023
 40
3.250000
  0
CIRCLE
  8
0
 10
36.975040
 20
-95.513992
 40
1.650000
  0
CIRCLE
  8
0
 10
36.975018
 20
-145.514023
 40
1.650000
  0
ARC
  8
0
 10
-10.124966
 20
-101.513977
 40
2.000000
 50
90.000031
 51
180.000000
  0
ARC
  8
0
 10
34.075024
 20
-101.513992
 40
2.000000
 50
0.000000
 51
90.000000
  0
ARC
  8
0
 10
-10.124996
 20
-139.513962
 40
2.000000
 50
180.000000
 51
270.000092
  0
ARC
  8
0
 10
34.074997
 20
-139.514008
 40
2.000000
 50
270.000122
 51
0.000000
  0
ARC
  8
0
 10
23.119690
 20
-138.478119
 40
2.044653
 50
145.615891
 51
214.384109
  0
ARC
  8
0
 10
0.830366
 20
-109.478127
 40
2.044655
 50
325.615936
 51
34.384144
  0
ARC
  8
0
 10
-4.767672
 20
-106.013985
 40
7.642715
 50
342.411682
 51
17.588434
  0
ARC
  8
0
 10
0.830371
 20
-102.549843
 40
2.044653
 50
325.615906
 51
34.384109
  0
ARC
  8
0
 10
99.630341
 20
-109.478149
 40
2.044655
 50
325.615936
 51
34.384079
  0
ARC
  8
0
 10
94.032288
 20
-106.014069
 40
7.642714
 50
342.412170
 51
17.588015
  0
TEXT
  8
0
 10
174.200241
 20
180.830002
 40
6.300000
  1
DATE: MAY ,1993
 50
0.000000
 41
1.052632
 51
0.000000
  7
STANDARD
  0
TEXT
  8
0
 10
167.564667
 20
-192.100006
 40
9.000000
  1
KOGANEI CORP.
 50
0.000000
 41
1.052632
 51
0.000000
  7
STANDARD
  0
TEXT
  8
0
 10
-269.149719
 20
180.830002
 40
6.300000
  1
HANDLING MODULE
 50
0.000000
 41
1.052632
 51
0.000000
  7
STANDARD
  0
TEXT
  8
0
 10
-270.049713
 20
155.830002
 40
6.300000
  1
MODEL:SHM72S-SL
 50
0.000000
 41
1.052632
 51
0.000000
  7
STANDARD
  0
ENDSEC
  0
EOF
