  0
SECTION
  2
HEADER
  9
$ACADVER
  1
AC1002
  9
$INSBASE
 10
0.0
 20
0.0
  9
$EXTMIN
 10
-180.9868
 20
-127.2792
  9
$EXTMAX
 10
189.8868
 20
127.2792
  9
$LIMMIN
 10
0.0
 20
0.0
  9
$LIMMAX
 10
12.0
 20
9.0
  9
$VIEWCTR
 10
18.75458208
 20
0.0
  9
$VIEWSIZE
 40
254.5584
  9
$SNAPMODE
 70
     0
  9
$SNAPUNIT
 10
1.0
 20
1.0
  9
$SNAPBASE
 10
0.0
 20
0.0
  9
$SNAPANG
 50
0.0
  9
$SNAPSTYLE
 70
     0
  9
$SNAPISOPAIR
 70
     0
  9
$GRIDMODE
 70
     0
  9
$GRIDUNIT
 10
0.0
 20
0.0
  9
$ORTHOMODE
 70
     0
  9
$REGENMODE
 70
     1
  9
$FILLMODE
 70
     1
  9
$QTEXTMODE
 70
     0
  9
$DRAGMODE
 70
     2
  9
$LTSCALE
 40
1.0
  9
$OSMODE
 70
     0
  9
$ATTMODE
 70
     1
  9
$TEXTSIZE
 40
0.2
  9
$TRACEWID
 40
0.05
  9
$TEXTSTYLE
  7
AAA
  9
$CLAYER
  8
0
  9
$CELTYPE
  6
BYLAYER
  9
$CECOLOR
 62
   256
  9
$DIMSCALE
 40
1.0
  9
$DIMASZ
 40
0.18
  9
$DIMEXO
 40
0.0625
  9
$DIMDLI
 40
0.38
  9
$DIMRND
 40
0.0
  9
$DIMDLE
 40
0.0
  9
$DIMEXE
 40
0.18
  9
$DIMTP
 40
0.0
  9
$DIMTM
 40
0.0
  9
$DIMTXT
 40
0.18
  9
$DIMCEN
 40
0.09
  9
$DIMTSZ
 40
0.0
  9
$DIMTOL
 70
     0
  9
$DIMLIM
 70
     0
  9
$DIMTIH
 70
     1
  9
$DIMTOH
 70
     1
  9
$DIMSE1
 70
     0
  9
$DIMSE2
 70
     0
  9
$DIMTAD
 70
     0
  9
$DIMZIN
 70
     0
  9
$DIMBLK
  1

  9
$LUNITS
 70
     2
  9
$LUPREC
 70
     4
  9
$AXISMODE
 70
     0
  9
$AXISUNIT
 10
0.0
 20
0.0
  9
$SKETCHINC
 40
0.1
  9
$FILLETRAD
 40
0.0
  9
$AUNITS
 70
     0
  9
$AUPREC
 70
     0
  9
$MENU
  1
ACAD
  9
$ELEVATION
 40
0.0
  9
$THICKNESS
 40
0.0
  9
$VIEWDIR
 10
0.0
 20
0.0
 30
1.0
  9
$LIMCHECK
 70
     0
  9
$BLIPMODE
 70
     1
  9
$CHAMFERA
 40
0.0
  9
$CHAMFERB
 40
0.0
  9
$FASTZOOM
 70
     1
  9
$SKPOLY
 70
     0
  9
$TDCREATE
 40
2447804.5513079202
  9
$TDUPDATE
 40
2447804.5513079202
  9
$TDINDWG
 40
0.0026851852
  9
$TDUSRTIMER
 40
0.0026851852
  9
$USRTIMER
 70
     1
  9
$ANGBASE
 50
0.0
  9
$ANGDIR
 70
     0
  9
$PDMODE
 70
     0
  9
$PDSIZE
 40
0.0
  9
$PLINEWID
 40
0.0
  9
$COORDS
 70
     0
  9
$USERI1
 70
     0
  9
$USERI2
 70
     0
  9
$USERI3
 70
     0
  9
$USERI4
 70
     0
  9
$USERI5
 70
     0
  9
$USERR1
 40
0.0
  9
$USERR2
 40
0.0
  9
$USERR3
 40
0.0
  9
$USERR4
 40
0.0
  9
$USERR5
 40
0.0
  0
ENDSEC
  0
SECTION
  2
TABLES
  0
TABLE
  2
LTYPE
 70
     3
  0
LTYPE
  2
CONTINUOUS
 70
    64
  3
SOLID
 72
    65
 73
     0
 40
0.0
  0
LTYPE
  2
CENTER
 70
    64
  3
CENTER
 72
    65
 73
     4
 40
2.0
 49
1.25
 49
-0.25
 49
0.25
 49
-0.25
  0
LTYPE
  2
PHANTOM
 70
    64
  3
PHANTOM
 72
    65
 73
     6
 40
2.5
 49
1.25
 49
-0.25
 49
0.25
 49
-0.25
 49
0.25
 49
-0.25
  0
ENDTAB
  0
TABLE
  2
LAYER
 70
     1
  0
LAYER
  2
0
 70
    64
 62
     7
  6
CONTINUOUS
  0
ENDTAB
  0
TABLE
  2
STYLE
 70
     2
  0
STYLE
  2
AAA
 70
     0
 40
0.0
 41
1.0
 50
0.0
 71
     0
 42
0.2
  3
TXT
  4

  0
STYLE
  2
STANDARD
 70
    64
 40
0.0
 41
1.0
 50
0.0
 71
     0
 42
0.2
  3
TXT
  4
BIGFONT
  0
ENDTAB
  0
TABLE
  2
VIEW
 70
     0
  0
ENDTAB
  0
ENDSEC
  0
SECTION
  2
BLOCKS
  0
ENDSEC
  0
SECTION
  2
ENTITIES
  0
POINT
  8
0
  6
CONTINUOUS
 62
     7
 10
83.48746
 20
3.4641
  0
POINT
  8
0
  6
CONTINUOUS
 62
     7
 10
-115.3
 20
0.0
  0
POINT
  8
0
  6
CONTINUOUS
 62
     7
 10
-108.0
 20
0.0
  0
POINT
  8
0
  6
CONTINUOUS
 62
     7
 10
-112.0
 20
0.0
  0
POINT
  8
0
  6
CONTINUOUS
 62
     7
 10
-109.0
 20
0.0
  0
POINT
  8
0
  6
CONTINUOUS
 62
     7
 10
0.0
 20
0.0
  0
POINT
  8
0
  6
CONTINUOUS
 62
     7
 10
110.0
 20
0.0
  0
LINE
  8
0
  6
PHANTOM
 62
     2
 10
118.0
 20
-10.0
 11
118.0
 21
10.0
  0
LINE
  8
0
  6
PHANTOM
 62
     2
 10
102.0
 20
20.8
 11
102.0
 21
-20.8
  0
LINE
  8
0
  6
CENTER
 62
     2
 10
0.0
 20
7.875
 11
0.0
 21
-8.7735
  0
LINE
  8
0
  6
CONTINUOUS
 62
     7
 10
-5.0
 20
2.88675
 11
-5.0
 21
-2.88675
  0
LINE
  8
0
  6
CONTINUOUS
 62
     7
 10
5.0
 20
2.88675
 11
5.0
 21
-2.88675
  0
LINE
  8
0
  6
CONTINUOUS
 62
     7
 10
0.0
 20
5.7735
 11
5.0
 21
2.88675
  0
LINE
  8
0
  6
CONTINUOUS
 62
     7
 10
-5.0
 20
-2.88676
 11
0.0
 21
-5.77351
  0
LINE
  8
0
  6
CONTINUOUS
 62
     7
 10
-4.99999
 20
2.88674
 11
0.00001
 21
5.77349
  0
LINE
  8
0
  6
CONTINUOUS
 62
     7
 10
0.0
 20
-5.7735
 11
5.0
 21
-2.88675
  0
LINE
  8
0
  6
CONTINUOUS
 62
     7
 10
-1.65227
 20
0.4
 11
1.65227
 21
0.4
  0
LINE
  8
0
  6
CONTINUOUS
 62
     7
 10
-1.65227
 20
-0.4
 11
1.65227
 21
-0.4
  0
LINE
  8
0
  6
CONTINUOUS
 62
     7
 10
-3.31663
 20
5.0
 11
-1.33974
 21
5.0
  0
LINE
  8
0
  6
CONTINUOUS
 62
     7
 10
-3.31663
 20
-5.0
 11
-1.33974
 21
-5.0
  0
LINE
  8
0
  6
CONTINUOUS
 62
     7
 10
1.33974
 20
-5.0
 11
3.31663
 21
-5.0
  0
LINE
  8
0
  6
CONTINUOUS
 62
     7
 10
1.33974
 20
5.0
 11
3.31663
 21
5.0
  0
LINE
  8
0
  6
CENTER
 62
     2
 10
110.0
 20
7.875
 11
110.0
 21
-8.7735
  0
LINE
  8
0
  6
CONTINUOUS
 62
     7
 10
105.0
 20
2.88675
 11
105.0
 21
-2.88675
  0
LINE
  8
0
  6
CONTINUOUS
 62
     7
 10
115.0
 20
2.88675
 11
115.0
 21
-2.88675
  0
LINE
  8
0
  6
CONTINUOUS
 62
     7
 10
110.0
 20
5.7735
 11
115.0
 21
2.88674
  0
LINE
  8
0
  6
CONTINUOUS
 62
     7
 10
105.0
 20
-2.88676
 11
110.0
 21
-5.77351
  0
LINE
  8
0
  6
CONTINUOUS
 62
     7
 10
105.0
 20
2.88674
 11
110.0
 21
5.77349
  0
LINE
  8
0
  6
CONTINUOUS
 62
     7
 10
110.0
 20
-5.7735
 11
115.0
 21
-2.88674
  0
LINE
  8
0
  6
CONTINUOUS
 62
     7
 10
108.3477
 20
0.4
 11
111.6523
 21
0.4
  0
LINE
  8
0
  6
CONTINUOUS
 62
     7
 10
108.3477
 20
-0.4
 11
111.6523
 21
-0.4
  0
LINE
  8
0
  6
CONTINUOUS
 62
     7
 10
106.6834
 20
5.0
 11
108.6603
 21
5.0
  0
LINE
  8
0
  6
CONTINUOUS
 62
     7
 10
106.6834
 20
-5.0
 11
108.6603
 21
-5.0
  0
LINE
  8
0
  6
CONTINUOUS
 62
     7
 10
111.3397
 20
-5.0
 11
113.3166
 21
-5.0
  0
LINE
  8
0
  6
CONTINUOUS
 62
     7
 10
111.3397
 20
5.0
 11
113.3166
 21
5.0
  0
LINE
  8
0
  6
CENTER
 62
     2
 10
-108.0
 20
-16.5
 11
-108.0
 21
16.5
  0
LINE
  8
0
  6
PHANTOM
 62
     2
 10
-94.5
 20
15.0
 11
-94.5
 21
-15.0
  0
LINE
  8
0
  6
CENTER
 62
     2
 10
-139.1
 20
0.0
 11
-85.0
 21
0.0
  0
LINE
  8
0
  6
CONTINUOUS
 62
     7
 10
-94.5
 20
5.1
 11
-94.5
 21
-5.1
  0
LINE
  8
0
  6
CONTINUOUS
 62
     7
 10
-94.05342
 20
5.77351
 11
-91.44658
 21
5.7735
  0
LINE
  8
0
  6
CONTINUOUS
 62
     7
 10
-94.05341
 20
2.88676
 11
-91.44657
 21
2.88675
  0
LINE
  8
0
  6
CONTINUOUS
 62
     7
 10
-94.05341
 20
-2.88675
 11
-91.44657
 21
-2.88675
  0
LINE
  8
0
  6
CONTINUOUS
 62
     7
 10
-94.05341
 20
-5.7735
 11
-91.44657
 21
-5.7735
  0
LINE
  8
0
  6
CONTINUOUS
 62
     7
 10
-91.0
 20
5.0
 11
-91.0
 21
-5.00002
  0
LINE
  8
0
  6
CONTINUOUS
 62
     7
 10
-94.49995
 20
4.99998
 11
-94.05336
 21
5.77348
  0
LINE
  8
0
  6
CONTINUOUS
 62
     7
 10
-91.44666
 20
-5.77348
 11
-91.00009
 21
-4.99999
  0
LINE
  8
0
  6
CONTINUOUS
 62
     7
 10
-91.44659
 20
5.77351
 11
-91.00002
 21
5.00001
  0
LINE
  8
0
  6
CONTINUOUS
 62
     7
 10
-94.5
 20
-4.99999
 11
-94.05342
 21
-5.77349
  0
LINE
  8
0
  6
CONTINUOUS
 62
     7
 10
-88.0
 20
1.7
 11
-88.0
 21
0.4
  0
LINE
  8
0
  6
CONTINUOUS
 62
     7
 10
-89.3
 20
0.4
 11
-89.3
 21
-0.4
  0
LINE
  8
0
  6
CONTINUOUS
 62
     7
 10
-89.5
 20
1.7
 11
-88.0
 21
1.7
  0
LINE
  8
0
  6
CONTINUOUS
 62
     7
 10
-89.5
 20
-1.7
 11
-88.0
 21
-1.7
  0
LINE
  8
0
  6
CONTINUOUS
 62
     7
 10
-89.5
 20
1.7
 11
-89.5
 21
-1.7
  0
LINE
  8
0
  6
CONTINUOUS
 62
     7
 10
-89.3
 20
0.4
 11
-88.0
 21
0.4
  0
LINE
  8
0
  6
CONTINUOUS
 62
     7
 10
-89.3
 20
-0.4
 11
-88.0
 21
-0.4
  0
LINE
  8
0
  6
CONTINUOUS
 62
     7
 10
-91.0
 20
2.0
 11
-89.8
 21
2.0
  0
LINE
  8
0
  6
CONTINUOUS
 62
     7
 10
-91.0
 20
-2.0
 11
-89.8
 21
-2.0
  0
LINE
  8
0
  6
CONTINUOUS
 62
     7
 10
-89.80005
 20
2.00002
 11
-89.50002
 21
1.70001
  0
LINE
  8
0
  6
CONTINUOUS
 62
     7
 10
-89.79998
 20
-2.00001
 11
-89.49998
 21
-1.7
  0
LINE
  8
0
  6
CONTINUOUS
 62
     7
 10
-89.80004
 20
-2.0
 11
-89.80003
 21
2.0
  0
LINE
  8
0
  6
CONTINUOUS
 62
     7
 10
-88.0
 20
-0.4
 11
-88.0
 21
-1.7
  0
LINE
  8
0
  6
CONTINUOUS
 62
     7
 10
-91.0
 20
1.7295
 11
-89.5295
 21
1.7295
  0
LINE
  8
0
  6
CONTINUOUS
 62
     7
 10
-91.0
 20
-1.7295
 11
-89.5295
 21
-1.7295
  0
LINE
  8
0
  6
CONTINUOUS
 62
     7
 10
-95.5004
 20
5.1
 11
-94.5
 21
5.1
  0
LINE
  8
0
  6
CONTINUOUS
 62
     7
 10
-95.5004
 20
-5.1
 11
-94.5
 21
-5.1
  0
LINE
  8
0
  6
PHANTOM
 62
     2
 10
8.0
 20
20.8
 11
8.0
 21
-20.8
  0
LINE
  8
0
  6
PHANTOM
 62
     2
 10
118.0
 20
-20.79999
 11
118.0
 21
20.79999
  0
LINE
  8
0
  6
CENTER
 62
     2
 10
-56.0
 20
0.0
 11
148.0
 21
0.0
  0
LINE
  8
0
  6
PHANTOM
 62
     2
 10
-22.0
 20
-15.49998
 11
-22.0
 21
15.49998
  0
LINE
  8
0
  6
PHANTOM
 62
     2
 10
-8.0
 20
-20.8
 11
-8.0
 21
20.8
  0
LINE
  8
0
  6
PHANTOM
 62
     2
 10
-8.0
 20
20.8
 11
118.0
 21
20.8
  0
LINE
  8
0
  6
PHANTOM
 62
     2
 10
-53.0
 20
6.0
 11
-53.0
 21
-6.0
  0
LINE
  8
0
  6
PHANTOM
 62
     2
 10
-52.99995
 20
5.99989
 11
-51.99997
 21
6.99989
  0
LINE
  8
0
  6
PHANTOM
 62
     2
 10
-28.26772
 20
7.00002
 11
-52.0
 21
7.00002
  0
LINE
  8
0
  6
PHANTOM
 62
     2
 10
-8.0
 20
16.49998
 11
-21.00024
 21
16.49998
  0
LINE
  8
0
  6
PHANTOM
 62
     2
 10
-22.00018
 20
15.49979
 11
-21.00012
 21
16.49987
  0
LINE
  8
0
  6
PHANTOM
 62
     2
 10
118.0
 20
-20.8
 11
-8.0
 21
-20.8
  0
LINE
  8
0
  6
PHANTOM
 62
     2
 10
-51.99997
 20
-6.99991
 11
-52.99995
 21
-5.99991
  0
LINE
  8
0
  6
PHANTOM
 62
     2
 10
-52.0
 20
-7.00002
 11
-28.26772
 21
-7.00002
  0
LINE
  8
0
  6
PHANTOM
 62
     2
 10
-21.00024
 20
-16.49998
 11
-8.0
 21
-16.49998
  0
LINE
  8
0
  6
PHANTOM
 62
     2
 10
-21.00004
 20
-16.49994
 11
-22.00003
 21
-15.49994
  0
LINE
  8
0
  6
PHANTOM
 62
     2
 10
145.0
 20
14.5
 11
145.0
 21
0.0
  0
LINE
  8
0
  6
PHANTOM
 62
     2
 10
118.0
 20
16.5
 11
143.0
 21
16.5
  0
LINE
  8
0
  6
PHANTOM
 62
     2
 10
143.0
 20
16.49999
 11
145.0
 21
14.5
  0
LINE
  8
0
  6
PHANTOM
 62
     2
 10
145.0
 20
0.0
 11
145.0
 21
-14.5
  0
LINE
  8
0
  6
PHANTOM
 62
     2
 10
143.0
 20
-16.5
 11
118.0
 21
-16.5
  0
LINE
  8
0
  6
PHANTOM
 62
     2
 10
145.0
 20
-14.5
 11
143.0
 21
-16.5
  0
LINE
  8
0
  6
PHANTOM
 62
     2
 10
-27.26772
 20
8.00002
 11
-22.0
 21
8.00002
  0
LINE
  8
0
  6
PHANTOM
 62
     2
 10
-27.26772
 20
-8.00002
 11
-22.0
 21
-8.00002
  0
LINE
  8
0
  6
PHANTOM
 62
     2
 10
-28.26772
 20
-7.00001
 11
-27.26772
 21
-8.00001
  0
LINE
  8
0
  6
PHANTOM
 62
     2
 10
-28.26771
 20
7.00001
 11
-27.26771
 21
8.00001
  0
LINE
  8
0
  6
PHANTOM
 62
     2
 10
-28.26772
 20
7.00002
 11
-28.26772
 21
-7.00002
  0
LINE
  8
0
  6
CENTER
 62
     2
 10
-115.3
 20
23.8
 11
-115.3
 21
-23.8
  0
LINE
  8
0
  6
CONTINUOUS
 62
     7
 10
-180.9868
 20
-127.2792
 11
-180.9868
 21
127.2792
  0
LINE
  8
0
  6
CONTINUOUS
 62
     7
 10
189.8868
 20
127.2792
 11
189.8868
 21
-127.2792
  0
LINE
  8
0
  6
CONTINUOUS
 62
     7
 10
-180.9868
 20
-127.2792
 11
189.8868
 21
-127.2792
  0
LINE
  8
0
  6
CONTINUOUS
 62
     7
 10
-180.9868
 20
127.2792
 11
189.8868
 21
127.2792
  0
LINE
  8
0
  6
CONTINUOUS
 62
     7
 10
-180.9868
 20
112.9782
 11
-74.92078
 21
112.9782
  0
LINE
  8
0
  6
CONTINUOUS
 62
     7
 10
-74.92078
 20
112.9782
 11
-74.92078
 21
127.2792
  0
LINE
  8
0
  6
CONTINUOUS
 62
     7
 10
113.6146
 20
-112.9782
 11
189.8868
 21
-112.9782
  0
LINE
  8
0
  6
CONTINUOUS
 62
     7
 10
133.6408
 20
-116.4169
 11
140.9677
 21
-116.4169
  0
LINE
  8
0
  6
CONTINUOUS
 62
     7
 10
133.6408
 20
-122.9143
 11
139.8618
 21
-122.9143
  0
LINE
  8
0
  6
CONTINUOUS
 62
     7
 10
133.6408
 20
-124.5732
 11
142.0737
 21
-124.5732
  0
LINE
  8
0
  6
CONTINUOUS
 62
     7
 10
133.6408
 20
-118.0758
 11
139.8618
 21
-118.0758
  0
LINE
  8
0
  6
CONTINUOUS
 62
     7
 10
133.6408
 20
-116.4169
 11
133.6408
 21
-118.0758
  0
LINE
  8
0
  6
CONTINUOUS
 62
     7
 10
142.0737
 20
-117.5228
 11
142.0737
 21
-124.5732
  0
LINE
  8
0
  6
CONTINUOUS
 62
     7
 10
139.8618
 20
-118.0758
 11
139.8618
 21
-122.9143
  0
LINE
  8
0
  6
CONTINUOUS
 62
     7
 10
143.3178
 20
-116.4169
 11
143.3178
 21
-118.0758
  0
LINE
  8
0
  6
CONTINUOUS
 62
     7
 10
151.1977
 20
-118.0758
 11
151.1977
 21
-123.4673
  0
LINE
  8
0
  6
CONTINUOUS
 62
     7
 10
148.9858
 20
-118.0758
 11
148.9858
 21
-122.9143
  0
LINE
  8
0
  6
CONTINUOUS
 62
     7
 10
133.6408
 20
-122.9143
 11
133.6408
 21
-124.5732
  0
LINE
  8
0
  6
CONTINUOUS
 62
     7
 10
143.3178
 20
-116.4169
 11
145.5033
 21
-116.4169
  0
LINE
  8
0
  6
CONTINUOUS
 62
     7
 10
143.3178
 20
-124.5732
 11
145.0353
 21
-124.5732
  0
LINE
  8
0
  6
CONTINUOUS
 62
     7
 10
143.3177
 20
-124.5732
 11
145.0588
 21
-118.0757
  0
LINE
  8
0
  6
CONTINUOUS
 62
     7
 10
143.3178
 20
-118.0758
 11
145.0588
 21
-118.0758
  0
LINE
  8
0
  6
CONTINUOUS
 62
     7
 10
145.0354
 20
-124.5734
 11
146.7764
 21
-118.0759
  0
LINE
  8
0
  6
CONTINUOUS
 62
     7
 10
147.3269
 20
-122.9143
 11
148.9858
 21
-122.9143
  0
LINE
  8
0
  6
CONTINUOUS
 62
     7
 10
147.3269
 20
-122.9143
 11
147.7714
 21
-124.5732
  0
LINE
  8
0
  6
CONTINUOUS
 62
     7
 10
147.7714
 20
-124.5732
 11
150.0918
 21
-124.5732
  0
LINE
  8
0
  6
CONTINUOUS
 62
     7
 10
146.7763
 20
-118.0758
 11
148.9858
 21
-118.0758
  0
LINE
  8
0
  6
CONTINUOUS
 62
     7
 10
147.2208
 20
-116.4169
 11
149.5388
 21
-116.4169
  0
LINE
  8
0
  6
CONTINUOUS
 62
     7
 10
145.5034
 20
-116.4169
 11
145.833
 21
-115.1865
  0
LINE
  8
0
  6
CONTINUOUS
 62
     7
 10
147.2207
 20
-116.4168
 11
147.5503
 21
-115.1864
  0
LINE
  8
0
  6
CONTINUOUS
 62
     7
 10
152.5801
 20
-116.4169
 11
155.2068
 21
-116.4169
  0
LINE
  8
0
  6
CONTINUOUS
 62
     7
 10
152.5801
 20
-118.0758
 11
159.031
 21
-118.0758
  0
LINE
  8
0
  6
CONTINUOUS
 62
     7
 10
155.2068
 20
-124.5732
 11
157.4186
 21
-124.5732
  0
LINE
  8
0
  6
CONTINUOUS
 62
     7
 10
152.5801
 20
-116.4169
 11
152.5801
 21
-118.0758
  0
LINE
  8
0
  6
CONTINUOUS
 62
     7
 10
160.7365
 20
-121.0839
 11
160.7365
 21
-122.9143
  0
LINE
  8
0
  6
CONTINUOUS
 62
     7
 10
152.58
 20
-122.9143
 11
155.2067
 21
-121.6894
  0
LINE
  8
0
  6
CONTINUOUS
 62
     7
 10
152.5803
 20
-121.0841
 11
159.0312
 21
-118.0759
  0
LINE
  8
0
  6
CONTINUOUS
 62
     7
 10
152.5801
 20
-121.0839
 11
152.5801
 21
-122.9143
  0
LINE
  8
0
  6
CONTINUOUS
 62
     7
 10
157.4186
 20
-121.3671
 11
160.7365
 21
-122.9143
  0
LINE
  8
0
  6
CONTINUOUS
 62
     7
 10
158.6212
 20
-120.0975
 11
160.7367
 21
-121.084
  0
LINE
  8
0
  6
CONTINUOUS
 62
     7
 10
160.7365
 20
-117.5228
 11
160.7365
 21
-118.4064
  0
LINE
  8
0
  6
CONTINUOUS
 62
     7
 10
155.2068
 20
-115.1865
 11
155.2068
 21
-116.4169
  0
LINE
  8
0
  6
CONTINUOUS
 62
     7
 10
157.4186
 20
-115.1865
 11
157.4186
 21
-116.4169
  0
LINE
  8
0
  6
CONTINUOUS
 62
     7
 10
157.4186
 20
-116.4169
 11
159.6306
 21
-116.4169
  0
LINE
  8
0
  6
CONTINUOUS
 62
     7
 10
155.2068
 20
-121.6895
 11
155.2068
 21
-124.5732
  0
LINE
  8
0
  6
CONTINUOUS
 62
     7
 10
157.4186
 20
-121.3672
 11
157.4186
 21
-124.5732
  0
LINE
  8
0
  6
CONTINUOUS
 62
     7
 10
158.6212
 20
-120.0976
 11
160.0981
 21
-119.4089
  0
LINE
  8
0
  6
CONTINUOUS
 62
     7
 10
168.2017
 20
-115.6842
 11
169.8605
 21
-115.6842
  0
LINE
  8
0
  6
CONTINUOUS
 62
     7
 10
161.4277
 20
-119.1109
 11
161.4277
 21
-120.8962
  0
LINE
  8
0
  6
CONTINUOUS
 62
     7
 10
169.8605
 20
-115.6842
 11
169.8605
 21
-116.4169
  0
LINE
  8
0
  6
CONTINUOUS
 62
     7
 10
168.2017
 20
-115.6842
 11
168.2017
 21
-116.0417
  0
LINE
  8
0
  6
CONTINUOUS
 62
     7
 10
165.9897
 20
-119.0819
 11
165.9897
 21
-124.5732
  0
LINE
  8
0
  6
CONTINUOUS
 62
     7
 10
161.4278
 20
-119.111
 11
167.8531
 21
-116.5556
  0
LINE
  8
0
  6
CONTINUOUS
 62
     7
 10
161.4278
 20
-120.8963
 11
165.9898
 21
-119.0819
  0
LINE
  8
0
  6
CONTINUOUS
 62
     7
 10
165.9897
 20
-124.5732
 11
168.2017
 21
-124.5732
  0
LINE
  8
0
  6
CONTINUOUS
 62
     7
 10
168.2017
 20
-118.2022
 11
168.2017
 21
-124.5732
  0
LINE
  8
0
  6
CONTINUOUS
 62
     7
 10
168.2018
 20
-118.2023
 11
168.8149
 21
-117.9584
  0
LINE
  8
0
  6
CONTINUOUS
 62
     7
 10
145.6997
 20
-115.1865
 11
147.5504
 21
-115.1865
  0
LINE
  8
0
  6
CONTINUOUS
 62
     7
 10
150.2991
 20
-115.1865
 11
151.0041
 21
-115.1865
  0
LINE
  8
0
  6
CONTINUOUS
 62
     7
 10
155.2068
 20
-115.1865
 11
157.4186
 21
-115.1865
  0
LINE
  8
0
  6
CONTINUOUS
 62
     7
 10
150.2991
 20
-116.2925
 11
151.0041
 21
-116.2925
  0
LINE
  8
0
  6
CONTINUOUS
 62
     7
 10
150.2991
 20
-115.1865
 11
150.2991
 21
-116.2925
  0
LINE
  8
0
  6
CONTINUOUS
 62
     7
 10
151.0041
 20
-115.1865
 11
151.0041
 21
-116.2925
  0
LINE
  8
0
  6
CONTINUOUS
 62
     7
 10
151.4189
 20
-115.1865
 11
151.4189
 21
-116.2925
  0
LINE
  8
0
  6
CONTINUOUS
 62
     7
 10
152.2069
 20
-115.1865
 11
152.2069
 21
-116.2925
  0
LINE
  8
0
  6
CONTINUOUS
 62
     7
 10
151.4189
 20
-115.1865
 11
152.2069
 21
-115.1865
  0
LINE
  8
0
  6
CONTINUOUS
 62
     7
 10
151.4189
 20
-116.2925
 11
152.2069
 21
-116.2925
  0
LINE
  8
0
  6
CONTINUOUS
 62
     7
 10
113.6146
 20
112.9782
 11
189.8868
 21
112.9782
  0
LINE
  8
0
  6
CONTINUOUS
 62
     7
 10
113.6146
 20
127.2792
 11
113.6146
 21
112.9782
  0
LINE
  8
0
  6
CONTINUOUS
 62
     7
 10
113.6146
 20
-112.9782
 11
113.6146
 21
-127.2792
  0
ARC
  8
0
  6
CONTINUOUS
 62
     7
 10
0.0
 20
0.0
 40
6.0
 50
303.5573
 51
0.0
  0
ARC
  8
0
  6
CONTINUOUS
 62
     7
 10
0.0
 20
0.0
 40
6.0
 50
123.5573
 51
236.4427
  0
CIRCLE
  8
0
  6
CONTINUOUS
 62
     7
 10
0.0
 20
0.0
 40
5.0
  0
CIRCLE
  8
0
  6
CONTINUOUS
 62
     7
 10
0.0
 20
0.0
 40
2.0
  0
CIRCLE
  8
0
  6
CONTINUOUS
 62
     7
 10
0.0
 20
0.0
 40
1.7
  0
ARC
  8
0
  6
CONTINUOUS
 62
     7
 10
0.0
 20
0.0
 40
6.0
 50
0.0
 51
56.44268
  0
ARC
  8
0
  6
CONTINUOUS
 62
     7
 10
110.0
 20
0.0
 40
6.0
 50
303.5573
 51
0.0
  0
ARC
  8
0
  6
CONTINUOUS
 62
     7
 10
110.0
 20
0.0
 40
6.0
 50
123.5573
 51
236.4427
  0
CIRCLE
  8
0
  6
CONTINUOUS
 62
     7
 10
110.0
 20
0.0
 40
5.0
  0
CIRCLE
  8
0
  6
CONTINUOUS
 62
     7
 10
110.0
 20
0.0
 40
2.0
  0
CIRCLE
  8
0
  6
CONTINUOUS
 62
     7
 10
110.0
 20
0.0
 40
1.7
  0
ARC
  8
0
  6
CONTINUOUS
 62
     7
 10
110.0
 20
0.0
 40
6.0
 50
0.0
 51
56.44267
  0
CIRCLE
  8
0
  6
PHANTOM
 62
     2
 10
-108.0
 20
0.0
 40
13.5
  0
CIRCLE
  8
0
  6
PHANTOM
 62
     2
 10
-109.0
 20
0.0
 40
14.5
  0
CIRCLE
  8
0
  6
PHANTOM
 62
     2
 10
-112.0
 20
0.0
 40
17.5
  0
CIRCLE
  8
0
  6
PHANTOM
 62
     2
 10
-115.3
 20
0.0
 40
20.8
  0
CIRCLE
  8
0
  6
PHANTOM
 62
     2
 10
133.0
 20
0.0
 40
5.0
  0
ARC
  8
0
  6
CONTINUOUS
 62
     7
 10
140.9677
 20
-117.5228
 40
1.10594
 50
0.0
 51
89.99999
  0
ARC
  8
0
  6
CONTINUOUS
 62
     7
 10
150.0918
 20
-123.4673
 40
1.10595
 50
270.0
 51
0.0
  0
ARC
  8
0
  6
CONTINUOUS
 62
     7
 10
149.5388
 20
-118.0758
 40
1.65892
 50
0.0
 51
89.99999
  0
ARC
  8
0
  6
CONTINUOUS
 62
     7
 10
159.6306
 20
-117.5228
 40
1.10594
 50
0.0
 51
89.99999
  0
ARC
  8
0
  6
CONTINUOUS
 62
     7
 10
159.6306
 20
-118.4064
 40
1.10595
 50
295.0
 51
0.0
  0
ARC
  8
0
  6
CONTINUOUS
 62
     7
 10
168.2017
 20
-116.4169
 40
1.65892
 50
291.6884
 51
0.0
  0
ARC
  8
0
  6
CONTINUOUS
 62
     7
 10
167.6487
 20
-116.0417
 40
0.55297
 50
291.689
 51
0.0
  0
ARC
  8
0
  6
CONTINUOUS
 62
     7
 10
-91.94421
 20
4.33014
 40
2.5558
 50
145.6156
 51
214.3848
  0
ARC
  8
0
  6
CONTINUOUS
 62
     7
 10
-84.94683
 20
0.00001
 40
9.55317
 50
162.4116
 51
197.5884
  0
ARC
  8
0
  6
CONTINUOUS
 62
     7
 10
-100.5532
 20
0.00001
 40
9.55317
 50
342.4116
 51
17.58837
  0
ARC
  8
0
  6
CONTINUOUS
 62
     7
 10
-93.55579
 20
4.33014
 40
2.5558
 50
325.6152
 51
34.38425
  0
ARC
  8
0
  6
CONTINUOUS
 62
     7
 10
-93.55579
 20
-4.33014
 40
2.5558
 50
325.6156
 51
34.38479
  0
ARC
  8
0
  6
CONTINUOUS
 62
     7
 10
-91.94421
 20
-4.33014
 40
2.5558
 50
145.6151
 51
214.3842
  0
TEXT
  8
0
  6
CONTINUOUS
 62
     7
 10
118.9853
 20
118.1347
 40
4.24264
  1
DATE : MAR ,1987
 41
0.8
  7
STANDARD
  0
TEXT
  8
0
  6
CONTINUOUS
 62
     7
 10
-157.6676
 20
90.25626
 40
5.0
  1
BORE : 20,25,32,40
 41
0.8
  7
STANDARD
  0
TEXT
  8
0
  6
CONTINUOUS
 62
     7
 10
-167.1181
 20
117.7787
 40
5.0
  1
SLIM CUSHION , C
 41
0.8
  7
STANDARD
  0
ENDSEC
  0
EOF
