  0
SECTION
  2
HEADER
  0
ENDSEC
  0
SECTION
  2
TABLES
  0
TABLE
  2
LTYPE
 70
     4
  0
LTYPE
  2
CONTINUOUS
 70
    64
  3
Solid line
 72
    65
 73
     0
 40
0.000000
  0
LTYPE
  2
DASHED
 70
    64
  3
__ __ __ __ __ __ __ __ __ __ __ __ __ __ __
 72
    65
 73
     2
 40
3.500000
 49
2.000000
 49
-1.500000
  0
LTYPE
  2
CENTER
 70
    64
  3
____ _ ____ _ ____ _ ____ _ ____ _ ____ _ ____
 72
    65
 73
     4
 40
17.500000
 49
13.000000
 49
-1.500000
 49
1.500000
 49
-1.500000
  0
LTYPE
  2
PHANTOM
 70
    64
  3
_____ _ _ _____ _ _ _____ _ _ _____ _ _ ____  
 72
    65
 73
     6
 40
15.500000
 49
8.000000
 49
-1.500000
 49
1.500000
 49
-1.500000
 49
1.500000
 49
-1.500000
  0
ENDTAB
  0
TABLE
  2
LAYER
 70
     1
  0
LAYER
  2
0
 70
     0
 62
     7
  6
CONTINUOUS
  0
ENDTAB
  0
TABLE
  2
STYLE
 70
     1
  0
STYLE
  2
STANDARD
 70
     0
 40
0.000000
 41
1.000000
 50
0.000000
 71
     0
 42
0.200000
  3
txt
  4
BIGFONT
  0
ENDTAB
  0
TABLE
  2
VIEW
 70
     0
  0
ENDTAB
  0
ENDSEC
  0
SECTION
  2
BLOCKS
  0
ENDSEC
  0
SECTION
  2
ENTITIES
  0
LINE
  8
0
  6
CONTINUOUS
 62
7
 10
399.799988
 20
276.250000
 11
399.799988
 21
-276.750000
  0
LINE
  8
0
  6
CONTINUOUS
 62
7
 10
-399.250000
 20
276.250000
 11
-399.250000
 21
-276.750000
  0
LINE
  8
0
  6
CONTINUOUS
 62
7
 10
-399.250000
 20
276.250000
 11
399.799988
 21
276.250000
  0
LINE
  8
0
  6
CONTINUOUS
 62
7
 10
-399.250000
 20
-276.750000
 11
399.799988
 21
-276.750000
  0
LINE
  8
0
  6
CONTINUOUS
 62
7
 10
239.800003
 20
-251.750000
 11
399.799988
 21
-251.750000
  0
LINE
  8
0
  6
CONTINUOUS
 62
7
 10
239.800003
 20
251.250000
 11
399.799988
 21
251.250000
  0
LINE
  8
0
  6
CONTINUOUS
 62
7
 10
-399.250000
 20
251.250000
 11
-239.250000
 21
251.250000
  0
LINE
  8
0
  6
CONTINUOUS
 62
7
 10
239.800003
 20
-251.750000
 11
239.800003
 21
-276.750000
  0
LINE
  8
0
  6
CONTINUOUS
 62
7
 10
239.800003
 20
251.250000
 11
239.800003
 21
276.250000
  0
LINE
  8
0
  6
CONTINUOUS
 62
7
 10
-239.250000
 20
276.250000
 11
-239.250000
 21
251.250000
  0
LINE
  8
0
  6
CONTINUOUS
 62
7
 10
-132.899994
 20
276.250000
 11
-132.899994
 21
-276.750000
  0
LINE
  8
0
  6
CONTINUOUS
 62
7
 10
133.449997
 20
276.250000
 11
133.449997
 21
-276.750000
  0
LINE
  8
0
  6
CONTINUOUS
 62
7
 10
-399.250000
 20
-0.250000
 11
399.799988
 21
-0.250000
  0
LINE
  8
0
  6
CENTER
 62
1
 10
-336.750000
 20
172.638000
 11
-336.750000
 21
164.638000
  0
LINE
  8
0
  6
CENTER
 62
1
 10
-281.750000
 20
172.638000
 11
-281.750000
 21
164.638000
  0
LINE
  8
0
  6
CONTINUOUS
 62
4
 10
-344.250000
 20
170.638000
 11
-344.250000
 21
166.138000
  0
LINE
  8
0
  6
CONTINUOUS
 62
4
 10
-344.250000
 20
170.638000
 11
-274.250000
 21
170.638000
  0
LINE
  8
0
  6
CONTINUOUS
 62
4
 10
-344.250000
 20
166.138000
 11
-274.250000
 21
166.138000
  0
LINE
  8
0
  6
CONTINUOUS
 62
4
 10
-274.250000
 20
170.638000
 11
-274.250000
 21
166.138000
  0
LINE
  8
0
  6
CENTER
 62
1
 10
-309.250000
 20
173.688004
 11
-309.250000
 21
163.013000
  0
LINE
  8
0
  6
CONTINUOUS
 62
4
 10
-344.250000
 20
112.319000
 11
-344.250000
 21
78.318802
  0
LINE
  8
0
  6
CONTINUOUS
 62
4
 10
-342.250000
 20
114.319000
 11
-276.250000
 21
114.319000
  0
LINE
  8
0
  6
CONTINUOUS
 62
4
 10
-274.250000
 20
112.319000
 11
-274.250000
 21
78.318802
  0
LINE
  8
0
  6
CONTINUOUS
 62
4
 10
-342.250000
 20
76.318802
 11
-276.250000
 21
76.318802
  0
LINE
  8
0
  6
CENTER
 62
1
 10
-309.250000
 20
117.569000
 11
-309.250000
 21
72.593803
  0
LINE
  8
0
  6
CENTER
 62
1
 10
-349.250000
 20
95.318802
 11
-269.250000
 21
95.318802
  0
LINE
  8
0
  6
CENTER
 62
1
 10
-336.750000
 20
101.319000
 11
-336.750000
 21
89.318802
  0
LINE
  8
0
  6
CENTER
 62
1
 10
-281.750000
 20
101.319000
 11
-281.750000
 21
89.318802
  0
LINE
  8
0
  6
CONTINUOUS
 62
4
 10
-226.334000
 20
114.319000
 11
-226.334000
 21
76.318802
  0
LINE
  8
0
  6
CENTER
 62
1
 10
-233.283997
 20
95.318802
 11
-223.834000
 21
95.318802
  0
LINE
  8
0
  6
CONTINUOUS
 62
4
 10
-230.834000
 20
76.318802
 11
-226.334000
 21
76.318802
  0
LINE
  8
0
  6
CONTINUOUS
 62
4
 10
-230.834000
 20
114.319000
 11
-226.334000
 21
114.319000
  0
LINE
  8
0
  6
CONTINUOUS
 62
4
 10
-230.834000
 20
114.319000
 11
-230.834000
 21
76.318802
  0
LINE
  8
0
  6
CENTER
 62
1
 10
-349.250000
 20
-62.518799
 11
-349.250000
 21
-73.193802
  0
LINE
  8
0
  6
CENTER
 62
1
 10
-269.250000
 20
-62.518799
 11
-269.250000
 21
-73.193802
  0
LINE
  8
0
  6
CONTINUOUS
 62
4
 10
-359.250000
 20
-65.568802
 11
-359.250000
 21
-70.068802
  0
LINE
  8
0
  6
CONTINUOUS
 62
4
 10
-359.250000
 20
-65.568802
 11
-259.250000
 21
-65.568802
  0
LINE
  8
0
  6
CONTINUOUS
 62
4
 10
-359.250000
 20
-70.068901
 11
-259.250000
 21
-70.068901
  0
LINE
  8
0
  6
CONTINUOUS
 62
4
 10
-259.250000
 20
-65.568802
 11
-259.250000
 21
-70.068802
  0
LINE
  8
0
  6
CENTER
 62
1
 10
-309.250000
 20
-62.518799
 11
-309.250000
 21
-73.193802
  0
LINE
  8
0
  6
CONTINUOUS
 62
4
 10
-359.250000
 20
-137.888000
 11
-359.250000
 21
-183.888000
  0
LINE
  8
0
  6
CONTINUOUS
 62
4
 10
-357.250000
 20
-135.888000
 11
-261.250000
 21
-135.888000
  0
LINE
  8
0
  6
CONTINUOUS
 62
4
 10
-259.250000
 20
-137.888000
 11
-259.250000
 21
-183.888000
  0
LINE
  8
0
  6
CONTINUOUS
 62
4
 10
-357.250000
 20
-185.888000
 11
-261.250000
 21
-185.888000
  0
LINE
  8
0
  6
CENTER
 62
1
 10
-309.250000
 20
-132.638000
 11
-309.250000
 21
-191.589996
  0
LINE
  8
0
  6
CENTER
 62
1
 10
-364.250000
 20
-160.888000
 11
-254.250000
 21
-160.888000
  0
LINE
  8
0
  6
CENTER
 62
1
 10
-356.479004
 20
-145.888000
 11
-342.612000
 21
-145.888000
  0
LINE
  8
0
  6
CENTER
 62
1
 10
-349.250000
 20
-138.207993
 11
-349.250000
 21
-153.501999
  0
LINE
  8
0
  6
CENTER
 62
1
 10
-342.928986
 20
-175.888000
 11
-354.735992
 21
-175.888000
  0
LINE
  8
0
  6
CENTER
 62
1
 10
-349.250000
 20
-168.274002
 11
-349.250000
 21
-183.567993
  0
LINE
  8
0
  6
CENTER
 62
1
 10
-275.144989
 20
-145.888000
 11
-262.625000
 21
-145.888000
  0
LINE
  8
0
  6
CENTER
 62
1
 10
-269.250000
 20
-153.501999
 11
-269.250000
 21
-138.207993
  0
LINE
  8
0
  6
CENTER
 62
1
 10
-262.625000
 20
-175.888000
 11
-275.621002
 21
-175.888000
  0
LINE
  8
0
  6
CENTER
 62
1
 10
-269.250000
 20
-183.567993
 11
-269.250000
 21
-168.274002
  0
LINE
  8
0
  6
CONTINUOUS
 62
4
 10
-215.834000
 20
-185.888000
 11
-211.334000
 21
-185.888000
  0
LINE
  8
0
  6
CENTER
 62
1
 10
-218.283997
 20
-175.888000
 11
-208.834000
 21
-175.888000
  0
LINE
  8
0
  6
CENTER
 62
1
 10
-218.283997
 20
-145.888000
 11
-208.834000
 21
-145.888000
  0
LINE
  8
0
  6
CONTINUOUS
 62
4
 10
-215.834000
 20
-135.888000
 11
-215.834000
 21
-185.888000
  0
LINE
  8
0
  6
CONTINUOUS
 62
4
 10
-211.334000
 20
-135.888000
 11
-211.334000
 21
-185.888000
  0
LINE
  8
0
  6
CENTER
 62
1
 10
-218.283997
 20
-160.888000
 11
-208.834000
 21
-160.888000
  0
LINE
  8
0
  6
CONTINUOUS
 62
4
 10
-215.834000
 20
-135.888000
 11
-211.334000
 21
-135.888000
  0
LINE
  8
0
  6
CONTINUOUS
 62
4
 10
-82.900002
 20
-129.388000
 11
-82.900002
 21
-192.388000
  0
LINE
  8
0
  6
CONTINUOUS
 62
4
 10
-81.900002
 20
-128.388000
 11
-3.899990
 21
-128.388000
  0
LINE
  8
0
  6
CONTINUOUS
 62
4
 10
-2.899990
 20
-129.388000
 11
-2.899990
 21
-192.388000
  0
LINE
  8
0
  6
CONTINUOUS
 62
4
 10
-81.900002
 20
-193.388000
 11
-3.900010
 21
-193.388000
  0
LINE
  8
0
  6
CENTER
 62
1
 10
-42.900002
 20
-125.138000
 11
-42.900002
 21
-199.089996
  0
LINE
  8
0
  6
CENTER
 62
1
 10
-87.900002
 20
-160.888000
 11
2.100010
 21
-160.888000
  0
LINE
  8
0
  6
CENTER
 62
1
 10
-80.129303
 20
-138.888000
 11
-66.261803
 21
-138.888000
  0
LINE
  8
0
  6
CENTER
 62
1
 10
-72.900002
 20
-131.207993
 11
-72.900002
 21
-146.501999
  0
LINE
  8
0
  6
CENTER
 62
1
 10
-66.578796
 20
-182.888000
 11
-80.342796
 21
-182.888000
  0
LINE
  8
0
  6
CENTER
 62
1
 10
-72.900002
 20
-175.274002
 11
-72.900002
 21
-190.567993
  0
LINE
  8
0
  6
CENTER
 62
1
 10
-18.795200
 20
-138.888000
 11
-6.274720
 21
-138.888000
  0
LINE
  8
0
  6
CENTER
 62
1
 10
-12.900000
 20
-146.501999
 11
-12.900000
 21
-131.207993
  0
LINE
  8
0
  6
CENTER
 62
1
 10
-6.274720
 20
-182.888000
 11
-19.270599
 21
-182.888000
  0
LINE
  8
0
  6
CENTER
 62
1
 10
-12.900000
 20
-190.567993
 11
-12.900000
 21
-175.274002
  0
LINE
  8
0
  6
CONTINUOUS
 62
4
 10
-3.900010
 20
-128.388000
 11
-2.900010
 21
-129.388000
  0
LINE
  8
0
  6
CONTINUOUS
 62
4
 10
-81.900002
 20
-128.388000
 11
-82.900002
 21
-129.388000
  0
LINE
  8
0
  6
CONTINUOUS
 62
4
 10
-82.900002
 20
-192.388000
 11
-81.900002
 21
-193.388000
  0
LINE
  8
0
  6
CONTINUOUS
 62
4
 10
-2.900030
 20
-192.388000
 11
-3.900040
 21
-193.388000
  0
LINE
  8
0
  6
CENTER
 62
1
 10
-12.900000
 20
-62.518902
 11
-12.900000
 21
-77.693802
  0
LINE
  8
0
  6
CENTER
 62
1
 10
-72.900002
 20
-62.518902
 11
-72.900002
 21
-77.693802
  0
LINE
  8
0
  6
CONTINUOUS
 62
4
 10
-82.900002
 20
-65.568802
 11
-82.900002
 21
-74.568802
  0
LINE
  8
0
  6
CONTINUOUS
 62
4
 10
-82.900002
 20
-65.568802
 11
-2.899990
 21
-65.568802
  0
LINE
  8
0
  6
CONTINUOUS
 62
4
 10
-82.900002
 20
-74.568802
 11
-2.899990
 21
-74.568802
  0
LINE
  8
0
  6
CONTINUOUS
 62
4
 10
-2.899990
 20
-65.568802
 11
-2.899990
 21
-74.568802
  0
LINE
  8
0
  6
CENTER
 62
1
 10
-42.900002
 20
-62.518902
 11
-42.900002
 21
-77.693802
  0
LINE
  8
0
  6
CENTER
 62
1
 10
38.066399
 20
-182.888000
 11
52.016300
 21
-182.888000
  0
LINE
  8
0
  6
CONTINUOUS
 62
4
 10
40.516300
 20
-193.388000
 11
49.516300
 21
-193.388000
  0
LINE
  8
0
  6
CENTER
 62
1
 10
38.066399
 20
-138.888000
 11
52.016399
 21
-138.888000
  0
LINE
  8
0
  6
CONTINUOUS
 62
4
 10
40.516399
 20
-128.388000
 11
40.516399
 21
-193.388000
  0
LINE
  8
0
  6
CONTINUOUS
 62
4
 10
49.516399
 20
-128.388000
 11
49.516399
 21
-193.388000
  0
LINE
  8
0
  6
CENTER
 62
1
 10
38.066399
 20
-160.888000
 11
52.016399
 21
-160.888000
  0
LINE
  8
0
  6
CONTINUOUS
 62
4
 10
40.516399
 20
-128.388000
 11
49.516399
 21
-128.388000
  0
LINE
  8
0
  6
CONTINUOUS
 62
4
 10
-77.900002
 20
170.638000
 11
-7.899980
 21
170.638000
  0
LINE
  8
0
  6
CENTER
 62
1
 10
-15.400000
 20
172.638000
 11
-15.400000
 21
164.638000
  0
LINE
  8
0
  6
CONTINUOUS
 62
4
 10
-77.900002
 20
170.638000
 11
-77.900002
 21
166.138000
  0
LINE
  8
0
  6
CENTER
 62
1
 10
-70.400002
 20
172.638000
 11
-70.400002
 21
164.638000
  0
LINE
  8
0
  6
CONTINUOUS
 62
4
 10
-77.900002
 20
166.138000
 11
-7.899980
 21
166.138000
  0
LINE
  8
0
  6
CONTINUOUS
 62
4
 10
-7.899980
 20
170.638000
 11
-7.899980
 21
166.138000
  0
LINE
  8
0
  6
CENTER
 62
1
 10
-42.900002
 20
173.688004
 11
-42.900002
 21
163.013000
  0
LINE
  8
0
  6
CONTINUOUS
 62
4
 10
-77.900002
 20
112.319000
 11
-77.900002
 21
78.318802
  0
LINE
  8
0
  6
CONTINUOUS
 62
4
 10
-75.900002
 20
114.319000
 11
-9.899980
 21
114.319000
  0
LINE
  8
0
  6
CONTINUOUS
 62
4
 10
-7.899980
 20
112.319000
 11
-7.899980
 21
78.318802
  0
LINE
  8
0
  6
CONTINUOUS
 62
4
 10
-75.900002
 20
76.318802
 11
-9.899980
 21
76.318802
  0
LINE
  8
0
  6
CENTER
 62
1
 10
-42.900002
 20
117.569000
 11
-42.900002
 21
72.593803
  0
LINE
  8
0
  6
CENTER
 62
1
 10
-82.900002
 20
95.318802
 11
-2.899980
 21
95.318802
  0
LINE
  8
0
  6
CENTER
 62
1
 10
-70.400002
 20
101.319000
 11
-70.400002
 21
89.318802
  0
LINE
  8
0
  6
CENTER
 62
1
 10
-15.400000
 20
101.319000
 11
-15.400000
 21
89.318802
  0
LINE
  8
0
  6
CENTER
 62
1
 10
33.041302
 20
95.318802
 11
42.491299
 21
95.318802
  0
LINE
  8
0
  6
CONTINUOUS
 62
4
 10
40.016300
 20
114.319000
 11
40.016300
 21
76.318802
  0
LINE
  8
0
  6
CONTINUOUS
 62
4
 10
35.516300
 20
76.318802
 11
40.016300
 21
76.318802
  0
LINE
  8
0
  6
CONTINUOUS
 62
4
 10
35.516300
 20
114.319000
 11
40.016300
 21
114.319000
  0
LINE
  8
0
  6
CONTINUOUS
 62
4
 10
35.516300
 20
114.319000
 11
35.516300
 21
76.318802
  0
LINE
  8
0
  6
CENTER
 62
1
 10
255.865997
 20
173.688004
 11
255.865997
 21
163.013000
  0
LINE
  8
0
  6
CENTER
 62
1
 10
195.865997
 20
173.688004
 11
195.865997
 21
163.013000
  0
LINE
  8
0
  6
CONTINUOUS
 62
4
 10
185.865997
 20
170.638000
 11
185.865997
 21
166.138000
  0
LINE
  8
0
  6
CONTINUOUS
 62
4
 10
185.865997
 20
170.638000
 11
265.865997
 21
170.638000
  0
LINE
  8
0
  6
CONTINUOUS
 62
4
 10
185.865997
 20
166.138000
 11
265.865997
 21
166.138000
  0
LINE
  8
0
  6
CONTINUOUS
 62
4
 10
265.865997
 20
170.638000
 11
265.865997
 21
166.138000
  0
LINE
  8
0
  6
CENTER
 62
1
 10
225.865997
 20
173.688004
 11
225.865997
 21
163.013000
  0
LINE
  8
0
  6
CENTER
 62
1
 10
180.865997
 20
95.318802
 11
270.865997
 21
95.318802
  0
LINE
  8
0
  6
CONTINUOUS
 62
4
 10
185.865997
 20
115.819000
 11
185.865997
 21
74.818802
  0
LINE
  8
0
  6
CONTINUOUS
 62
4
 10
187.865997
 20
117.819000
 11
263.865997
 21
117.819000
  0
LINE
  8
0
  6
CONTINUOUS
 62
4
 10
265.865997
 20
115.819000
 11
265.865997
 21
74.818802
  0
LINE
  8
0
  6
CONTINUOUS
 62
4
 10
187.865997
 20
72.818802
 11
263.865997
 21
72.818802
  0
LINE
  8
0
  6
CENTER
 62
1
 10
225.865997
 20
121.069000
 11
225.865997
 21
67.116898
  0
LINE
  8
0
  6
CENTER
 62
1
 10
188.636993
 20
105.319000
 11
202.505005
 21
105.319000
  0
LINE
  8
0
  6
CENTER
 62
1
 10
195.865997
 20
112.999001
 11
195.865997
 21
97.704803
  0
LINE
  8
0
  6
CENTER
 62
1
 10
202.188004
 20
85.318802
 11
190.380005
 21
85.318802
  0
LINE
  8
0
  6
CENTER
 62
1
 10
195.865997
 20
92.932800
 11
195.865997
 21
77.638901
  0
LINE
  8
0
  6
CENTER
 62
1
 10
249.970993
 20
105.319000
 11
262.492004
 21
105.319000
  0
LINE
  8
0
  6
CENTER
 62
1
 10
255.865997
 20
97.704803
 11
255.865997
 21
112.999001
  0
LINE
  8
0
  6
CENTER
 62
1
 10
262.492004
 20
85.318802
 11
249.496002
 21
85.318802
  0
LINE
  8
0
  6
CENTER
 62
1
 10
255.865997
 20
77.638901
 11
255.865997
 21
92.932800
  0
LINE
  8
0
  6
CONTINUOUS
 62
4
 10
309.282990
 20
72.818802
 11
313.782990
 21
72.818802
  0
LINE
  8
0
  6
CENTER
 62
1
 10
306.833008
 20
85.318802
 11
316.282990
 21
85.318802
  0
LINE
  8
0
  6
CENTER
 62
1
 10
306.833008
 20
105.319000
 11
316.282990
 21
105.319000
  0
LINE
  8
0
  6
CONTINUOUS
 62
4
 10
309.282990
 20
117.819000
 11
309.282990
 21
72.818802
  0
LINE
  8
0
  6
CONTINUOUS
 62
4
 10
313.782990
 20
117.819000
 11
313.782990
 21
72.818802
  0
LINE
  8
0
  6
CENTER
 62
1
 10
306.833008
 20
95.318802
 11
316.282990
 21
95.318802
  0
LINE
  8
0
  6
CONTINUOUS
 62
4
 10
309.282990
 20
117.819000
 11
313.782990
 21
117.819000
  0
LINE
  8
0
  6
CENTER
 62
1
 10
185.865997
 20
-62.519001
 11
185.865997
 21
-77.693901
  0
LINE
  8
0
  6
CENTER
 62
1
 10
265.865997
 20
-62.518799
 11
265.865997
 21
-77.693802
  0
LINE
  8
0
  6
CONTINUOUS
 62
4
 10
175.865997
 20
-65.569000
 11
175.865997
 21
-74.569000
  0
LINE
  8
0
  6
CONTINUOUS
 62
4
 10
175.865997
 20
-65.568802
 11
275.865997
 21
-65.568802
  0
LINE
  8
0
  6
CONTINUOUS
 62
4
 10
175.865997
 20
-74.568802
 11
275.865997
 21
-74.568802
  0
LINE
  8
0
  6
CONTINUOUS
 62
4
 10
275.865997
 20
-65.568703
 11
275.865997
 21
-74.568703
  0
LINE
  8
0
  6
CENTER
 62
1
 10
225.865997
 20
-62.518902
 11
225.865997
 21
-77.693802
  0
LINE
  8
0
  6
CONTINUOUS
 62
4
 10
175.865997
 20
-129.388000
 11
175.865997
 21
-192.388000
  0
LINE
  8
0
  6
CONTINUOUS
 62
4
 10
176.865997
 20
-128.388000
 11
274.865997
 21
-128.388000
  0
LINE
  8
0
  6
CONTINUOUS
 62
4
 10
275.865997
 20
-129.388000
 11
275.865997
 21
-192.388000
  0
LINE
  8
0
  6
CONTINUOUS
 62
4
 10
176.865997
 20
-193.388000
 11
274.865997
 21
-193.388000
  0
LINE
  8
0
  6
CENTER
 62
1
 10
225.865997
 20
-125.138000
 11
225.865997
 21
-199.089996
  0
LINE
  8
0
  6
CENTER
 62
1
 10
170.865997
 20
-160.888000
 11
280.865997
 21
-160.888000
  0
LINE
  8
0
  6
CENTER
 62
1
 10
178.636993
 20
-138.888000
 11
192.505005
 21
-138.888000
  0
LINE
  8
0
  6
CENTER
 62
1
 10
185.865997
 20
-131.207993
 11
185.865997
 21
-146.501999
  0
LINE
  8
0
  6
CENTER
 62
1
 10
192.188004
 20
-182.888000
 11
178.423996
 21
-182.888000
  0
LINE
  8
0
  6
CENTER
 62
1
 10
185.865997
 20
-175.274002
 11
185.865997
 21
-190.567993
  0
LINE
  8
0
  6
CENTER
 62
1
 10
259.971008
 20
-138.888000
 11
272.492004
 21
-138.888000
  0
LINE
  8
0
  6
CENTER
 62
1
 10
265.865997
 20
-146.501999
 11
265.865997
 21
-131.207993
  0
LINE
  8
0
  6
CENTER
 62
1
 10
272.492004
 20
-182.888000
 11
259.496002
 21
-182.888000
  0
LINE
  8
0
  6
CENTER
 62
1
 10
265.865997
 20
-190.567993
 11
265.865997
 21
-175.274002
  0
LINE
  8
0
  6
CONTINUOUS
 62
4
 10
274.865997
 20
-128.388000
 11
275.865997
 21
-129.388000
  0
LINE
  8
0
  6
CONTINUOUS
 62
4
 10
176.865997
 20
-128.388000
 11
175.865997
 21
-129.388000
  0
LINE
  8
0
  6
CONTINUOUS
 62
4
 10
175.865997
 20
-192.388000
 11
176.865997
 21
-193.388000
  0
LINE
  8
0
  6
CONTINUOUS
 62
4
 10
275.865997
 20
-192.388000
 11
274.865997
 21
-193.388000
  0
LINE
  8
0
  6
CONTINUOUS
 62
4
 10
319.282990
 20
-193.388000
 11
328.282990
 21
-193.388000
  0
LINE
  8
0
  6
CENTER
 62
1
 10
316.833008
 20
-138.888000
 11
330.782990
 21
-138.888000
  0
LINE
  8
0
  6
CENTER
 62
1
 10
316.833008
 20
-182.888000
 11
330.782990
 21
-182.888000
  0
LINE
  8
0
  6
CONTINUOUS
 62
4
 10
319.282990
 20
-128.388000
 11
319.282990
 21
-193.388000
  0
LINE
  8
0
  6
CONTINUOUS
 62
4
 10
328.282990
 20
-128.388000
 11
328.282990
 21
-193.388000
  0
LINE
  8
0
  6
CENTER
 62
1
 10
316.833008
 20
-160.888000
 11
330.782990
 21
-160.888000
  0
LINE
  8
0
  6
CONTINUOUS
 62
4
 10
319.282990
 20
-128.388000
 11
328.282990
 21
-128.388000
  0
CIRCLE
  8
0
  6
CONTINUOUS
 62
4
 10
-309.250000
 20
95.318802
 40
10.500000
  0
CIRCLE
  8
0
  6
CONTINUOUS
 62
4
 10
-336.750000
 20
95.318802
 40
3.800000
  0
CIRCLE
  8
0
  6
CONTINUOUS
 62
4
 10
-281.750000
 20
95.318802
 40
3.800000
  0
ARC
  8
0
  6
CONTINUOUS
 62
4
 10
-342.250000
 20
78.318802
 40
2.000000
 50
180.000000
 51
270.000000
  0
ARC
  8
0
  6
CONTINUOUS
 62
4
 10
-342.250000
 20
112.319000
 40
2.000000
 50
90.000000
 51
180.000000
  0
ARC
  8
0
  6
CONTINUOUS
 62
4
 10
-276.250000
 20
112.319000
 40
2.000000
 50
0.000000
 51
90.000000
  0
ARC
  8
0
  6
CONTINUOUS
 62
4
 10
-276.250000
 20
78.318802
 40
2.000000
 50
270.000000
 51
0.000000
  0
ARC
  8
0
  6
CONTINUOUS
 62
4
 10
-357.250000
 20
-183.888000
 40
2.000000
 50
180.000000
 51
270.000000
  0
ARC
  8
0
  6
CONTINUOUS
 62
4
 10
-357.250000
 20
-137.888000
 40
2.000000
 50
90.000000
 51
180.000000
  0
ARC
  8
0
  6
CONTINUOUS
 62
4
 10
-261.250000
 20
-137.888000
 40
2.000000
 50
0.000000
 51
90.000000
  0
ARC
  8
0
  6
CONTINUOUS
 62
4
 10
-261.250000
 20
-183.888000
 40
2.000000
 50
270.000000
 51
0.000000
  0
CIRCLE
  8
0
  6
CONTINUOUS
 62
4
 10
-309.250000
 20
-160.888000
 40
16.500000
  0
CIRCLE
  8
0
  6
CONTINUOUS
 62
4
 10
-269.250000
 20
-145.888000
 40
4.500000
  0
CIRCLE
  8
0
  6
CONTINUOUS
 62
4
 10
-269.250000
 20
-175.888000
 40
4.500000
  0
CIRCLE
  8
0
  6
CONTINUOUS
 62
4
 10
-349.250000
 20
-145.888000
 40
4.500000
  0
CIRCLE
  8
0
  6
CONTINUOUS
 62
4
 10
-349.250000
 20
-175.888000
 40
4.500000
  0
CIRCLE
  8
0
  6
CONTINUOUS
 62
4
 10
-12.900000
 20
-138.888000
 40
4.500000
  0
CIRCLE
  8
0
  6
CONTINUOUS
 62
4
 10
-12.900000
 20
-182.888000
 40
4.500000
  0
CIRCLE
  8
0
  6
CONTINUOUS
 62
4
 10
-72.900002
 20
-138.888000
 40
4.500000
  0
CIRCLE
  8
0
  6
CONTINUOUS
 62
4
 10
-72.900002
 20
-182.888000
 40
4.500000
  0
CIRCLE
  8
0
  6
CONTINUOUS
 62
4
 10
-42.900002
 20
-160.888000
 40
18.000000
  0
ARC
  8
0
  6
CONTINUOUS
 62
4
 10
-9.899980
 20
78.318802
 40
2.000000
 50
270.000000
 51
0.000000
  0
CIRCLE
  8
0
  6
CONTINUOUS
 62
4
 10
-42.900002
 20
95.318802
 40
11.000000
  0
CIRCLE
  8
0
  6
CONTINUOUS
 62
4
 10
-15.400000
 20
95.318802
 40
3.800000
  0
CIRCLE
  8
0
  6
CONTINUOUS
 62
4
 10
-70.400002
 20
95.318802
 40
3.800000
  0
ARC
  8
0
  6
CONTINUOUS
 62
4
 10
-75.900002
 20
78.318802
 40
2.000000
 50
180.000000
 51
270.000000
  0
ARC
  8
0
  6
CONTINUOUS
 62
4
 10
-75.900002
 20
112.319000
 40
2.000000
 50
90.000000
 51
180.000000
  0
ARC
  8
0
  6
CONTINUOUS
 62
7
 10
-9.899980
 20
112.319000
 40
2.000000
 50
0.000000
 51
90.000000
  0
CIRCLE
  8
0
  6
CONTINUOUS
 62
4
 10
195.865997
 20
85.318802
 40
3.400000
  0
CIRCLE
  8
0
  6
CONTINUOUS
 62
4
 10
195.865997
 20
105.319000
 40
3.400000
  0
CIRCLE
  8
0
  6
CONTINUOUS
 62
4
 10
255.865997
 20
105.319000
 40
3.400000
  0
CIRCLE
  8
0
  6
CONTINUOUS
 62
4
 10
255.865997
 20
85.318802
 40
3.400000
  0
ARC
  8
0
  6
CONTINUOUS
 62
4
 10
187.865997
 20
74.818802
 40
2.000000
 50
180.000000
 51
270.000000
  0
ARC
  8
0
  6
CONTINUOUS
 62
4
 10
187.865997
 20
115.819000
 40
2.000000
 50
90.000000
 51
180.000000
  0
ARC
  8
0
  6
CONTINUOUS
 62
4
 10
263.865997
 20
115.819000
 40
2.000000
 50
0.000000
 51
90.000000
  0
ARC
  8
0
  6
CONTINUOUS
 62
4
 10
263.865997
 20
74.818802
 40
2.000000
 50
270.000000
 51
0.000000
  0
CIRCLE
  8
0
  6
CONTINUOUS
 62
4
 10
225.865997
 20
95.318802
 40
13.500000
  0
CIRCLE
  8
0
  6
CONTINUOUS
 62
4
 10
265.865997
 20
-138.888000
 40
4.500000
  0
CIRCLE
  8
0
  6
CONTINUOUS
 62
4
 10
265.865997
 20
-182.888000
 40
4.500000
  0
CIRCLE
  8
0
  6
CONTINUOUS
 62
4
 10
185.865997
 20
-138.888000
 40
4.500000
  0
CIRCLE
  8
0
  6
CONTINUOUS
 62
4
 10
185.865997
 20
-182.888000
 40
4.500000
  0
CIRCLE
  8
0
  6
CONTINUOUS
 62
4
 10
225.865997
 20
-160.888000
 40
18.000000
  0
TEXT
  8
0
 62
7
 10
249.264832
 20
-267.375000
 40
12.500000
  1
KOGANEI CORP.
 50
0.000000
 41
0.771525
 51
0.000000
  7
STANDARD
  0
TEXT
  8
0
 62
7
 10
292.414673
 20
261.500000
 40
9.000000
  1
Ver.1.1
 50
0.000000
 41
1.010331
 51
0.000000
  7
STANDARD
  0
TEXT
  8
0
 62
7
 10
-365.635712
 20
206.138000
 40
9.000000
  1
BORE : 20
 50
0.000000
 41
0.837662
 51
0.000000
  7
STANDARD
  0
TEXT
  8
0
 62
7
 10
-99.285713
 20
206.138000
 40
9.000000
  1
BORE : 25
 50
0.000000
 41
0.837662
 51
0.000000
  7
STANDARD
  0
TEXT
  8
0
 62
7
 10
169.480286
 20
206.138000
 40
9.000000
  1
BORE : 32
 50
0.000000
 41
0.837662
 51
0.000000
  7
STANDARD
  0
TEXT
  8
0
 62
7
 10
-365.635712
 20
-30.068800
 40
9.000000
  1
BORE : 40
 50
0.000000
 41
0.837662
 51
0.000000
  7
STANDARD
  0
TEXT
  8
0
 62
7
 10
-99.285713
 20
-30.068800
 40
9.000000
  1
BORE : 50
 50
0.000000
 41
0.837662
 51
0.000000
  7
STANDARD
  0
TEXT
  8
0
 62
7
 10
169.480286
 20
-30.068800
 40
9.000000
  1
BORE : 63
 50
0.000000
 41
0.837662
 51
0.000000
  7
STANDARD
  0
TEXT
  8
0
 62
7
 10
-364.635712
 20
268.500000
 40
9.000000
  1
SLIM FLANGE
 50
0.000000
 41
0.783251
 51
0.000000
  7
STANDARD
  0
TEXT
  8
0
 62
7
 10
-351.135712
 20
254.500000
 40
9.000000
  1
MOUNT,-3
 50
0.000000
 41
0.857143
 51
0.000000
  7
STANDARD
  0
ENDSEC
  0
EOF
