  0
SECTION
  2
HEADER
  9
$ACADVER
  1
AC1002
  9
$INSBASE
 10
0.0
 20
0.0
  9
$EXTMIN
 10
-185.4368
 20
-127.2792
  9
$EXTMAX
 10
185.4368
 20
127.2792
  9
$LIMMIN
 10
0.0
 20
0.0
  9
$LIMMAX
 10
12.0
 20
9.0
  9
$VIEWCTR
 10
14.30458208
 20
0.0
  9
$VIEWSIZE
 40
254.5584
  9
$SNAPMODE
 70
     0
  9
$SNAPUNIT
 10
1.0
 20
1.0
  9
$SNAPBASE
 10
0.0
 20
0.0
  9
$SNAPANG
 50
0.0
  9
$SNAPSTYLE
 70
     0
  9
$SNAPISOPAIR
 70
     0
  9
$GRIDMODE
 70
     0
  9
$GRIDUNIT
 10
0.0
 20
0.0
  9
$ORTHOMODE
 70
     0
  9
$REGENMODE
 70
     1
  9
$FILLMODE
 70
     1
  9
$QTEXTMODE
 70
     0
  9
$DRAGMODE
 70
     2
  9
$LTSCALE
 40
1.0
  9
$OSMODE
 70
     0
  9
$ATTMODE
 70
     1
  9
$TEXTSIZE
 40
0.2
  9
$TRACEWID
 40
0.05
  9
$TEXTSTYLE
  7
AAA
  9
$CLAYER
  8
0
  9
$CELTYPE
  6
BYLAYER
  9
$CECOLOR
 62
   256
  9
$DIMSCALE
 40
1.0
  9
$DIMASZ
 40
0.18
  9
$DIMEXO
 40
0.0625
  9
$DIMDLI
 40
0.38
  9
$DIMRND
 40
0.0
  9
$DIMDLE
 40
0.0
  9
$DIMEXE
 40
0.18
  9
$DIMTP
 40
0.0
  9
$DIMTM
 40
0.0
  9
$DIMTXT
 40
0.18
  9
$DIMCEN
 40
0.09
  9
$DIMTSZ
 40
0.0
  9
$DIMTOL
 70
     0
  9
$DIMLIM
 70
     0
  9
$DIMTIH
 70
     1
  9
$DIMTOH
 70
     1
  9
$DIMSE1
 70
     0
  9
$DIMSE2
 70
     0
  9
$DIMTAD
 70
     0
  9
$DIMZIN
 70
     0
  9
$DIMBLK
  1

  9
$LUNITS
 70
     2
  9
$LUPREC
 70
     4
  9
$AXISMODE
 70
     0
  9
$AXISUNIT
 10
0.0
 20
0.0
  9
$SKETCHINC
 40
0.1
  9
$FILLETRAD
 40
0.0
  9
$AUNITS
 70
     0
  9
$AUPREC
 70
     0
  9
$MENU
  1
ACAD
  9
$ELEVATION
 40
0.0
  9
$THICKNESS
 40
0.0
  9
$VIEWDIR
 10
0.0
 20
0.0
 30
1.0
  9
$LIMCHECK
 70
     0
  9
$BLIPMODE
 70
     1
  9
$CHAMFERA
 40
0.0
  9
$CHAMFERB
 40
0.0
  9
$FASTZOOM
 70
     1
  9
$SKPOLY
 70
     0
  9
$TDCREATE
 40
2447805.6499653275
  9
$TDUPDATE
 40
2447805.6499653275
  9
$TDINDWG
 40
0.0016435185
  9
$TDUSRTIMER
 40
0.0016435185
  9
$USRTIMER
 70
     1
  9
$ANGBASE
 50
0.0
  9
$ANGDIR
 70
     0
  9
$PDMODE
 70
     0
  9
$PDSIZE
 40
0.0
  9
$PLINEWID
 40
0.0
  9
$COORDS
 70
     0
  9
$USERI1
 70
     0
  9
$USERI2
 70
     0
  9
$USERI3
 70
     0
  9
$USERI4
 70
     0
  9
$USERI5
 70
     0
  9
$USERR1
 40
0.0
  9
$USERR2
 40
0.0
  9
$USERR3
 40
0.0
  9
$USERR4
 40
0.0
  9
$USERR5
 40
0.0
  0
ENDSEC
  0
SECTION
  2
TABLES
  0
TABLE
  2
LTYPE
 70
     3
  0
LTYPE
  2
CONTINUOUS
 70
    64
  3
SOLID
 72
    65
 73
     0
 40
0.0
  0
LTYPE
  2
CENTER
 70
    64
  3
CENTER
 72
    65
 73
     4
 40
2.0
 49
1.25
 49
-0.25
 49
0.25
 49
-0.25
  0
LTYPE
  2
PHANTOM
 70
    64
  3
PHANTOM
 72
    65
 73
     6
 40
2.5
 49
1.25
 49
-0.25
 49
0.25
 49
-0.25
 49
0.25
 49
-0.25
  0
ENDTAB
  0
TABLE
  2
LAYER
 70
     1
  0
LAYER
  2
0
 70
    64
 62
     7
  6
CONTINUOUS
  0
ENDTAB
  0
TABLE
  2
STYLE
 70
     2
  0
STYLE
  2
AAA
 70
     0
 40
0.0
 41
1.0
 50
0.0
 71
     0
 42
0.2
  3
TXT
  4

  0
STYLE
  2
STANDARD
 70
    64
 40
0.0
 41
1.0
 50
0.0
 71
     0
 42
0.2
  3
TXT
  4
BIGFONT
  0
ENDTAB
  0
TABLE
  2
VIEW
 70
     0
  0
ENDTAB
  0
ENDSEC
  0
SECTION
  2
BLOCKS
  0
ENDSEC
  0
SECTION
  2
ENTITIES
  0
POINT
  8
0
  6
CONTINUOUS
 62
     7
 10
-50.0
 20
-30.0
  0
POINT
  8
0
  6
CONTINUOUS
 62
     7
 10
-50.0
 20
40.0
  0
POINT
  8
0
  6
CONTINUOUS
 62
     7
 10
70.0
 20
-30.0
  0
LINE
  8
0
  6
CONTINUOUS
 62
     7
 10
-74.0
 20
-26.5
 11
-74.0
 21
-33.5
  0
LINE
  8
0
  6
CONTINUOUS
 62
     7
 10
-73.5
 20
-26.0
 11
-71.8
 21
-26.0
  0
LINE
  8
0
  6
CONTINUOUS
 62
     7
 10
-73.49998
 20
-34.0
 11
-71.8
 21
-34.0
  0
LINE
  8
0
  6
CONTINUOUS
 62
     7
 10
-73.99992
 20
-26.49996
 11
-73.49992
 21
-25.99997
  0
LINE
  8
0
  6
CONTINUOUS
 62
     7
 10
-73.99989
 20
-33.49993
 11
-73.49989
 21
-33.99992
  0
LINE
  8
0
  6
CONTINUOUS
 62
     7
 10
-71.8
 20
-25.0
 11
-71.8
 21
-35.0
  0
LINE
  8
0
  6
CONTINUOUS
 62
     7
 10
-70.90001
 20
-25.0
 11
-70.90001
 21
-35.0
  0
LINE
  8
0
  6
CONTINUOUS
 62
     7
 10
-71.8
 20
-35.0
 11
-70.90001
 21
-35.0
  0
LINE
  8
0
  6
CONTINUOUS
 62
     7
 10
-71.8
 20
-25.0
 11
-70.90001
 21
-25.0
  0
LINE
  8
0
  6
CONTINUOUS
 62
     7
 10
-73.5
 20
-26.0
 11
-73.5
 21
-34.0
  0
LINE
  8
0
  6
CONTINUOUS
 62
     7
 10
-70.90001
 20
-34.0
 11
-70.5
 21
-34.0
  0
LINE
  8
0
  6
CONTINUOUS
 62
     7
 10
-70.90001
 20
-26.0
 11
-70.5
 21
-26.0
  0
LINE
  8
0
  6
CENTER
 62
     2
 10
-50.0
 20
-10.0
 11
-50.0
 21
-51.675
  0
LINE
  8
0
  6
CONTINUOUS
 62
     7
 10
-62.0
 20
-25.0
 11
-62.0
 21
-35.0
  0
LINE
  8
0
  6
PHANTOM
 62
     2
 10
-38.0
 20
-23.81534
 11
-38.0
 21
-36.18466
  0
LINE
  8
0
  6
CONTINUOUS
 62
     7
 10
-96.0
 20
-80.0
 11
-74.5
 21
-80.0
  0
LINE
  8
0
  6
CONTINUOUS
 62
     7
 10
-96.0
 20
-75.5
 11
-96.0
 21
-80.0
  0
LINE
  8
0
  6
CONTINUOUS
 62
     7
 10
-70.5
 20
-20.0
 11
-70.5
 21
-71.5
  0
LINE
  8
0
  6
CONTINUOUS
 62
     7
 10
-66.0
 20
-20.0
 11
-66.0
 21
-71.5
  0
LINE
  8
0
  6
CONTINUOUS
 62
     7
 10
-96.0
 20
-75.5
 11
-74.5
 21
-75.5
  0
LINE
  8
0
  6
CONTINUOUS
 62
     7
 10
-70.5
 20
-20.0
 11
-66.0
 21
-20.0
  0
LINE
  8
0
  6
CENTER
 62
     2
 10
-86.0
 20
-72.04999
 11
-86.0
 21
-82.54999
  0
LINE
  8
0
  6
CONTINUOUS
 62
     7
 10
-65.55341
 20
-25.0
 11
-62.0
 21
-25.0
  0
LINE
  8
0
  6
CONTINUOUS
 62
     7
 10
-65.55341
 20
-35.0
 11
-62.0
 21
-35.0
  0
LINE
  8
0
  6
CONTINUOUS
 62
     7
 10
-65.55341
 20
-30.0
 11
-62.0
 21
-30.0
  0
LINE
  8
0
  6
PHANTOM
 62
     2
 10
-62.0
 20
-23.81534
 11
-62.0
 21
-36.18466
  0
LINE
  8
0
  6
CONTINUOUS
 62
     7
 10
-26.0
 20
-26.5
 11
-26.0
 21
-33.5
  0
LINE
  8
0
  6
CONTINUOUS
 62
     7
 10
-26.5
 20
-26.0
 11
-28.2
 21
-26.0
  0
LINE
  8
0
  6
CONTINUOUS
 62
     7
 10
-26.50002
 20
-34.0
 11
-28.2
 21
-34.0
  0
LINE
  8
0
  6
CONTINUOUS
 62
     7
 10
-25.99992
 20
-26.49994
 11
-26.49995
 21
-25.99992
  0
LINE
  8
0
  6
CONTINUOUS
 62
     7
 10
-26.00001
 20
-33.49994
 11
-26.49997
 21
-33.99991
  0
LINE
  8
0
  6
CONTINUOUS
 62
     7
 10
-28.2
 20
-25.0
 11
-28.2
 21
-35.0
  0
LINE
  8
0
  6
CONTINUOUS
 62
     7
 10
-29.09999
 20
-25.0
 11
-29.09999
 21
-35.0
  0
LINE
  8
0
  6
CONTINUOUS
 62
     7
 10
-28.2
 20
-35.0
 11
-29.09999
 21
-35.0
  0
LINE
  8
0
  6
CONTINUOUS
 62
     7
 10
-28.2
 20
-25.0
 11
-29.09999
 21
-25.0
  0
LINE
  8
0
  6
CONTINUOUS
 62
     7
 10
-26.5
 20
-26.0
 11
-26.5
 21
-34.0
  0
LINE
  8
0
  6
CONTINUOUS
 62
     7
 10
-29.09999
 20
-34.0
 11
-29.5
 21
-34.0
  0
LINE
  8
0
  6
CONTINUOUS
 62
     7
 10
-29.09999
 20
-26.0
 11
-29.5
 21
-26.0
  0
LINE
  8
0
  6
CONTINUOUS
 62
     7
 10
-38.0
 20
-25.0
 11
-38.0
 21
-35.0
  0
LINE
  8
0
  6
CONTINUOUS
 62
     7
 10
-4.0
 20
-80.0
 11
-25.5
 21
-80.0
  0
LINE
  8
0
  6
CONTINUOUS
 62
     7
 10
-4.0
 20
-75.5
 11
-4.0
 21
-80.0
  0
LINE
  8
0
  6
CONTINUOUS
 62
     7
 10
-29.5
 20
-20.0
 11
-29.5
 21
-71.5
  0
LINE
  8
0
  6
CONTINUOUS
 62
     7
 10
-34.0
 20
-20.0
 11
-34.0
 21
-71.5
  0
LINE
  8
0
  6
CONTINUOUS
 62
     7
 10
-4.0
 20
-75.5
 11
-25.5
 21
-75.5
  0
LINE
  8
0
  6
CONTINUOUS
 62
     7
 10
-29.5
 20
-20.0
 11
-34.0
 21
-20.0
  0
LINE
  8
0
  6
CENTER
 62
     2
 10
-14.0
 20
-72.04999
 11
-14.0
 21
-82.54999
  0
LINE
  8
0
  6
CONTINUOUS
 62
     7
 10
-34.44659
 20
-25.0
 11
-38.0
 21
-25.0
  0
LINE
  8
0
  6
CONTINUOUS
 62
     7
 10
-34.44659
 20
-35.0
 11
-38.0
 21
-35.0
  0
LINE
  8
0
  6
CONTINUOUS
 62
     7
 10
-34.44659
 20
-30.0
 11
-38.0
 21
-30.0
  0
LINE
  8
0
  6
CENTER
 62
     2
 10
-78.19998
 20
-30.0
 11
-23.07498
 21
-30.0
  0
LINE
  8
0
  6
CENTER
 62
     2
 10
51.05002
 20
-30.0
 11
87.30002
 21
-30.0
  0
LINE
  8
0
  6
CENTER
 62
     2
 10
70.0
 20
-11.47501
 11
70.0
 21
-84.72501
  0
LINE
  8
0
  6
CONTINUOUS
 62
     7
 10
42.5
 20
-45.0
 11
42.5
 21
-80.0
  0
LINE
  8
0
  6
CONTINUOUS
 62
     7
 10
97.5
 20
-69.5
 11
97.5
 21
-80.0
  0
LINE
  8
0
  6
CONTINUOUS
 62
     7
 10
42.5
 20
-80.0
 11
97.5
 21
-80.0
  0
LINE
  8
0
  6
CONTINUOUS
 62
     7
 10
42.5
 20
-75.5
 11
97.5
 21
-75.5
  0
LINE
  8
0
  6
CONTINUOUS
 62
     7
 10
42.49998
 20
-45.00004
 11
62.65948
 21
-23.20908
  0
LINE
  8
0
  6
CONTINUOUS
 62
     7
 10
82.43372
 20
-28.71447
 11
77.34052
 21
-23.20907
  0
LINE
  8
0
  6
CONTINUOUS
 62
     7
 10
70.0
 20
-64.5
 11
92.5
 21
-64.5
  0
LINE
  8
0
  6
CONTINUOUS
 62
     7
 10
92.50003
 20
-64.49995
 11
97.50005
 21
-69.49998
  0
LINE
  8
0
  6
CONTINUOUS
 62
     7
 10
60.0
 20
-52.5
 11
60.0
 21
-54.5
  0
LINE
  8
0
  6
CENTER
 62
     2
 10
50.0
 20
-72.22501
 11
50.0
 21
-82.47501
  0
LINE
  8
0
  6
CENTER
 62
     2
 10
90.0
 20
-72.22501
 11
90.0
 21
-82.47501
  0
LINE
  8
0
  6
CONTINUOUS
 62
     7
 10
68.70595
 20
-34.82955
 11
68.96478
 21
-33.86362
  0
LINE
  8
0
  6
CONTINUOUS
 62
     7
 10
71.03524
 20
-33.8637
 11
71.29406
 21
-34.82961
  0
LINE
  8
0
  6
PHANTOM
 62
     2
 10
78.0
 20
-16.5
 11
78.0
 21
-23.92192
  0
LINE
  8
0
  6
PHANTOM
 62
     2
 10
62.0
 20
-16.5
 11
78.0
 21
-16.5
  0
LINE
  8
0
  6
PHANTOM
 62
     2
 10
65.6411
 20
-43.5
 11
78.0
 21
-43.5
  0
LINE
  8
0
  6
PHANTOM
 62
     2
 10
62.0
 20
-16.5
 11
62.0
 21
-23.92192
  0
LINE
  8
0
  6
PHANTOM
 62
     2
 10
78.0
 20
-39.60469
 11
78.0
 21
-43.5
  0
LINE
  8
0
  6
CENTER
 62
     2
 10
-50.0
 20
58.175
 11
-50.0
 21
20.0
  0
LINE
  8
0
  6
CENTER
 62
     2
 10
-100.0
 20
40.0
 11
0.0
 21
40.0
  0
LINE
  8
0
  6
CONTINUOUS
 62
     7
 10
-91.0
 20
67.5
 11
-66.0
 21
67.5
  0
LINE
  8
0
  6
CONTINUOUS
 62
     7
 10
-91.0
 20
12.5
 11
-66.0
 21
12.5
  0
LINE
  8
0
  6
CONTINUOUS
 62
     7
 10
-66.0
 20
67.5
 11
-66.0
 21
12.5
  0
LINE
  8
0
  6
CONTINUOUS
 62
     7
 10
-34.0
 20
67.5
 11
-34.0
 21
12.5
  0
LINE
  8
0
  6
CONTINUOUS
 62
     7
 10
-70.5
 20
67.5
 11
-70.5
 21
12.5
  0
LINE
  8
0
  6
CONTINUOUS
 62
     7
 10
-29.5
 20
67.5
 11
-29.5
 21
12.5
  0
LINE
  8
0
  6
CONTINUOUS
 62
     7
 10
-96.0
 20
62.5
 11
-96.0
 21
17.5
  0
LINE
  8
0
  6
CONTINUOUS
 62
     7
 10
-4.0
 20
62.5
 11
-4.0
 21
17.5
  0
LINE
  8
0
  6
CONTINUOUS
 62
     7
 10
-34.0
 20
12.5
 11
-9.0
 21
12.5
  0
LINE
  8
0
  6
CONTINUOUS
 62
     7
 10
-34.0
 20
67.5
 11
-9.0
 21
67.5
  0
LINE
  8
0
  6
CENTER
 62
     2
 10
-86.0
 20
25.64999
 11
-86.0
 21
14.42499
  0
LINE
  8
0
  6
CENTER
 62
     2
 10
-93.19998
 20
20.0
 11
-78.5
 21
20.0
  0
LINE
  8
0
  6
CONTINUOUS
 62
     7
 10
-86.5
 20
23.39999
 11
-85.5
 21
23.39999
  0
LINE
  8
0
  6
CONTINUOUS
 62
     7
 10
-86.5
 20
16.60001
 11
-85.5
 21
16.60001
  0
LINE
  8
0
  6
CONTINUOUS
 62
     7
 10
-86.5
 20
63.39999
 11
-85.5
 21
63.39999
  0
LINE
  8
0
  6
CONTINUOUS
 62
     7
 10
-86.5
 20
56.59999
 11
-85.5
 21
56.59999
  0
LINE
  8
0
  6
CENTER
 62
     2
 10
-93.19998
 20
60.0
 11
-78.5
 21
60.0
  0
LINE
  8
0
  6
CENTER
 62
     2
 10
-86.0
 20
65.64999
 11
-86.0
 21
54.42499
  0
LINE
  8
0
  6
CONTINUOUS
 62
     7
 10
-14.5
 20
63.39999
 11
-13.5
 21
63.39999
  0
LINE
  8
0
  6
CONTINUOUS
 62
     7
 10
-14.5
 20
56.59999
 11
-13.5
 21
56.59999
  0
LINE
  8
0
  6
CENTER
 62
     2
 10
-21.19998
 20
60.0
 11
-6.5
 21
60.0
  0
LINE
  8
0
  6
CENTER
 62
     2
 10
-14.0
 20
65.64999
 11
-14.0
 21
54.42499
  0
LINE
  8
0
  6
CONTINUOUS
 62
     7
 10
-14.5
 20
23.39999
 11
-13.5
 21
23.39999
  0
LINE
  8
0
  6
CONTINUOUS
 62
     7
 10
-14.5
 20
16.60001
 11
-13.5
 21
16.60001
  0
LINE
  8
0
  6
CENTER
 62
     2
 10
-21.19998
 20
20.0
 11
-6.5
 21
20.0
  0
LINE
  8
0
  6
CENTER
 62
     2
 10
-14.0
 20
25.64999
 11
-14.0
 21
14.42499
  0
LINE
  8
0
  6
CONTINUOUS
 62
     7
 10
-62.0
 20
45.7735
 11
-62.0
 21
34.2265
  0
LINE
  8
0
  6
CONTINUOUS
 62
     7
 10
-38.0
 20
45.7735
 11
-38.0
 21
34.2265
  0
LINE
  8
0
  6
CONTINUOUS
 62
     7
 10
-65.55342
 20
45.7735
 11
-62.0
 21
45.7735
  0
LINE
  8
0
  6
CONTINUOUS
 62
     7
 10
-65.55341
 20
42.88676
 11
-62.0
 21
42.88676
  0
LINE
  8
0
  6
CONTINUOUS
 62
     7
 10
-65.55341
 20
37.11325
 11
-62.0
 21
37.11325
  0
LINE
  8
0
  6
CONTINUOUS
 62
     7
 10
-65.55341
 20
34.2265
 11
-62.0
 21
34.2265
  0
LINE
  8
0
  6
CONTINUOUS
 62
     7
 10
-66.00013
 20
44.99998
 11
-65.55357
 21
45.77344
  0
LINE
  8
0
  6
CONTINUOUS
 62
     7
 10
-65.99991
 20
35.00009
 11
-65.55331
 21
34.22656
  0
LINE
  8
0
  6
CONTINUOUS
 62
     7
 10
-34.44658
 20
45.7735
 11
-38.0
 21
45.7735
  0
LINE
  8
0
  6
CONTINUOUS
 62
     7
 10
-33.99984
 20
45.00006
 11
-34.44642
 21
45.77354
  0
LINE
  8
0
  6
CONTINUOUS
 62
     7
 10
-34.44659
 20
42.88676
 11
-38.0
 21
42.88676
  0
LINE
  8
0
  6
CONTINUOUS
 62
     7
 10
-34.44659
 20
37.11325
 11
-38.0
 21
37.11325
  0
LINE
  8
0
  6
CONTINUOUS
 62
     7
 10
-34.00002
 20
35.00001
 11
-34.44661
 21
34.22649
  0
LINE
  8
0
  6
CONTINUOUS
 62
     7
 10
-34.44659
 20
34.2265
 11
-38.0
 21
34.2265
  0
LINE
  8
0
  6
CONTINUOUS
 62
     7
 10
-28.2
 20
45.0
 11
-29.09999
 21
45.0
  0
LINE
  8
0
  6
CONTINUOUS
 62
     7
 10
-28.2
 20
45.0
 11
-28.2
 21
35.0
  0
LINE
  8
0
  6
CONTINUOUS
 62
     7
 10
-29.09999
 20
45.0
 11
-29.09999
 21
35.0
  0
LINE
  8
0
  6
CONTINUOUS
 62
     7
 10
-29.09999
 20
44.0
 11
-29.5
 21
44.0
  0
LINE
  8
0
  6
CONTINUOUS
 62
     7
 10
-26.5
 20
44.0
 11
-28.2
 21
44.0
  0
LINE
  8
0
  6
CONTINUOUS
 62
     7
 10
-25.99995
 20
43.50003
 11
-26.49996
 21
44.00002
  0
LINE
  8
0
  6
CONTINUOUS
 62
     7
 10
-26.0
 20
43.5
 11
-26.0
 21
36.5
  0
LINE
  8
0
  6
CONTINUOUS
 62
     7
 10
-26.5
 20
44.0
 11
-26.5
 21
36.0
  0
LINE
  8
0
  6
CONTINUOUS
 62
     7
 10
-25.99997
 20
36.5
 11
-26.50002
 21
36.0
  0
LINE
  8
0
  6
CONTINUOUS
 62
     7
 10
-26.50002
 20
36.0
 11
-28.2
 21
36.0
  0
LINE
  8
0
  6
CONTINUOUS
 62
     7
 10
-28.2
 20
35.0
 11
-29.09999
 21
35.0
  0
LINE
  8
0
  6
CONTINUOUS
 62
     7
 10
-29.09999
 20
36.0
 11
-29.5
 21
36.0
  0
LINE
  8
0
  6
PHANTOM
 62
     2
 10
-62.0
 20
48.0
 11
-38.0
 21
48.0
  0
LINE
  8
0
  6
PHANTOM
 62
     2
 10
-62.0
 20
32.0
 11
-38.0
 21
32.0
  0
LINE
  8
0
  6
PHANTOM
 62
     2
 10
-62.0
 20
48.0
 11
-62.0
 21
32.0
  0
LINE
  8
0
  6
PHANTOM
 62
     2
 10
-38.0
 20
48.0
 11
-38.0
 21
32.0
  0
LINE
  8
0
  6
CONTINUOUS
 62
     7
 10
-71.8
 20
45.0
 11
-70.90001
 21
45.0
  0
LINE
  8
0
  6
CONTINUOUS
 62
     7
 10
-71.8
 20
45.0
 11
-71.8
 21
35.0
  0
LINE
  8
0
  6
CONTINUOUS
 62
     7
 10
-70.90001
 20
44.0
 11
-70.5
 21
44.0
  0
LINE
  8
0
  6
CONTINUOUS
 62
     7
 10
-70.90001
 20
45.0
 11
-70.90001
 21
35.0
  0
LINE
  8
0
  6
CONTINUOUS
 62
     7
 10
-73.5
 20
44.0
 11
-71.8
 21
44.0
  0
LINE
  8
0
  6
CONTINUOUS
 62
     7
 10
-73.99979
 20
43.50004
 11
-73.49978
 21
44.00005
  0
LINE
  8
0
  6
CONTINUOUS
 62
     7
 10
-74.0
 20
43.5
 11
-74.0
 21
36.5
  0
LINE
  8
0
  6
CONTINUOUS
 62
     7
 10
-73.5
 20
44.0
 11
-73.5
 21
36.0
  0
LINE
  8
0
  6
CONTINUOUS
 62
     7
 10
-73.99995
 20
36.50002
 11
-73.49992
 21
36.00001
  0
LINE
  8
0
  6
CONTINUOUS
 62
     7
 10
-73.49998
 20
36.0
 11
-71.8
 21
36.0
  0
LINE
  8
0
  6
CONTINUOUS
 62
     7
 10
-71.8
 20
35.0
 11
-70.90001
 21
35.0
  0
LINE
  8
0
  6
CONTINUOUS
 62
     7
 10
-70.90001
 20
36.0
 11
-70.5
 21
36.0
  0
LINE
  8
0
  6
CONTINUOUS
 62
     7
 10
-185.4368
 20
-127.2792
 11
-185.4368
 21
127.2792
  0
LINE
  8
0
  6
CONTINUOUS
 62
     7
 10
185.4368
 20
127.2792
 11
185.4368
 21
-127.2792
  0
LINE
  8
0
  6
CONTINUOUS
 62
     7
 10
-185.4368
 20
-127.2792
 11
185.4368
 21
-127.2792
  0
LINE
  8
0
  6
CONTINUOUS
 62
     7
 10
-185.4368
 20
127.2792
 11
185.4368
 21
127.2792
  0
LINE
  8
0
  6
CONTINUOUS
 62
     7
 10
-185.4368
 20
112.9782
 11
-45.43678
 21
112.9782
  0
LINE
  8
0
  6
CONTINUOUS
 62
     7
 10
-45.43678
 20
112.9782
 11
-45.43678
 21
127.2792
  0
LINE
  8
0
  6
CONTINUOUS
 62
     7
 10
109.1646
 20
-112.9782
 11
185.4368
 21
-112.9782
  0
LINE
  8
0
  6
CONTINUOUS
 62
     7
 10
129.1908
 20
-116.4169
 11
136.5177
 21
-116.4169
  0
LINE
  8
0
  6
CONTINUOUS
 62
     7
 10
129.1908
 20
-122.9143
 11
135.4118
 21
-122.9143
  0
LINE
  8
0
  6
CONTINUOUS
 62
     7
 10
129.1908
 20
-124.5732
 11
137.6237
 21
-124.5732
  0
LINE
  8
0
  6
CONTINUOUS
 62
     7
 10
129.1908
 20
-118.0758
 11
135.4118
 21
-118.0758
  0
LINE
  8
0
  6
CONTINUOUS
 62
     7
 10
129.1908
 20
-116.4169
 11
129.1908
 21
-118.0758
  0
LINE
  8
0
  6
CONTINUOUS
 62
     7
 10
137.6237
 20
-117.5228
 11
137.6237
 21
-124.5732
  0
LINE
  8
0
  6
CONTINUOUS
 62
     7
 10
135.4118
 20
-118.0758
 11
135.4118
 21
-122.9143
  0
LINE
  8
0
  6
CONTINUOUS
 62
     7
 10
138.8678
 20
-116.4169
 11
138.8678
 21
-118.0758
  0
LINE
  8
0
  6
CONTINUOUS
 62
     7
 10
146.7477
 20
-118.0758
 11
146.7477
 21
-123.4673
  0
LINE
  8
0
  6
CONTINUOUS
 62
     7
 10
144.5358
 20
-118.0758
 11
144.5358
 21
-122.9143
  0
LINE
  8
0
  6
CONTINUOUS
 62
     7
 10
129.1908
 20
-122.9143
 11
129.1908
 21
-124.5732
  0
LINE
  8
0
  6
CONTINUOUS
 62
     7
 10
138.8678
 20
-116.4169
 11
141.0533
 21
-116.4169
  0
LINE
  8
0
  6
CONTINUOUS
 62
     7
 10
138.8678
 20
-124.5732
 11
140.5853
 21
-124.5732
  0
LINE
  8
0
  6
CONTINUOUS
 62
     7
 10
138.8677
 20
-124.5732
 11
140.6088
 21
-118.0757
  0
LINE
  8
0
  6
CONTINUOUS
 62
     7
 10
138.8678
 20
-118.0758
 11
140.6088
 21
-118.0758
  0
LINE
  8
0
  6
CONTINUOUS
 62
     7
 10
140.5854
 20
-124.5734
 11
142.3264
 21
-118.0759
  0
LINE
  8
0
  6
CONTINUOUS
 62
     7
 10
142.8769
 20
-122.9143
 11
144.5358
 21
-122.9143
  0
LINE
  8
0
  6
CONTINUOUS
 62
     7
 10
142.8769
 20
-122.9143
 11
143.3214
 21
-124.5732
  0
LINE
  8
0
  6
CONTINUOUS
 62
     7
 10
143.3214
 20
-124.5732
 11
145.6418
 21
-124.5732
  0
LINE
  8
0
  6
CONTINUOUS
 62
     7
 10
142.3263
 20
-118.0758
 11
144.5358
 21
-118.0758
  0
LINE
  8
0
  6
CONTINUOUS
 62
     7
 10
142.7708
 20
-116.4169
 11
145.0888
 21
-116.4169
  0
LINE
  8
0
  6
CONTINUOUS
 62
     7
 10
141.0534
 20
-116.4169
 11
141.383
 21
-115.1865
  0
LINE
  8
0
  6
CONTINUOUS
 62
     7
 10
142.7707
 20
-116.4168
 11
143.1003
 21
-115.1864
  0
LINE
  8
0
  6
CONTINUOUS
 62
     7
 10
148.1301
 20
-116.4169
 11
150.7568
 21
-116.4169
  0
LINE
  8
0
  6
CONTINUOUS
 62
     7
 10
148.1301
 20
-118.0758
 11
154.581
 21
-118.0758
  0
LINE
  8
0
  6
CONTINUOUS
 62
     7
 10
150.7568
 20
-124.5732
 11
152.9686
 21
-124.5732
  0
LINE
  8
0
  6
CONTINUOUS
 62
     7
 10
148.1301
 20
-116.4169
 11
148.1301
 21
-118.0758
  0
LINE
  8
0
  6
CONTINUOUS
 62
     7
 10
156.2865
 20
-121.0839
 11
156.2865
 21
-122.9143
  0
LINE
  8
0
  6
CONTINUOUS
 62
     7
 10
148.13
 20
-122.9143
 11
150.7567
 21
-121.6894
  0
LINE
  8
0
  6
CONTINUOUS
 62
     7
 10
148.1303
 20
-121.0841
 11
154.5812
 21
-118.0759
  0
LINE
  8
0
  6
CONTINUOUS
 62
     7
 10
148.1301
 20
-121.0839
 11
148.1301
 21
-122.9143
  0
LINE
  8
0
  6
CONTINUOUS
 62
     7
 10
152.9686
 20
-121.3671
 11
156.2865
 21
-122.9143
  0
LINE
  8
0
  6
CONTINUOUS
 62
     7
 10
154.1712
 20
-120.0975
 11
156.2867
 21
-121.084
  0
LINE
  8
0
  6
CONTINUOUS
 62
     7
 10
156.2865
 20
-117.5228
 11
156.2865
 21
-118.4064
  0
LINE
  8
0
  6
CONTINUOUS
 62
     7
 10
150.7568
 20
-115.1865
 11
150.7568
 21
-116.4169
  0
LINE
  8
0
  6
CONTINUOUS
 62
     7
 10
152.9686
 20
-115.1865
 11
152.9686
 21
-116.4169
  0
LINE
  8
0
  6
CONTINUOUS
 62
     7
 10
152.9686
 20
-116.4169
 11
155.1806
 21
-116.4169
  0
LINE
  8
0
  6
CONTINUOUS
 62
     7
 10
150.7568
 20
-121.6895
 11
150.7568
 21
-124.5732
  0
LINE
  8
0
  6
CONTINUOUS
 62
     7
 10
152.9686
 20
-121.3672
 11
152.9686
 21
-124.5732
  0
LINE
  8
0
  6
CONTINUOUS
 62
     7
 10
154.1712
 20
-120.0975
 11
155.6481
 21
-119.4088
  0
LINE
  8
0
  6
CONTINUOUS
 62
     7
 10
163.7517
 20
-115.6842
 11
165.4106
 21
-115.6842
  0
LINE
  8
0
  6
CONTINUOUS
 62
     7
 10
156.9777
 20
-119.1109
 11
156.9777
 21
-120.8962
  0
LINE
  8
0
  6
CONTINUOUS
 62
     7
 10
165.4106
 20
-115.6842
 11
165.4106
 21
-116.4169
  0
LINE
  8
0
  6
CONTINUOUS
 62
     7
 10
163.7517
 20
-115.6842
 11
163.7517
 21
-116.0417
  0
LINE
  8
0
  6
CONTINUOUS
 62
     7
 10
161.5397
 20
-119.0819
 11
161.5397
 21
-124.5732
  0
LINE
  8
0
  6
CONTINUOUS
 62
     7
 10
156.9778
 20
-119.111
 11
163.4031
 21
-116.5556
  0
LINE
  8
0
  6
CONTINUOUS
 62
     7
 10
156.9778
 20
-120.8963
 11
161.5398
 21
-119.0819
  0
LINE
  8
0
  6
CONTINUOUS
 62
     7
 10
161.5397
 20
-124.5732
 11
163.7517
 21
-124.5732
  0
LINE
  8
0
  6
CONTINUOUS
 62
     7
 10
163.7517
 20
-118.2022
 11
163.7517
 21
-124.5732
  0
LINE
  8
0
  6
CONTINUOUS
 62
     7
 10
163.7518
 20
-118.2023
 11
164.3649
 21
-117.9584
  0
LINE
  8
0
  6
CONTINUOUS
 62
     7
 10
141.2497
 20
-115.1865
 11
143.1004
 21
-115.1865
  0
LINE
  8
0
  6
CONTINUOUS
 62
     7
 10
145.8491
 20
-115.1865
 11
146.5541
 21
-115.1865
  0
LINE
  8
0
  6
CONTINUOUS
 62
     7
 10
150.7568
 20
-115.1865
 11
152.9686
 21
-115.1865
  0
LINE
  8
0
  6
CONTINUOUS
 62
     7
 10
145.8491
 20
-116.2925
 11
146.5541
 21
-116.2925
  0
LINE
  8
0
  6
CONTINUOUS
 62
     7
 10
145.8491
 20
-115.1865
 11
145.8491
 21
-116.2925
  0
LINE
  8
0
  6
CONTINUOUS
 62
     7
 10
146.5541
 20
-115.1865
 11
146.5541
 21
-116.2925
  0
LINE
  8
0
  6
CONTINUOUS
 62
     7
 10
146.9689
 20
-115.1865
 11
146.9689
 21
-116.2925
  0
LINE
  8
0
  6
CONTINUOUS
 62
     7
 10
147.7569
 20
-115.1865
 11
147.7569
 21
-116.2925
  0
LINE
  8
0
  6
CONTINUOUS
 62
     7
 10
146.9689
 20
-115.1865
 11
147.7569
 21
-115.1865
  0
LINE
  8
0
  6
CONTINUOUS
 62
     7
 10
146.9689
 20
-116.2925
 11
147.7569
 21
-116.2925
  0
LINE
  8
0
  6
CONTINUOUS
 62
     7
 10
109.1646
 20
112.9782
 11
185.4368
 21
112.9782
  0
LINE
  8
0
  6
CONTINUOUS
 62
     7
 10
109.1646
 20
127.2792
 11
109.1646
 21
112.9782
  0
LINE
  8
0
  6
CONTINUOUS
 62
     7
 10
109.1646
 20
-112.9782
 11
109.1646
 21
-127.2792
  0
ARC
  8
0
  6
PHANTOM
 62
     2
 10
-50.0
 20
-30.0
 40
13.5
 50
27.26606
 51
152.734
  0
ARC
  8
0
  6
PHANTOM
 62
     2
 10
-50.0
 20
-30.0
 40
13.5
 50
207.266
 51
332.7339
  0
ARC
  8
0
  6
CONTINUOUS
 62
     7
 10
-74.5
 20
-71.5
 40
4.0
 50
270.0
 51
0.0
  0
ARC
  8
0
  6
CONTINUOUS
 62
     7
 10
-74.5
 20
-71.5
 40
8.5
 50
270.0
 51
0.0
  0
ARC
  8
0
  6
CONTINUOUS
 62
     7
 10
-25.5
 20
-71.5
 40
8.5
 50
180.0
 51
269.9999
  0
ARC
  8
0
  6
CONTINUOUS
 62
     7
 10
-25.5
 20
-71.5
 40
4.0
 50
180.0
 51
269.9999
  0
ARC
  8
0
  6
CONTINUOUS
 62
     7
 10
70.0
 20
-30.0
 40
5.0
 50
284.9999
 51
0.0
  0
CIRCLE
  8
0
  6
CONTINUOUS
 62
     7
 10
70.0
 20
-30.0
 40
4.0
  0
ARC
  8
0
  6
CONTINUOUS
 62
     7
 10
70.0
 20
-30.0
 40
5.0
 50
0.0
 51
254.9999
  0
ARC
  8
0
  6
CONTINUOUS
 62
     7
 10
70.0
 20
-30.0
 40
10.0
 50
42.77287
 51
137.2271
  0
ARC
  8
0
  6
CONTINUOUS
 62
     7
 10
70.0
 20
-52.5
 40
10.0
 50
89.99999
 51
180.0
  0
ARC
  8
0
  6
CONTINUOUS
 62
     7
 10
70.0
 20
-54.5
 40
10.0
 50
180.0
 51
270.0
  0
ARC
  8
0
  6
CONTINUOUS
 62
     7
 10
70.0
 20
-30.0
 40
12.5
 50
0.0
 51
5.90298
  0
ARC
  8
0
  6
CONTINUOUS
 62
     7
 10
70.0
 20
-30.0
 40
12.5
 50
270.0
 51
0.0
  0
ARC
  8
0
  6
CONTINUOUS
 62
     7
 10
-91.0
 20
62.5
 40
5.0
 50
89.99999
 51
180.0
  0
ARC
  8
0
  6
CONTINUOUS
 62
     7
 10
-91.0
 20
17.5
 40
5.0
 50
180.0
 51
270.0
  0
ARC
  8
0
  6
CONTINUOUS
 62
     7
 10
-9.0
 20
17.5
 40
5.0
 50
270.0
 51
0.0
  0
ARC
  8
0
  6
CONTINUOUS
 62
     7
 10
-9.0
 20
62.5
 40
5.0
 50
0.0
 51
89.99998
  0
ARC
  8
0
  6
CONTINUOUS
 62
     7
 10
-86.5
 20
20.0
 40
3.4
 50
89.99999
 51
270.0
  0
ARC
  8
0
  6
CONTINUOUS
 62
     7
 10
-85.5
 20
20.0
 40
3.4
 50
270.0
 51
89.99999
  0
ARC
  8
0
  6
CONTINUOUS
 62
     7
 10
-86.5
 20
60.0
 40
3.4
 50
89.99999
 51
270.0
  0
ARC
  8
0
  6
CONTINUOUS
 62
     7
 10
-85.5
 20
60.0
 40
3.4
 50
270.0
 51
89.99999
  0
ARC
  8
0
  6
CONTINUOUS
 62
     7
 10
-14.5
 20
60.0
 40
3.4
 50
89.99998
 51
270.0
  0
ARC
  8
0
  6
CONTINUOUS
 62
     7
 10
-13.5
 20
60.0
 40
3.4
 50
270.0
 51
89.99998
  0
ARC
  8
0
  6
CONTINUOUS
 62
     7
 10
-14.5
 20
20.0
 40
3.4
 50
89.99998
 51
270.0
  0
ARC
  8
0
  6
CONTINUOUS
 62
     7
 10
-13.5
 20
20.0
 40
3.4
 50
270.0
 51
89.99998
  0
CIRCLE
  8
0
  6
PHANTOM
 62
     2
 10
-50.0
 20
40.0
 40
4.0
  0
CIRCLE
  8
0
  6
PHANTOM
 62
     2
 10
-50.0
 20
40.0
 40
5.0
  0
ARC
  8
0
  6
CONTINUOUS
 62
     7
 10
136.5177
 20
-117.5228
 40
1.10594
 50
0.0
 51
89.99999
  0
ARC
  8
0
  6
CONTINUOUS
 62
     7
 10
145.6418
 20
-123.4673
 40
1.10595
 50
270.0
 51
0.0
  0
ARC
  8
0
  6
CONTINUOUS
 62
     7
 10
145.0888
 20
-118.0758
 40
1.65892
 50
0.0
 51
89.99999
  0
ARC
  8
0
  6
CONTINUOUS
 62
     7
 10
155.1806
 20
-117.5228
 40
1.10594
 50
0.0
 51
89.99999
  0
ARC
  8
0
  6
CONTINUOUS
 62
     7
 10
155.1806
 20
-118.4064
 40
1.10595
 50
295.0
 51
0.0
  0
ARC
  8
0
  6
CONTINUOUS
 62
     7
 10
163.7517
 20
-116.4169
 40
1.65892
 50
291.6884
 51
0.0
  0
ARC
  8
0
  6
CONTINUOUS
 62
     7
 10
163.1987
 20
-116.0417
 40
0.55297
 50
291.689
 51
0.0
  0
ARC
  8
0
  6
CONTINUOUS
 62
     7
 10
-63.44426
 20
44.33013
 40
2.55574
 50
145.6147
 51
214.3853
  0
ARC
  8
0
  6
CONTINUOUS
 62
     7
 10
-56.4468
 20
40.00001
 40
9.5532
 50
162.4116
 51
197.5883
  0
ARC
  8
0
  6
CONTINUOUS
 62
     7
 10
-63.44426
 20
35.66987
 40
2.55574
 50
145.6146
 51
214.3853
  0
ARC
  8
0
  6
CONTINUOUS
 62
     7
 10
-36.55574
 20
44.33013
 40
2.55574
 50
325.6147
 51
34.38526
  0
ARC
  8
0
  6
CONTINUOUS
 62
     7
 10
-36.55574
 20
35.66987
 40
2.55574
 50
325.6148
 51
34.38533
  0
ARC
  8
0
  6
CONTINUOUS
 62
     7
 10
-43.5532
 20
40.00001
 40
9.5532
 50
342.4116
 51
17.58834
  0
ARC
  8
0
  6
CONTINUOUS
 62
     7
 10
-58.7793
 20
-27.5
 40
7.2207
 50
159.7433
 51
200.2567
  0
ARC
  8
0
  6
CONTINUOUS
 62
     7
 10
-41.2207
 20
-27.5
 40
7.2207
 50
339.7433
 51
20.25665
  0
ARC
  8
0
  6
CONTINUOUS
 62
     7
 10
-58.7793
 20
-32.5
 40
7.2207
 50
159.7433
 51
200.2566
  0
ARC
  8
0
  6
CONTINUOUS
 62
     7
 10
-41.2207
 20
-32.5
 40
7.2207
 50
339.7433
 51
20.25665
  0
TEXT
  8
0
  6
CONTINUOUS
 62
     7
 10
114.5353
 20
118.1347
 40
4.24264
  1
DATE : MAR ,1987
 41
0.8
  7
STANDARD
  0
TEXT
  8
0
  6
CONTINUOUS
 62
     7
 10
-162.1176
 20
90.25626
 40
5.0
  1
BORE : 20,25,32,40
 41
0.8
  7
STANDARD
  0
TEXT
  8
0
  6
CONTINUOUS
 62
     7
 10
-182.1011
 20
117.7787
 40
5.0
  1
SLIM TRUNNION MOUNT,-11,-12
 41
0.8
  7
STANDARD
  0
ENDSEC
  0
EOF
