  0
SECTION
  2
HEADER
  9
$ACADVER
  1
AC1009
  9
$DWGCODEPAGE
  3
dos932
  9
$INSBASE
 10
0.0
 20
0.0
 30
0.0
  9
$EXTMIN
 10
-281.25
 20
-195.0
 30
0.0
  9
$EXTMAX
 10
282.09985352
 20
195.5
 30
0.0
  9
$LIMMIN
 10
-281.25
 20
-195.0
  9
$LIMMAX
 10
282.09985352
 20
195.5
  9
$ORTHOMODE
 70
       0
  9
$REGENMODE
 70
       1
  9
$FILLMODE
 70
       1
  9
$QTEXTMODE
 70
       0
  9
$MIRRTEXT
 70
       1
  9
$DRAGMODE
 70
       2
  9
$LTSCALE
 40
1.0
  9
$OSMODE
 70
       0
  9
$ATTMODE
 70
       1
  9
$TEXTSIZE
 40
3.20000005
  9
$TRACEWID
 40
0.05
  9
$TEXTSTYLE
  7
MX_NOTE_STANDARD
  9
$CLAYER
  8
0
  9
$CELTYPE
  6
CONTINUOUS
  9
$CECOLOR
 62
     256
  9
$DIMSCALE
 40
1.0
  9
$DIMASZ
 40
2.5
  9
$DIMEXO
 40
1.5
  9
$DIMDLI
 40
3.75
  9
$DIMRND
 40
0.0
  9
$DIMDLE
 40
0.0
  9
$DIMEXE
 40
1.5
  9
$DIMTP
 40
0.0
  9
$DIMTM
 40
0.0
  9
$DIMTXT
 40
3.20000005
  9
$DIMCEN
 40
2.5
  9
$DIMTSZ
 40
0.0
  9
$DIMTOL
 70
       0
  9
$DIMLIM
 70
       0
  9
$DIMTIH
 70
       0
  9
$DIMTOH
 70
       0
  9
$DIMSE1
 70
       0
  9
$DIMSE2
 70
       0
  9
$DIMTAD
 70
       1
  9
$DIMZIN
 70
       8
  9
$DIMBLK
  1

  9
$DIMASO
 70
       1
  9
$DIMSHO
 70
       1
  9
$DIMPOST
  1

  9
$DIMAPOST
  1

  9
$DIMALT
 70
       0
  9
$DIMALTD
 70
       4
  9
$DIMALTF
 40
0.03937008
  9
$DIMLFAC
 40
1.0
  9
$DIMTOFL
 70
       1
  9
$DIMTVP
 40
0.0
  9
$DIMTIX
 70
       0
  9
$DIMSOXD
 70
       0
  9
$DIMSAH
 70
       0
  9
$DIMBLK1
  1

  9
$DIMBLK2
  1

  9
$DIMSTYLE
  2
MXDIMSTYLE
  9
$DIMCLRD
 70
       0
  9
$DIMCLRE
 70
       0
  9
$DIMCLRT
 70
       0
  9
$DIMTFAC
 40
1.0
  9
$DIMGAP
 40
1.0
  9
$LUNITS
 70
       2
  9
$LUPREC
 70
       4
  9
$AXISMODE
 70
       0
  9
$AXISUNIT
 10
0.0
 20
0.0
  9
$SKETCHINC
 40
0.1
  9
$FILLETRAD
 40
0.0
  9
$AUNITS
 70
       0
  9
$AUPREC
 70
       0
  9
$MENU
  1
acad
  9
$ELEVATION
 40
0.0
  9
$PELEVATION
 40
0.0
  9
$THICKNESS
 40
0.0
  9
$LIMCHECK
 70
       0
  9
$BLIPMODE
 70
       1
  9
$CHAMFERA
 40
0.0
  9
$CHAMFERB
 40
0.0
  9
$SKPOLY
 70
       0
  9
$TDCREATE
 40
2453479.467361111
  9
$TDUPDATE
 40
2453479.467361111
  9
$TDINDWG
 40
0.0000000000
  9
$TDUSRTIMER
 40
0.0000000000
  9
$USRTIMER
 70
       1
  9
$ANGBASE
 50
0.0
  9
$ANGDIR
 70
       0
  9
$PDMODE
 70
       0
  9
$PDSIZE
 40
0.0
  9
$PLINEWID
 40
0.0
  9
$COORDS
 70
       1
  9
$SPLFRAME
 70
       0
  9
$SPLINETYPE
 70
       6
  9
$SPLINESEGS
 70
       8
  9
$ATTDIA
 70
       0
  9
$ATTREQ
 70
       1
  9
$HANDLING
 70
       1
  9
$HANDSEED
  5
763
  9
$SURFTAB1
 70
       6
  9
$SURFTAB2
 70
       6
  9
$SURFTYPE
 70
       6
  9
$SURFU
 70
       6
  9
$SURFV
 70
       6
  9
$UCSNAME
  2

  9
$UCSORG
 10
0.0
 20
0.0
 30
0.0
  9
$UCSXDIR
 10
1.0
 20
0.0
 30
0.0
  9
$UCSYDIR
 10
0.0
 20
1.0
 30
0.0
  9
$PUCSNAME
  2

  9
$PUCSORG
 10
0.0
 20
0.0
 30
0.0
  9
$PUCSXDIR
 10
1.0
 20
0.0
 30
0.0
  9
$PUCSYDIR
 10
0.0
 20
1.0
 30
0.0
  9
$USERI1
 70
       0
  9
$USERI2
 70
       0
  9
$USERI3
 70
       0
  9
$USERI4
 70
       0
  9
$USERI5
 70
       0
  9
$USERR1
 40
0.0
  9
$USERR2
 40
0.0
  9
$USERR3
 40
0.0
  9
$USERR4
 40
0.0
  9
$USERR5
 40
0.0
  9
$WORLDVIEW
 70
       1
  9
$SHADEDGE
 70
       3
  9
$SHADEDIF
 70
      70
  9
$TILEMODE
 70
       1
  9
$MAXACTVP
 70
      16
  9
$PINSBASE
 10
0.0
 20
0.0
 30
0.0
  9
$PLIMCHECK
 70
       0
  9
$PEXTMIN
 10
1.00000000E+20
 20
1.00000000E+20
 30
1.00000000E+20
  9
$PEXTMAX
 10
-1.00000000E+20
 20
-1.00000000E+20
 30
-1.00000000E+20
  9
$PLIMMIN
 10
0.0
 20
0.0
  9
$PLIMMAX
 10
12.0
 20
9.0
  9
$UNITMODE
 70
       0
  9
$VISRETAIN
 70
       0
  9
$PLINEGEN
 70
       1
  9
$PSLTSCALE
 70
       0
  9
$TREEDEPTH
 70
    3020
  9
$DWGCODEPAGE
  3
dos932
  0
ENDSEC
  0
SECTION
  2
TABLES
  0
TABLE
  2
VPORT
 70
       1
  0
VPORT
  2
*ACTIVE
 70
       0
 10
0.0
 20
0.0
 11
1.0
 21
1.0
 12
0.42492676
 22
0.25
 13
0.0
 23
0.0
 14
1.0
 24
1.0
 15
0.0
 25
0.0
 16
0.0
 26
0.0
 36
1.0
 17
0.0
 27
0.0
 37
0.0
 40
394.405
 41
1.73205081
 42
50.0
 43
0.0
 44
0.0
 50
0.0
 51
0.0
 71
       0
 72
     100
 73
       1
 74
       1
 75
       0
 76
       0
 77
       0
 78
       0
  0
ENDTAB
  0
TABLE
  2
LTYPE
 70
       2
  0
LTYPE
  2
CONTINUOUS
 70
      64
  3
Solid line
 72
      65
 73
       0
 40
0.0
  0
LTYPE
  2
CENTER
 70
      64
  3
Center ____ _ ____ _ ____ _ ____ _ ____ _ ____
 72
      65
 73
       4
 40
26.0
 49
20.0
 49
-2.0
 49
2.0
 49
-2.0
  0
ENDTAB
  0
TABLE
  2
LAYER
 70
       2
  0
LAYER
  2
0
 70
       0
 62
       7
  6
CONTINUOUS
  0
LAYER
  2
DEFPOINTS
 70
       0
 62
       7
  6
CONTINUOUS
  0
ENDTAB
  0
TABLE
  2
STYLE
 70
       1
  0
STYLE
  2
MX_NOTE_STANDARD
 70
       0
 40
0.0
 41
1.0
 50
0.0
 71
       0
 42
3.20000005
  3
txt.shx
  4
extfont.shx
  0
ENDTAB
  0
TABLE
  2
VIEW
 70
       0
  0
ENDTAB
  0
TABLE
  2
UCS
 70
       0
  0
ENDTAB
  0
TABLE
  2
APPID
 70
       1
  0
APPID
  2
ACAD
 70
       0
  0
ENDTAB
  0
TABLE
  2
DIMSTYLE
 70
       1
  0
DIMSTYLE
  2
MXDIMSTYLE
 70
       0
  3

  4

  5

  6

  7

 40
1.0
 41
2.5
 42
1.5
 43
3.75
 44
1.5
 45
0.0
 46
0.0
 47
0.0
 48
0.0
 71
       0
 72
       0
 73
       0
 74
       0
 75
       0
 76
       0
 77
       1
 78
       8
140
3.20000005
141
2.5
142
0.0
143
0.03937008
144
1.0
145
0.0
146
1.0
147
1.0
170
       0
171
       4
172
       1
173
       0
174
       0
175
       0
176
       0
177
       0
178
       0
  0
ENDTAB
  0
ENDSEC
  0
SECTION
  2
BLOCKS
  0
ENDSEC
  0
SECTION
  2
ENTITIES
  0
POLYLINE
  8
0
  6
CONTINUOUS
 62
       7
  5
1E
 66
       1
 10
0.0
 20
0.0
 30
0.0
  0
VERTEX
  8
0
  6
CONTINUOUS
 62
       7
  5
262
 10
-54.3
 20
121.84
 30
0.0
  0
VERTEX
  8
0
  6
CONTINUOUS
 62
       7
  5
263
 10
-54.26499527
 20
121.58909738
 30
0.0
  0
VERTEX
  8
0
  6
CONTINUOUS
 62
       7
  5
264
 10
-54.23199314
 20
121.33776056
 30
0.0
  0
VERTEX
  8
0
  6
CONTINUOUS
 62
       7
  5
265
 10
-54.20102892
 20
121.08603695
 30
0.0
  0
VERTEX
  8
0
  6
CONTINUOUS
 62
       7
  5
266
 10
-54.17213789
 20
120.83397394
 30
0.0
  0
VERTEX
  8
0
  6
CONTINUOUS
 62
       7
  5
267
 10
-54.14535534
 20
120.58161894
 30
0.0
  0
VERTEX
  8
0
  6
CONTINUOUS
 62
       7
  5
268
 10
-54.12071656
 20
120.32901936
 30
0.0
  0
VERTEX
  8
0
  6
CONTINUOUS
 62
       7
  5
269
 10
-54.09825685
 20
120.0762226
 30
0.0
  0
VERTEX
  8
0
  6
CONTINUOUS
 62
       7
  5
26A
 10
-54.07801148
 20
119.82327605
 30
0.0
  0
VERTEX
  8
0
  6
CONTINUOUS
 62
       7
  5
26B
 10
-54.06001576
 20
119.57022713
 30
0.0
  0
VERTEX
  8
0
  6
CONTINUOUS
 62
       7
  5
26C
 10
-54.04430496
 20
119.31712324
 30
0.0
  0
VERTEX
  8
0
  6
CONTINUOUS
 62
       7
  5
26D
 10
-54.03091439
 20
119.06401177
 30
0.0
  0
VERTEX
  8
0
  6
CONTINUOUS
 62
       7
  5
26E
 10
-54.01987933
 20
118.81094014
 30
0.0
  0
VERTEX
  8
0
  6
CONTINUOUS
 62
       7
  5
26F
 10
-54.01123507
 20
118.55795574
 30
0.0
  0
VERTEX
  8
0
  6
CONTINUOUS
 62
       7
  5
270
 10
-54.0050169
 20
118.30510598
 30
0.0
  0
VERTEX
  8
0
  6
CONTINUOUS
 62
       7
  5
271
 10
-54.00126012
 20
118.05243827
 30
0.0
  0
VERTEX
  8
0
  6
CONTINUOUS
 62
       7
  5
272
 10
-54.0
 20
117.8
 30
0.0
  0
VERTEX
  8
0
  6
CONTINUOUS
 62
       7
  5
273
 10
-54.00126008
 20
117.54624534
 30
0.0
  0
VERTEX
  8
0
  6
CONTINUOUS
 62
       7
  5
274
 10
-54.00501684
 20
117.29213254
 30
0.0
  0
VERTEX
  8
0
  6
CONTINUOUS
 62
       7
  5
275
 10
-54.01123498
 20
117.03773848
 30
0.0
  0
VERTEX
  8
0
  6
CONTINUOUS
 62
       7
  5
276
 10
-54.01987922
 20
116.78314003
 30
0.0
  0
VERTEX
  8
0
  6
CONTINUOUS
 62
       7
  5
277
 10
-54.03091426
 20
116.52841407
 30
0.0
  0
VERTEX
  8
0
  6
CONTINUOUS
 62
       7
  5
278
 10
-54.04430482
 20
116.27363748
 30
0.0
  0
VERTEX
  8
0
  6
CONTINUOUS
 62
       7
  5
279
 10
-54.0600156
 20
116.01888714
 30
0.0
  0
VERTEX
  8
0
  6
CONTINUOUS
 62
       7
  5
27A
 10
-54.07801132
 20
115.76423992
 30
0.0
  0
VERTEX
  8
0
  6
CONTINUOUS
 62
       7
  5
27B
 10
-54.09825668
 20
115.50977271
 30
0.0
  0
VERTEX
  8
0
  6
CONTINUOUS
 62
       7
  5
27C
 10
-54.12071641
 20
115.25556237
 30
0.0
  0
VERTEX
  8
0
  6
CONTINUOUS
 62
       7
  5
27D
 10
-54.1453552
 20
115.0016858
 30
0.0
  0
VERTEX
  8
0
  6
CONTINUOUS
 62
       7
  5
27E
 10
-54.17213776
 20
114.74821986
 30
0.0
  0
VERTEX
  8
0
  6
CONTINUOUS
 62
       7
  5
27F
 10
-54.20102881
 20
114.49524143
 30
0.0
  0
VERTEX
  8
0
  6
CONTINUOUS
 62
       7
  5
280
 10
-54.23199306
 20
114.24282739
 30
0.0
  0
VERTEX
  8
0
  6
CONTINUOUS
 62
       7
  5
281
 10
-54.26499522
 20
113.99105462
 30
0.0
  0
VERTEX
  8
0
  6
CONTINUOUS
 62
       7
  5
282
 10
-54.3
 20
113.74
 30
0.0
  0
SEQEND
  8
0
  6
CONTINUOUS
 62
       7
  5
283
  0
POLYLINE
  8
0
  6
CONTINUOUS
 62
       7
  5
1F
 66
       1
 10
0.0
 20
0.0
 30
0.0
  0
VERTEX
  8
0
  6
CONTINUOUS
 62
       7
  5
284
 10
-57.72
 20
121.84
 30
0.0
  0
VERTEX
  8
0
  6
CONTINUOUS
 62
       7
  5
285
 10
-57.75478014
 20
121.58909733
 30
0.0
  0
VERTEX
  8
0
  6
CONTINUOUS
 62
       7
  5
286
 10
-57.7871475
 20
121.33776039
 30
0.0
  0
VERTEX
  8
0
  6
CONTINUOUS
 62
       7
  5
287
 10
-57.8171254
 20
121.0860366
 30
0.0
  0
VERTEX
  8
0
  6
CONTINUOUS
 62
       7
  5
288
 10
-57.84473714
 20
120.83397337
 30
0.0
  0
VERTEX
  8
0
  6
CONTINUOUS
 62
       7
  5
289
 10
-57.87000602
 20
120.58161813
 30
0.0
  0
VERTEX
  8
0
  6
CONTINUOUS
 62
       7
  5
28A
 10
-57.89295534
 20
120.3290183
 30
0.0
  0
VERTEX
  8
0
  6
CONTINUOUS
 62
       7
  5
28B
 10
-57.91360842
 20
120.0762213
 30
0.0
  0
VERTEX
  8
0
  6
CONTINUOUS
 62
       7
  5
28C
 10
-57.93198855
 20
119.82327454
 30
0.0
  0
VERTEX
  8
0
  6
CONTINUOUS
 62
       7
  5
28D
 10
-57.94811903
 20
119.57022546
 30
0.0
  0
VERTEX
  8
0
  6
CONTINUOUS
 62
       7
  5
28E
 10
-57.96202318
 20
119.31712147
 30
0.0
  0
VERTEX
  8
0
  6
CONTINUOUS
 62
       7
  5
28F
 10
-57.97372429
 20
119.06400999
 30
0.0
  0
VERTEX
  8
0
  6
CONTINUOUS
 62
       7
  5
290
 10
-57.98324568
 20
118.81093845
 30
0.0
  0
VERTEX
  8
0
  6
CONTINUOUS
 62
       7
  5
291
 10
-57.99061064
 20
118.55795425
 30
0.0
  0
VERTEX
  8
0
  6
CONTINUOUS
 62
       7
  5
292
 10
-57.99584247
 20
118.30510483
 30
0.0
  0
VERTEX
  8
0
  6
CONTINUOUS
 62
       7
  5
293
 10
-57.99896449
 20
118.05243761
 30
0.0
  0
VERTEX
  8
0
  6
CONTINUOUS
 62
       7
  5
294
 10
-58.0
 20
117.8
 30
0.0
  0
VERTEX
  8
0
  6
CONTINUOUS
 62
       7
  5
295
 10
-57.99896453
 20
117.54624524
 30
0.0
  0
VERTEX
  8
0
  6
CONTINUOUS
 62
       7
  5
296
 10
-57.99584253
 20
117.29213236
 30
0.0
  0
VERTEX
  8
0
  6
CONTINUOUS
 62
       7
  5
297
 10
-57.99061072
 20
117.03773825
 30
0.0
  0
VERTEX
  8
0
  6
CONTINUOUS
 62
       7
  5
298
 10
-57.98324578
 20
116.78313978
 30
0.0
  0
VERTEX
  8
0
  6
CONTINUOUS
 62
       7
  5
299
 10
-57.97372441
 20
116.52841382
 30
0.0
  0
VERTEX
  8
0
  6
CONTINUOUS
 62
       7
  5
29A
 10
-57.9620233
 20
116.27363724
 30
0.0
  0
VERTEX
  8
0
  6
CONTINUOUS
 62
       7
  5
29B
 10
-57.94811916
 20
116.01888693
 30
0.0
  0
VERTEX
  8
0
  6
CONTINUOUS
 62
       7
  5
29C
 10
-57.93198868
 20
115.76423975
 30
0.0
  0
VERTEX
  8
0
  6
CONTINUOUS
 62
       7
  5
29D
 10
-57.91360855
 20
115.50977257
 30
0.0
  0
VERTEX
  8
0
  6
CONTINUOUS
 62
       7
  5
29E
 10
-57.89295546
 20
115.25556228
 30
0.0
  0
VERTEX
  8
0
  6
CONTINUOUS
 62
       7
  5
29F
 10
-57.87000613
 20
115.00168574
 30
0.0
  0
VERTEX
  8
0
  6
CONTINUOUS
 62
       7
  5
2A0
 10
-57.84473724
 20
114.74821984
 30
0.0
  0
VERTEX
  8
0
  6
CONTINUOUS
 62
       7
  5
2A1
 10
-57.81712548
 20
114.49524144
 30
0.0
  0
VERTEX
  8
0
  6
CONTINUOUS
 62
       7
  5
2A2
 10
-57.78714756
 20
114.24282741
 30
0.0
  0
VERTEX
  8
0
  6
CONTINUOUS
 62
       7
  5
2A3
 10
-57.75478017
 20
113.99105464
 30
0.0
  0
VERTEX
  8
0
  6
CONTINUOUS
 62
       7
  5
2A4
 10
-57.72
 20
113.74
 30
0.0
  0
SEQEND
  8
0
  6
CONTINUOUS
 62
       7
  5
2A5
  0
POLYLINE
  8
0
  6
CONTINUOUS
 62
       7
  5
20
 66
       1
 10
0.0
 20
0.0
 30
0.0
  0
VERTEX
  8
0
  6
CONTINUOUS
 62
       7
  5
2A6
 10
-57.72
 20
113.74
 30
0.0
  0
VERTEX
  8
0
  6
CONTINUOUS
 62
       7
  5
2A7
 10
-57.75409836
 20
113.61703833
 30
0.0
  0
VERTEX
  8
0
  6
CONTINUOUS
 62
       7
  5
2A8
 10
-57.78595971
 20
113.49344799
 30
0.0
  0
VERTEX
  8
0
  6
CONTINUOUS
 62
       7
  5
2A9
 10
-57.81558915
 20
113.36926974
 30
0.0
  0
VERTEX
  8
0
  6
CONTINUOUS
 62
       7
  5
2AA
 10
-57.84299181
 20
113.24454434
 30
0.0
  0
VERTEX
  8
0
  6
CONTINUOUS
 62
       7
  5
2AB
 10
-57.86817282
 20
113.11931256
 30
0.0
  0
VERTEX
  8
0
  6
CONTINUOUS
 62
       7
  5
2AC
 10
-57.8911373
 20
112.99361515
 30
0.0
  0
VERTEX
  8
0
  6
CONTINUOUS
 62
       7
  5
2AD
 10
-57.91189038
 20
112.86749289
 30
0.0
  0
VERTEX
  8
0
  6
CONTINUOUS
 62
       7
  5
2AE
 10
-57.93043717
 20
112.74098654
 30
0.0
  0
VERTEX
  8
0
  6
CONTINUOUS
 62
       7
  5
2AF
 10
-57.94678279
 20
112.61413686
 30
0.0
  0
VERTEX
  8
0
  6
CONTINUOUS
 62
       7
  5
2B0
 10
-57.96093238
 20
112.48698461
 30
0.0
  0
VERTEX
  8
0
  6
CONTINUOUS
 62
       7
  5
2B1
 10
-57.97289106
 20
112.35957056
 30
0.0
  0
VERTEX
  8
0
  6
CONTINUOUS
 62
       7
  5
2B2
 10
-57.98266394
 20
112.23193547
 30
0.0
  0
VERTEX
  8
0
  6
CONTINUOUS
 62
       7
  5
2B3
 10
-57.99025615
 20
112.10412011
 30
0.0
  0
VERTEX
  8
0
  6
CONTINUOUS
 62
       7
  5
2B4
 10
-57.99567281
 20
111.97616523
 30
0.0
  0
VERTEX
  8
0
  6
CONTINUOUS
 62
       7
  5
2B5
 10
-57.99891906
 20
111.84811161
 30
0.0
  0
VERTEX
  8
0
  6
CONTINUOUS
 62
       7
  5
2B6
 10
-58.0
 20
111.72
 30
0.0
  0
VERTEX
  8
0
  6
CONTINUOUS
 62
       7
  5
2B7
 10
-57.99891906
 20
111.59188839
 30
0.0
  0
VERTEX
  8
0
  6
CONTINUOUS
 62
       7
  5
2B8
 10
-57.99567282
 20
111.46383477
 30
0.0
  0
VERTEX
  8
0
  6
CONTINUOUS
 62
       7
  5
2B9
 10
-57.99025615
 20
111.3358799
 30
0.0
  0
VERTEX
  8
0
  6
CONTINUOUS
 62
       7
  5
2BA
 10
-57.98266394
 20
111.20806453
 30
0.0
  0
VERTEX
  8
0
  6
CONTINUOUS
 62
       7
  5
2BB
 10
-57.97289106
 20
111.08042945
 30
0.0
  0
VERTEX
  8
0
  6
CONTINUOUS
 62
       7
  5
2BC
 10
-57.96093239
 20
110.9530154
 30
0.0
  0
VERTEX
  8
0
  6
CONTINUOUS
 62
       7
  5
2BD
 10
-57.9467828
 20
110.82586315
 30
0.0
  0
VERTEX
  8
0
  6
CONTINUOUS
 62
       7
  5
2BE
 10
-57.93043718
 20
110.69901347
 30
0.0
  0
VERTEX
  8
0
  6
CONTINUOUS
 62
       7
  5
2BF
 10
-57.91189039
 20
110.57250712
 30
0.0
  0
VERTEX
  8
0
  6
CONTINUOUS
 62
       7
  5
2C0
 10
-57.89113732
 20
110.44638486
 30
0.0
  0
VERTEX
  8
0
  6
CONTINUOUS
 62
       7
  5
2C1
 10
-57.86817284
 20
110.32068745
 30
0.0
  0
VERTEX
  8
0
  6
CONTINUOUS
 62
       7
  5
2C2
 10
-57.84299182
 20
110.19545567
 30
0.0
  0
VERTEX
  8
0
  6
CONTINUOUS
 62
       7
  5
2C3
 10
-57.81558916
 20
110.07073027
 30
0.0
  0
VERTEX
  8
0
  6
CONTINUOUS
 62
       7
  5
2C4
 10
-57.78595971
 20
109.94655201
 30
0.0
  0
VERTEX
  8
0
  6
CONTINUOUS
 62
       7
  5
2C5
 10
-57.75409837
 20
109.82296167
 30
0.0
  0
VERTEX
  8
0
  6
CONTINUOUS
 62
       7
  5
2C6
 10
-57.72
 20
109.7
 30
0.0
  0
SEQEND
  8
0
  6
CONTINUOUS
 62
       7
  5
2C7
  0
POLYLINE
  8
0
  6
CONTINUOUS
 62
       7
  5
21
 66
       1
 10
0.0
 20
0.0
 30
0.0
  0
VERTEX
  8
0
  6
CONTINUOUS
 62
       7
  5
2C8
 10
38.28
 20
121.84
 30
0.0
  0
VERTEX
  8
0
  6
CONTINUOUS
 62
       7
  5
2C9
 10
38.24521986
 20
121.58909728
 30
0.0
  0
VERTEX
  8
0
  6
CONTINUOUS
 62
       7
  5
2CA
 10
38.21285249
 20
121.33776028
 30
0.0
  0
VERTEX
  8
0
  6
CONTINUOUS
 62
       7
  5
2CB
 10
38.18287459
 20
121.08603643
 30
0.0
  0
VERTEX
  8
0
  6
CONTINUOUS
 62
       7
  5
2CC
 10
38.15526286
 20
120.83397315
 30
0.0
  0
VERTEX
  8
0
  6
CONTINUOUS
 62
       7
  5
2CD
 10
38.12999398
 20
120.58161786
 30
0.0
  0
VERTEX
  8
0
  6
CONTINUOUS
 62
       7
  5
2CE
 10
38.10704465
 20
120.32901799
 30
0.0
  0
VERTEX
  8
0
  6
CONTINUOUS
 62
       7
  5
2CF
 10
38.08639158
 20
120.07622096
 30
0.0
  0
VERTEX
  8
0
  6
CONTINUOUS
 62
       7
  5
2D0
 10
38.06801145
 20
119.82327419
 30
0.0
  0
VERTEX
  8
0
  6
CONTINUOUS
 62
       7
  5
2D1
 10
38.05188096
 20
119.57022509
 30
0.0
  0
VERTEX
  8
0
  6
CONTINUOUS
 62
       7
  5
2D2
 10
38.03797682
 20
119.31712111
 30
0.0
  0
VERTEX
  8
0
  6
CONTINUOUS
 62
       7
  5
2D3
 10
38.0262757
 20
119.06400964
 30
0.0
  0
VERTEX
  8
0
  6
CONTINUOUS
 62
       7
  5
2D4
 10
38.01675432
 20
118.81093813
 30
0.0
  0
VERTEX
  8
0
  6
CONTINUOUS
 62
       7
  5
2D5
 10
38.00938936
 20
118.55795399
 30
0.0
  0
VERTEX
  8
0
  6
CONTINUOUS
 62
       7
  5
2D6
 10
38.00415752
 20
118.30510464
 30
0.0
  0
VERTEX
  8
0
  6
CONTINUOUS
 62
       7
  5
2D7
 10
38.00103551
 20
118.0524375
 30
0.0
  0
VERTEX
  8
0
  6
CONTINUOUS
 62
       7
  5
2D8
 10
38.0
 20
117.8
 30
0.0
  0
VERTEX
  8
0
  6
CONTINUOUS
 62
       7
  5
2D9
 10
38.00103547
 20
117.54624535
 30
0.0
  0
VERTEX
  8
0
  6
CONTINUOUS
 62
       7
  5
2DA
 10
38.00415747
 20
117.29213256
 30
0.0
  0
VERTEX
  8
0
  6
CONTINUOUS
 62
       7
  5
2DB
 10
38.00938928
 20
117.03773852
 30
0.0
  0
VERTEX
  8
0
  6
CONTINUOUS
 62
       7
  5
2DC
 10
38.01675422
 20
116.7831401
 30
0.0
  0
VERTEX
  8
0
  6
CONTINUOUS
 62
       7
  5
2DD
 10
38.02627559
 20
116.52841417
 30
0.0
  0
VERTEX
  8
0
  6
CONTINUOUS
 62
       7
  5
2DE
 10
38.03797669
 20
116.27363761
 30
0.0
  0
VERTEX
  8
0
  6
CONTINUOUS
 62
       7
  5
2DF
 10
38.05188084
 20
116.0188873
 30
0.0
  0
VERTEX
  8
0
  6
CONTINUOUS
 62
       7
  5
2E0
 10
38.06801132
 20
115.76424011
 30
0.0
  0
VERTEX
  8
0
  6
CONTINUOUS
 62
       7
  5
2E1
 10
38.08639145
 20
115.50977291
 30
0.0
  0
VERTEX
  8
0
  6
CONTINUOUS
 62
       7
  5
2E2
 10
38.10704453
 20
115.25556259
 30
0.0
  0
VERTEX
  8
0
  6
CONTINUOUS
 62
       7
  5
2E3
 10
38.12999387
 20
115.00168601
 30
0.0
  0
VERTEX
  8
0
  6
CONTINUOUS
 62
       7
  5
2E4
 10
38.15526276
 20
114.74822006
 30
0.0
  0
VERTEX
  8
0
  6
CONTINUOUS
 62
       7
  5
2E5
 10
38.18287452
 20
114.49524161
 30
0.0
  0
VERTEX
  8
0
  6
CONTINUOUS
 62
       7
  5
2E6
 10
38.21285244
 20
114.24282753
 30
0.0
  0
VERTEX
  8
0
  6
CONTINUOUS
 62
       7
  5
2E7
 10
38.24521983
 20
113.9910547
 30
0.0
  0
VERTEX
  8
0
  6
CONTINUOUS
 62
       7
  5
2E8
 10
38.28
 20
113.74
 30
0.0
  0
SEQEND
  8
0
  6
CONTINUOUS
 62
       7
  5
2E9
  0
POLYLINE
  8
0
  6
CONTINUOUS
 62
       7
  5
22
 66
       1
 10
0.0
 20
0.0
 30
0.0
  0
VERTEX
  8
0
  6
CONTINUOUS
 62
       7
  5
2EA
 10
38.28
 20
125.88
 30
0.0
  0
VERTEX
  8
0
  6
CONTINUOUS
 62
       7
  5
2EB
 10
38.24590166
 20
125.75703822
 30
0.0
  0
VERTEX
  8
0
  6
CONTINUOUS
 62
       7
  5
2EC
 10
38.21404035
 20
125.63344757
 30
0.0
  0
VERTEX
  8
0
  6
CONTINUOUS
 62
       7
  5
2ED
 10
38.18441093
 20
125.50926886
 30
0.0
  0
VERTEX
  8
0
  6
CONTINUOUS
 62
       7
  5
2EE
 10
38.15700828
 20
125.3845429
 30
0.0
  0
VERTEX
  8
0
  6
CONTINUOUS
 62
       7
  5
2EF
 10
38.13182729
 20
125.25931049
 30
0.0
  0
VERTEX
  8
0
  6
CONTINUOUS
 62
       7
  5
2F0
 10
38.10886282
 20
125.13361244
 30
0.0
  0
VERTEX
  8
0
  6
CONTINUOUS
 62
       7
  5
2F1
 10
38.08810975
 20
125.00748957
 30
0.0
  0
VERTEX
  8
0
  6
CONTINUOUS
 62
       7
  5
2F2
 10
38.06956296
 20
124.88098268
 30
0.0
  0
VERTEX
  8
0
  6
CONTINUOUS
 62
       7
  5
2F3
 10
38.05321734
 20
124.75413258
 30
0.0
  0
VERTEX
  8
0
  6
CONTINUOUS
 62
       7
  5
2F4
 10
38.03906774
 20
124.62698008
 30
0.0
  0
VERTEX
  8
0
  6
CONTINUOUS
 62
       7
  5
2F5
 10
38.02710906
 20
124.49956599
 30
0.0
  0
VERTEX
  8
0
  6
CONTINUOUS
 62
       7
  5
2F6
 10
38.01733616
 20
124.37193112
 30
0.0
  0
VERTEX
  8
0
  6
CONTINUOUS
 62
       7
  5
2F7
 10
38.00974393
 20
124.24411628
 30
0.0
  0
VERTEX
  8
0
  6
CONTINUOUS
 62
       7
  5
2F8
 10
38.00432724
 20
124.11616227
 30
0.0
  0
VERTEX
  8
0
  6
CONTINUOUS
 62
       7
  5
2F9
 10
38.00108097
 20
123.98810991
 30
0.0
  0
VERTEX
  8
0
  6
CONTINUOUS
 62
       7
  5
2FA
 10
38.0
 20
123.86
 30
0.0
  0
VERTEX
  8
0
  6
CONTINUOUS
 62
       7
  5
2FB
 10
38.00108091
 20
123.7318901
 30
0.0
  0
VERTEX
  8
0
  6
CONTINUOUS
 62
       7
  5
2FC
 10
38.00432713
 20
123.60383778
 30
0.0
  0
VERTEX
  8
0
  6
CONTINUOUS
 62
       7
  5
2FD
 10
38.00974377
 20
123.47588382
 30
0.0
  0
VERTEX
  8
0
  6
CONTINUOUS
 62
       7
  5
2FE
 10
38.01733597
 20
123.34806904
 30
0.0
  0
VERTEX
  8
0
  6
CONTINUOUS
 62
       7
  5
2FF
 10
38.02710883
 20
123.22043424
 30
0.0
  0
VERTEX
  8
0
  6
CONTINUOUS
 62
       7
  5
300
 10
38.0390675
 20
123.09302022
 30
0.0
  0
VERTEX
  8
0
  6
CONTINUOUS
 62
       7
  5
301
 10
38.05321709
 20
122.96586779
 30
0.0
  0
VERTEX
  8
0
  6
CONTINUOUS
 62
       7
  5
302
 10
38.06956271
 20
122.83901775
 30
0.0
  0
VERTEX
  8
0
  6
CONTINUOUS
 62
       7
  5
303
 10
38.08810951
 20
122.71251091
 30
0.0
  0
VERTEX
  8
0
  6
CONTINUOUS
 62
       7
  5
304
 10
38.10886259
 20
122.58638806
 30
0.0
  0
VERTEX
  8
0
  6
CONTINUOUS
 62
       7
  5
305
 10
38.13182708
 20
122.46069002
 30
0.0
  0
VERTEX
  8
0
  6
CONTINUOUS
 62
       7
  5
306
 10
38.1570081
 20
122.33545759
 30
0.0
  0
VERTEX
  8
0
  6
CONTINUOUS
 62
       7
  5
307
 10
38.18441079
 20
122.21073157
 30
0.0
  0
VERTEX
  8
0
  6
CONTINUOUS
 62
       7
  5
308
 10
38.21404025
 20
122.08655276
 30
0.0
  0
VERTEX
  8
0
  6
CONTINUOUS
 62
       7
  5
309
 10
38.24590161
 20
121.96296197
 30
0.0
  0
VERTEX
  8
0
  6
CONTINUOUS
 62
       7
  5
30A
 10
38.28
 20
121.84
 30
0.0
  0
SEQEND
  8
0
  6
CONTINUOUS
 62
       7
  5
30B
  0
POLYLINE
  8
0
  6
CONTINUOUS
 62
       7
  5
23
 66
       1
 10
0.0
 20
0.0
 30
0.0
  0
VERTEX
  8
0
  6
CONTINUOUS
 62
       7
  5
30C
 10
38.28
 20
113.74
 30
0.0
  0
VERTEX
  8
0
  6
CONTINUOUS
 62
       7
  5
30D
 10
38.24590164
 20
113.61703834
 30
0.0
  0
VERTEX
  8
0
  6
CONTINUOUS
 62
       7
  5
30E
 10
38.2140403
 20
113.49344799
 30
0.0
  0
VERTEX
  8
0
  6
CONTINUOUS
 62
       7
  5
30F
 10
38.18441086
 20
113.36926971
 30
0.0
  0
VERTEX
  8
0
  6
CONTINUOUS
 62
       7
  5
310
 10
38.1570082
 20
113.24454428
 30
0.0
  0
VERTEX
  8
0
  6
CONTINUOUS
 62
       7
  5
311
 10
38.13182719
 20
113.11931246
 30
0.0
  0
VERTEX
  8
0
  6
CONTINUOUS
 62
       7
  5
312
 10
38.10886271
 20
112.99361501
 30
0.0
  0
VERTEX
  8
0
  6
CONTINUOUS
 62
       7
  5
313
 10
38.08810963
 20
112.86749271
 30
0.0
  0
VERTEX
  8
0
  6
CONTINUOUS
 62
       7
  5
314
 10
38.06956284
 20
112.74098632
 30
0.0
  0
VERTEX
  8
0
  6
CONTINUOUS
 62
       7
  5
315
 10
38.05321722
 20
112.61413661
 30
0.0
  0
VERTEX
  8
0
  6
CONTINUOUS
 62
       7
  5
316
 10
38.03906762
 20
112.48698434
 30
0.0
  0
VERTEX
  8
0
  6
CONTINUOUS
 62
       7
  5
317
 10
38.02710895
 20
112.35957028
 30
0.0
  0
VERTEX
  8
0
  6
CONTINUOUS
 62
       7
  5
318
 10
38.01733607
 20
112.2319352
 30
0.0
  0
VERTEX
  8
0
  6
CONTINUOUS
 62
       7
  5
319
 10
38.00974385
 20
112.10411987
 30
0.0
  0
VERTEX
  8
0
  6
CONTINUOUS
 62
       7
  5
31A
 10
38.00432719
 20
111.97616504
 30
0.0
  0
VERTEX
  8
0
  6
CONTINUOUS
 62
       7
  5
31B
 10
38.00108094
 20
111.8481115
 30
0.0
  0
VERTEX
  8
0
  6
CONTINUOUS
 62
       7
  5
31C
 10
38.0
 20
111.72
 30
0.0
  0
VERTEX
  8
0
  6
CONTINUOUS
 62
       7
  5
31D
 10
38.00108094
 20
111.5918885
 30
0.0
  0
VERTEX
  8
0
  6
CONTINUOUS
 62
       7
  5
31E
 10
38.00432718
 20
111.46383496
 30
0.0
  0
VERTEX
  8
0
  6
CONTINUOUS
 62
       7
  5
31F
 10
38.00974385
 20
111.33588014
 30
0.0
  0
VERTEX
  8
0
  6
CONTINUOUS
 62
       7
  5
320
 10
38.01733606
 20
111.20806481
 30
0.0
  0
VERTEX
  8
0
  6
CONTINUOUS
 62
       7
  5
321
 10
38.02710894
 20
111.08042973
 30
0.0
  0
VERTEX
  8
0
  6
CONTINUOUS
 62
       7
  5
322
 10
38.03906762
 20
110.95301568
 30
0.0
  0
VERTEX
  8
0
  6
CONTINUOUS
 62
       7
  5
323
 10
38.05321721
 20
110.82586341
 30
0.0
  0
VERTEX
  8
0
  6
CONTINUOUS
 62
       7
  5
324
 10
38.06956283
 20
110.6990137
 30
0.0
  0
VERTEX
  8
0
  6
CONTINUOUS
 62
       7
  5
325
 10
38.08810962
 20
110.57250731
 30
0.0
  0
VERTEX
  8
0
  6
CONTINUOUS
 62
       7
  5
326
 10
38.1088627
 20
110.44638501
 30
0.0
  0
VERTEX
  8
0
  6
CONTINUOUS
 62
       7
  5
327
 10
38.13182718
 20
110.32068757
 30
0.0
  0
VERTEX
  8
0
  6
CONTINUOUS
 62
       7
  5
328
 10
38.15700819
 20
110.19545575
 30
0.0
  0
VERTEX
  8
0
  6
CONTINUOUS
 62
       7
  5
329
 10
38.18441085
 20
110.07073031
 30
0.0
  0
VERTEX
  8
0
  6
CONTINUOUS
 62
       7
  5
32A
 10
38.21404029
 20
109.94655203
 30
0.0
  0
VERTEX
  8
0
  6
CONTINUOUS
 62
       7
  5
32B
 10
38.24590164
 20
109.82296167
 30
0.0
  0
VERTEX
  8
0
  6
CONTINUOUS
 62
       7
  5
32C
 10
38.28
 20
109.7
 30
0.0
  0
SEQEND
  8
0
  6
CONTINUOUS
 62
       7
  5
32D
  0
POLYLINE
  8
0
  6
CONTINUOUS
 62
       7
  5
24
 66
       1
 10
0.0
 20
0.0
 30
0.0
  0
VERTEX
  8
0
  6
CONTINUOUS
 62
       7
  5
32E
 10
-57.72
 20
125.88
 30
0.0
  0
VERTEX
  8
0
  6
CONTINUOUS
 62
       7
  5
32F
 10
-57.75409833
 20
125.75703822
 30
0.0
  0
VERTEX
  8
0
  6
CONTINUOUS
 62
       7
  5
330
 10
-57.78595965
 20
125.63344756
 30
0.0
  0
VERTEX
  8
0
  6
CONTINUOUS
 62
       7
  5
331
 10
-57.81558907
 20
125.50926885
 30
0.0
  0
VERTEX
  8
0
  6
CONTINUOUS
 62
       7
  5
332
 10
-57.84299171
 20
125.38454288
 30
0.0
  0
VERTEX
  8
0
  6
CONTINUOUS
 62
       7
  5
333
 10
-57.86817271
 20
125.25931047
 30
0.0
  0
VERTEX
  8
0
  6
CONTINUOUS
 62
       7
  5
334
 10
-57.89113718
 20
125.13361243
 30
0.0
  0
VERTEX
  8
0
  6
CONTINUOUS
 62
       7
  5
335
 10
-57.91189024
 20
125.00748956
 30
0.0
  0
VERTEX
  8
0
  6
CONTINUOUS
 62
       7
  5
336
 10
-57.93043703
 20
124.88098267
 30
0.0
  0
VERTEX
  8
0
  6
CONTINUOUS
 62
       7
  5
337
 10
-57.94678266
 20
124.75413257
 30
0.0
  0
VERTEX
  8
0
  6
CONTINUOUS
 62
       7
  5
338
 10
-57.96093225
 20
124.62698008
 30
0.0
  0
VERTEX
  8
0
  6
CONTINUOUS
 62
       7
  5
339
 10
-57.97289094
 20
124.49956599
 30
0.0
  0
VERTEX
  8
0
  6
CONTINUOUS
 62
       7
  5
33A
 10
-57.98266383
 20
124.37193112
 30
0.0
  0
VERTEX
  8
0
  6
CONTINUOUS
 62
       7
  5
33B
 10
-57.99025607
 20
124.24411628
 30
0.0
  0
VERTEX
  8
0
  6
CONTINUOUS
 62
       7
  5
33C
 10
-57.99567275
 20
124.11616227
 30
0.0
  0
VERTEX
  8
0
  6
CONTINUOUS
 62
       7
  5
33D
 10
-57.99891903
 20
123.98810991
 30
0.0
  0
VERTEX
  8
0
  6
CONTINUOUS
 62
       7
  5
33E
 10
-58.0
 20
123.86
 30
0.0
  0
VERTEX
  8
0
  6
CONTINUOUS
 62
       7
  5
33F
 10
-57.99891909
 20
123.7318901
 30
0.0
  0
VERTEX
  8
0
  6
CONTINUOUS
 62
       7
  5
340
 10
-57.99567287
 20
123.60383777
 30
0.0
  0
VERTEX
  8
0
  6
CONTINUOUS
 62
       7
  5
341
 10
-57.99025623
 20
123.47588382
 30
0.0
  0
VERTEX
  8
0
  6
CONTINUOUS
 62
       7
  5
342
 10
-57.98266404
 20
123.34806904
 30
0.0
  0
VERTEX
  8
0
  6
CONTINUOUS
 62
       7
  5
343
 10
-57.97289117
 20
123.22043424
 30
0.0
  0
VERTEX
  8
0
  6
CONTINUOUS
 62
       7
  5
344
 10
-57.96093251
 20
123.09302023
 30
0.0
  0
VERTEX
  8
0
  6
CONTINUOUS
 62
       7
  5
345
 10
-57.94678292
 20
122.9658678
 30
0.0
  0
VERTEX
  8
0
  6
CONTINUOUS
 62
       7
  5
346
 10
-57.9304373
 20
122.83901776
 30
0.0
  0
VERTEX
  8
0
  6
CONTINUOUS
 62
       7
  5
347
 10
-57.91189051
 20
122.71251092
 30
0.0
  0
VERTEX
  8
0
  6
CONTINUOUS
 62
       7
  5
348
 10
-57.89113742
 20
122.58638808
 30
0.0
  0
VERTEX
  8
0
  6
CONTINUOUS
 62
       7
  5
349
 10
-57.86817293
 20
122.46069004
 30
0.0
  0
VERTEX
  8
0
  6
CONTINUOUS
 62
       7
  5
34A
 10
-57.84299191
 20
122.3354576
 30
0.0
  0
VERTEX
  8
0
  6
CONTINUOUS
 62
       7
  5
34B
 10
-57.81558922
 20
122.21073158
 30
0.0
  0
VERTEX
  8
0
  6
CONTINUOUS
 62
       7
  5
34C
 10
-57.78595976
 20
122.08655277
 30
0.0
  0
VERTEX
  8
0
  6
CONTINUOUS
 62
       7
  5
34D
 10
-57.75409839
 20
121.96296197
 30
0.0
  0
VERTEX
  8
0
  6
CONTINUOUS
 62
       7
  5
34E
 10
-57.72
 20
121.84
 30
0.0
  0
SEQEND
  8
0
  6
CONTINUOUS
 62
       7
  5
34F
  0
POLYLINE
  8
0
  6
CONTINUOUS
 62
       7
  5
25
 66
       1
 10
0.0
 20
0.0
 30
0.0
  0
VERTEX
  8
0
  6
CONTINUOUS
 62
       7
  5
350
 10
-54.3
 20
125.88
 30
0.0
  0
VERTEX
  8
0
  6
CONTINUOUS
 62
       7
  5
351
 10
-54.26567706
 20
125.75703824
 30
0.0
  0
VERTEX
  8
0
  6
CONTINUOUS
 62
       7
  5
352
 10
-54.23318098
 20
125.63344761
 30
0.0
  0
VERTEX
  8
0
  6
CONTINUOUS
 62
       7
  5
353
 10
-54.20256524
 20
125.50926891
 30
0.0
  0
VERTEX
  8
0
  6
CONTINUOUS
 62
       7
  5
354
 10
-54.17388329
 20
125.38454295
 30
0.0
  0
VERTEX
  8
0
  6
CONTINUOUS
 62
       7
  5
355
 10
-54.14718863
 20
125.25931054
 30
0.0
  0
VERTEX
  8
0
  6
CONTINUOUS
 62
       7
  5
356
 10
-54.1225347
 20
125.13361249
 30
0.0
  0
VERTEX
  8
0
  6
CONTINUOUS
 62
       7
  5
357
 10
-54.099975
 20
125.00748962
 30
0.0
  0
VERTEX
  8
0
  6
CONTINUOUS
 62
       7
  5
358
 10
-54.07956297
 20
124.88098272
 30
0.0
  0
VERTEX
  8
0
  6
CONTINUOUS
 62
       7
  5
359
 10
-54.06135211
 20
124.75413262
 30
0.0
  0
VERTEX
  8
0
  6
CONTINUOUS
 62
       7
  5
35A
 10
-54.04539587
 20
124.62698011
 30
0.0
  0
VERTEX
  8
0
  6
CONTINUOUS
 62
       7
  5
35B
 10
-54.03174774
 20
124.49956601
 30
0.0
  0
VERTEX
  8
0
  6
CONTINUOUS
 62
       7
  5
35C
 10
-54.02046117
 20
124.37193114
 30
0.0
  0
VERTEX
  8
0
  6
CONTINUOUS
 62
       7
  5
35D
 10
-54.01158964
 20
124.24411629
 30
0.0
  0
VERTEX
  8
0
  6
CONTINUOUS
 62
       7
  5
35E
 10
-54.00518662
 20
124.11616227
 30
0.0
  0
VERTEX
  8
0
  6
CONTINUOUS
 62
       7
  5
35F
 10
-54.00130558
 20
123.98810991
 30
0.0
  0
VERTEX
  8
0
  6
CONTINUOUS
 62
       7
  5
360
 10
-54.0
 20
123.86
 30
0.0
  0
VERTEX
  8
0
  6
CONTINUOUS
 62
       7
  5
361
 10
-54.00130552
 20
123.73189011
 30
0.0
  0
VERTEX
  8
0
  6
CONTINUOUS
 62
       7
  5
362
 10
-54.0051865
 20
123.60383778
 30
0.0
  0
VERTEX
  8
0
  6
CONTINUOUS
 62
       7
  5
363
 10
-54.01158947
 20
123.47588382
 30
0.0
  0
VERTEX
  8
0
  6
CONTINUOUS
 62
       7
  5
364
 10
-54.02046096
 20
123.34806903
 30
0.0
  0
VERTEX
  8
0
  6
CONTINUOUS
 62
       7
  5
365
 10
-54.0317475
 20
123.22043423
 30
0.0
  0
VERTEX
  8
0
  6
CONTINUOUS
 62
       7
  5
366
 10
-54.04539562
 20
123.09302021
 30
0.0
  0
VERTEX
  8
0
  6
CONTINUOUS
 62
       7
  5
367
 10
-54.06135185
 20
122.96586777
 30
0.0
  0
VERTEX
  8
0
  6
CONTINUOUS
 62
       7
  5
368
 10
-54.07956271
 20
122.83901773
 30
0.0
  0
VERTEX
  8
0
  6
CONTINUOUS
 62
       7
  5
369
 10
-54.09997473
 20
122.71251088
 30
0.0
  0
VERTEX
  8
0
  6
CONTINUOUS
 62
       7
  5
36A
 10
-54.12253446
 20
122.58638803
 30
0.0
  0
VERTEX
  8
0
  6
CONTINUOUS
 62
       7
  5
36B
 10
-54.1471884
 20
122.46068999
 30
0.0
  0
VERTEX
  8
0
  6
CONTINUOUS
 62
       7
  5
36C
 10
-54.1738831
 20
122.33545756
 30
0.0
  0
VERTEX
  8
0
  6
CONTINUOUS
 62
       7
  5
36D
 10
-54.20256508
 20
122.21073154
 30
0.0
  0
VERTEX
  8
0
  6
CONTINUOUS
 62
       7
  5
36E
 10
-54.23318087
 20
122.08655274
 30
0.0
  0
VERTEX
  8
0
  6
CONTINUOUS
 62
       7
  5
36F
 10
-54.265677
 20
121.96296195
 30
0.0
  0
VERTEX
  8
0
  6
CONTINUOUS
 62
       7
  5
370
 10
-54.3
 20
121.84
 30
0.0
  0
SEQEND
  8
0
  6
CONTINUOUS
 62
       7
  5
371
  0
POLYLINE
  8
0
  6
CONTINUOUS
 62
       7
  5
26
 66
       1
 10
0.0
 20
0.0
 30
0.0
  0
VERTEX
  8
0
  6
CONTINUOUS
 62
       7
  5
372
 10
-54.3
 20
113.74
 30
0.0
  0
VERTEX
  8
0
  6
CONTINUOUS
 62
       7
  5
373
 10
-54.26567685
 20
113.61703841
 30
0.0
  0
VERTEX
  8
0
  6
CONTINUOUS
 62
       7
  5
374
 10
-54.23318058
 20
113.49344813
 30
0.0
  0
VERTEX
  8
0
  6
CONTINUOUS
 62
       7
  5
375
 10
-54.20256467
 20
113.36926992
 30
0.0
  0
VERTEX
  8
0
  6
CONTINUOUS
 62
       7
  5
376
 10
-54.17388259
 20
113.24454454
 30
0.0
  0
VERTEX
  8
0
  6
CONTINUOUS
 62
       7
  5
377
 10
-54.14718781
 20
113.11931276
 30
0.0
  0
VERTEX
  8
0
  6
CONTINUOUS
 62
       7
  5
378
 10
-54.1225338
 20
112.99361536
 30
0.0
  0
VERTEX
  8
0
  6
CONTINUOUS
 62
       7
  5
379
 10
-54.09997404
 20
112.86749308
 30
0.0
  0
VERTEX
  8
0
  6
CONTINUOUS
 62
       7
  5
37A
 10
-54.07956199
 20
112.74098671
 30
0.0
  0
VERTEX
  8
0
  6
CONTINUOUS
 62
       7
  5
37B
 10
-54.06135114
 20
112.614137
 30
0.0
  0
VERTEX
  8
0
  6
CONTINUOUS
 62
       7
  5
37C
 10
-54.04539494
 20
112.48698472
 30
0.0
  0
VERTEX
  8
0
  6
CONTINUOUS
 62
       7
  5
37D
 10
-54.03174687
 20
112.35957064
 30
0.0
  0
VERTEX
  8
0
  6
CONTINUOUS
 62
       7
  5
37E
 10
-54.0204604
 20
112.23193552
 30
0.0
  0
VERTEX
  8
0
  6
CONTINUOUS
 62
       7
  5
37F
 10
-54.01158901
 20
112.10412014
 30
0.0
  0
VERTEX
  8
0
  6
CONTINUOUS
 62
       7
  5
380
 10
-54.00518616
 20
111.97616524
 30
0.0
  0
VERTEX
  8
0
  6
CONTINUOUS
 62
       7
  5
381
 10
-54.00130534
 20
111.84811161
 30
0.0
  0
VERTEX
  8
0
  6
CONTINUOUS
 62
       7
  5
382
 10
-54.0
 20
111.72
 30
0.0
  0
VERTEX
  8
0
  6
CONTINUOUS
 62
       7
  5
383
 10
-54.00130572
 20
111.59188839
 30
0.0
  0
VERTEX
  8
0
  6
CONTINUOUS
 62
       7
  5
384
 10
-54.00518677
 20
111.46383474
 30
0.0
  0
VERTEX
  8
0
  6
CONTINUOUS
 62
       7
  5
385
 10
-54.01158971
 20
111.33587983
 30
0.0
  0
VERTEX
  8
0
  6
CONTINUOUS
 62
       7
  5
386
 10
-54.02046108
 20
111.20806442
 30
0.0
  0
VERTEX
  8
0
  6
CONTINUOUS
 62
       7
  5
387
 10
-54.03174745
 20
111.08042928
 30
0.0
  0
VERTEX
  8
0
  6
CONTINUOUS
 62
       7
  5
388
 10
-54.04539535
 20
110.95301518
 30
0.0
  0
VERTEX
  8
0
  6
CONTINUOUS
 62
       7
  5
389
 10
-54.06135134
 20
110.82586288
 30
0.0
  0
VERTEX
  8
0
  6
CONTINUOUS
 62
       7
  5
38A
 10
-54.07956196
 20
110.69901315
 30
0.0
  0
VERTEX
  8
0
  6
CONTINUOUS
 62
       7
  5
38B
 10
-54.09997378
 20
110.57250676
 30
0.0
  0
VERTEX
  8
0
  6
CONTINUOUS
 62
       7
  5
38C
 10
-54.12253333
 20
110.44638448
 30
0.0
  0
VERTEX
  8
0
  6
CONTINUOUS
 62
       7
  5
38D
 10
-54.14718718
 20
110.32068707
 30
0.0
  0
VERTEX
  8
0
  6
CONTINUOUS
 62
       7
  5
38E
 10
-54.17388186
 20
110.1954553
 30
0.0
  0
VERTEX
  8
0
  6
CONTINUOUS
 62
       7
  5
38F
 10
-54.20256394
 20
110.07072994
 30
0.0
  0
VERTEX
  8
0
  6
CONTINUOUS
 62
       7
  5
390
 10
-54.23317995
 20
109.94655176
 30
0.0
  0
VERTEX
  8
0
  6
CONTINUOUS
 62
       7
  5
391
 10
-54.26567645
 20
109.82296152
 30
0.0
  0
VERTEX
  8
0
  6
CONTINUOUS
 62
       7
  5
392
 10
-54.3
 20
109.7
 30
0.0
  0
SEQEND
  8
0
  6
CONTINUOUS
 62
       7
  5
393
  0
POLYLINE
  8
0
  6
CONTINUOUS
 62
       7
  5
27
 66
       1
 10
0.0
 20
0.0
 30
0.0
  0
VERTEX
  8
0
  6
CONTINUOUS
 62
       7
  5
394
 10
-54.3
 20
-13.0
 30
0.0
  0
VERTEX
  8
0
  6
CONTINUOUS
 62
       7
  5
395
 10
-54.26507103
 20
-12.78325391
 30
0.0
  0
VERTEX
  8
0
  6
CONTINUOUS
 62
       7
  5
396
 10
-54.23212514
 20
-12.56611995
 30
0.0
  0
VERTEX
  8
0
  6
CONTINUOUS
 62
       7
  5
397
 10
-54.20119964
 20
-12.34862398
 30
0.0
  0
VERTEX
  8
0
  6
CONTINUOUS
 62
       7
  5
398
 10
-54.17233184
 20
-12.13079185
 30
0.0
  0
VERTEX
  8
0
  6
CONTINUOUS
 62
       7
  5
399
 10
-54.14555905
 20
-11.91264943
 30
0.0
  0
VERTEX
  8
0
  6
CONTINUOUS
 62
       7
  5
39A
 10
-54.12091858
 20
-11.69422259
 30
0.0
  0
VERTEX
  8
0
  6
CONTINUOUS
 62
       7
  5
39B
 10
-54.09844775
 20
-11.47553717
 30
0.0
  0
VERTEX
  8
0
  6
CONTINUOUS
 62
       7
  5
39C
 10
-54.07818386
 20
-11.25661905
 30
0.0
  0
VERTEX
  8
0
  6
CONTINUOUS
 62
       7
  5
39D
 10
-54.06016422
 20
-11.03749409
 30
0.0
  0
VERTEX
  8
0
  6
CONTINUOUS
 62
       7
  5
39E
 10
-54.04442615
 20
-10.81818814
 30
0.0
  0
VERTEX
  8
0
  6
CONTINUOUS
 62
       7
  5
39F
 10
-54.03100696
 20
-10.59872706
 30
0.0
  0
VERTEX
  8
0
  6
CONTINUOUS
 62
       7
  5
3A0
 10
-54.01994395
 20
-10.37913673
 30
0.0
  0
VERTEX
  8
0
  6
CONTINUOUS
 62
       7
  5
3A1
 10
-54.01127444
 20
-10.159443
 30
0.0
  0
VERTEX
  8
0
  6
CONTINUOUS
 62
       7
  5
3A2
 10
-54.00503573
 20
-9.93967172
 30
0.0
  0
VERTEX
  8
0
  6
CONTINUOUS
 62
       7
  5
3A3
 10
-54.00126515
 20
-9.71984877
 30
0.0
  0
VERTEX
  8
0
  6
CONTINUOUS
 62
       7
  5
3A4
 10
-54.0
 20
-9.5
 30
0.0
  0
VERTEX
  8
0
  6
CONTINUOUS
 62
       7
  5
3A5
 10
-54.00126515
 20
-9.28015123
 30
0.0
  0
VERTEX
  8
0
  6
CONTINUOUS
 62
       7
  5
3A6
 10
-54.00503573
 20
-9.06032828
 30
0.0
  0
VERTEX
  8
0
  6
CONTINUOUS
 62
       7
  5
3A7
 10
-54.01127444
 20
-8.840557
 30
0.0
  0
VERTEX
  8
0
  6
CONTINUOUS
 62
       7
  5
3A8
 10
-54.01994395
 20
-8.62086327
 30
0.0
  0
VERTEX
  8
0
  6
CONTINUOUS
 62
       7
  5
3A9
 10
-54.03100696
 20
-8.40127294
 30
0.0
  0
VERTEX
  8
0
  6
CONTINUOUS
 62
       7
  5
3AA
 10
-54.04442615
 20
-8.18181186
 30
0.0
  0
VERTEX
  8
0
  6
CONTINUOUS
 62
       7
  5
3AB
 10
-54.06016422
 20
-7.96250591
 30
0.0
  0
VERTEX
  8
0
  6
CONTINUOUS
 62
       7
  5
3AC
 10
-54.07818386
 20
-7.74338095
 30
0.0
  0
VERTEX
  8
0
  6
CONTINUOUS
 62
       7
  5
3AD
 10
-54.09844775
 20
-7.52446283
 30
0.0
  0
VERTEX
  8
0
  6
CONTINUOUS
 62
       7
  5
3AE
 10
-54.12091858
 20
-7.30577741
 30
0.0
  0
VERTEX
  8
0
  6
CONTINUOUS
 62
       7
  5
3AF
 10
-54.14555905
 20
-7.08735057
 30
0.0
  0
VERTEX
  8
0
  6
CONTINUOUS
 62
       7
  5
3B0
 10
-54.17233184
 20
-6.86920815
 30
0.0
  0
VERTEX
  8
0
  6
CONTINUOUS
 62
       7
  5
3B1
 10
-54.20119964
 20
-6.65137602
 30
0.0
  0
VERTEX
  8
0
  6
CONTINUOUS
 62
       7
  5
3B2
 10
-54.23212514
 20
-6.43388005
 30
0.0
  0
VERTEX
  8
0
  6
CONTINUOUS
 62
       7
  5
3B3
 10
-54.26507103
 20
-6.21674609
 30
0.0
  0
VERTEX
  8
0
  6
CONTINUOUS
 62
       7
  5
3B4
 10
-54.3
 20
-6.0
 30
0.0
  0
SEQEND
  8
0
  6
CONTINUOUS
 62
       7
  5
3B5
  0
POLYLINE
  8
0
  6
CONTINUOUS
 62
       7
  5
28
 66
       1
 10
0.0
 20
0.0
 30
0.0
  0
VERTEX
  8
0
  6
CONTINUOUS
 62
       7
  5
3B6
 10
-54.3
 20
-6.0
 30
0.0
  0
VERTEX
  8
0
  6
CONTINUOUS
 62
       7
  5
3B7
 10
-54.26507101
 20
-5.7832538
 30
0.0
  0
VERTEX
  8
0
  6
CONTINUOUS
 62
       7
  5
3B8
 10
-54.23212511
 20
-5.56611974
 30
0.0
  0
VERTEX
  8
0
  6
CONTINUOUS
 62
       7
  5
3B9
 10
-54.20119959
 20
-5.34862369
 30
0.0
  0
VERTEX
  8
0
  6
CONTINUOUS
 62
       7
  5
3BA
 10
-54.17233178
 20
-5.13079149
 30
0.0
  0
VERTEX
  8
0
  6
CONTINUOUS
 62
       7
  5
3BB
 10
-54.14555898
 20
-4.91264903
 30
0.0
  0
VERTEX
  8
0
  6
CONTINUOUS
 62
       7
  5
3BC
 10
-54.12091851
 20
-4.69422214
 30
0.0
  0
VERTEX
  8
0
  6
CONTINUOUS
 62
       7
  5
3BD
 10
-54.09844767
 20
-4.47553671
 30
0.0
  0
VERTEX
  8
0
  6
CONTINUOUS
 62
       7
  5
3BE
 10
-54.07818378
 20
-4.25661858
 30
0.0
  0
VERTEX
  8
0
  6
CONTINUOUS
 62
       7
  5
3BF
 10
-54.06016414
 20
-4.03749362
 30
0.0
  0
VERTEX
  8
0
  6
CONTINUOUS
 62
       7
  5
3C0
 10
-54.04442608
 20
-3.81818769
 30
0.0
  0
VERTEX
  8
0
  6
CONTINUOUS
 62
       7
  5
3C1
 10
-54.03100689
 20
-3.59872666
 30
0.0
  0
VERTEX
  8
0
  6
CONTINUOUS
 62
       7
  5
3C2
 10
-54.01994389
 20
-3.37913637
 30
0.0
  0
VERTEX
  8
0
  6
CONTINUOUS
 62
       7
  5
3C3
 10
-54.01127439
 20
-3.1594427
 30
0.0
  0
VERTEX
  8
0
  6
CONTINUOUS
 62
       7
  5
3C4
 10
-54.0050357
 20
-2.93967151
 30
0.0
  0
VERTEX
  8
0
  6
CONTINUOUS
 62
       7
  5
3C5
 10
-54.00126513
 20
-2.71984866
 30
0.0
  0
VERTEX
  8
0
  6
CONTINUOUS
 62
       7
  5
3C6
 10
-54.0
 20
-2.5
 30
0.0
  0
VERTEX
  8
0
  6
CONTINUOUS
 62
       7
  5
3C7
 10
-54.00126517
 20
-2.28015133
 30
0.0
  0
VERTEX
  8
0
  6
CONTINUOUS
 62
       7
  5
3C8
 10
-54.00503577
 20
-2.06032844
 30
0.0
  0
VERTEX
  8
0
  6
CONTINUOUS
 62
       7
  5
3C9
 10
-54.01127449
 20
-1.84055719
 30
0.0
  0
VERTEX
  8
0
  6
CONTINUOUS
 62
       7
  5
3CA
 10
-54.01994401
 20
-1.62086345
 30
0.0
  0
VERTEX
  8
0
  6
CONTINUOUS
 62
       7
  5
3CB
 10
-54.03100702
 20
-1.40127309
 30
0.0
  0
VERTEX
  8
0
  6
CONTINUOUS
 62
       7
  5
3CC
 10
-54.04442623
 20
-1.18181198
 30
0.0
  0
VERTEX
  8
0
  6
CONTINUOUS
 62
       7
  5
3CD
 10
-54.0601643
 20
-0.96250597
 30
0.0
  0
VERTEX
  8
0
  6
CONTINUOUS
 62
       7
  5
3CE
 10
-54.07818394
 20
-0.74338095
 30
0.0
  0
VERTEX
  8
0
  6
CONTINUOUS
 62
       7
  5
3CF
 10
-54.09844783
 20
-0.52446277
 30
0.0
  0
VERTEX
  8
0
  6
CONTINUOUS
 62
       7
  5
3D0
 10
-54.12091866
 20
-0.30577731
 30
0.0
  0
VERTEX
  8
0
  6
CONTINUOUS
 62
       7
  5
3D1
 10
-54.14555912
 20
-0.08735042
 30
0.0
  0
VERTEX
  8
0
  6
CONTINUOUS
 62
       7
  5
3D2
 10
-54.1723319
 20
0.13079202
 30
0.0
  0
VERTEX
  8
0
  6
CONTINUOUS
 62
       7
  5
3D3
 10
-54.20119969
 20
0.34862415
 30
0.0
  0
VERTEX
  8
0
  6
CONTINUOUS
 62
       7
  5
3D4
 10
-54.23212518
 20
0.5661201
 30
0.0
  0
VERTEX
  8
0
  6
CONTINUOUS
 62
       7
  5
3D5
 10
-54.26507105
 20
0.78325401
 30
0.0
  0
VERTEX
  8
0
  6
CONTINUOUS
 62
       7
  5
3D6
 10
-54.3
 20
1.0
 30
0.0
  0
SEQEND
  8
0
  6
CONTINUOUS
 62
       7
  5
3D7
  0
POLYLINE
  8
0
  6
CONTINUOUS
 62
       7
  5
29
 66
       1
 10
0.0
 20
0.0
 30
0.0
  0
VERTEX
  8
0
  6
CONTINUOUS
 62
       7
  5
3D8
 10
38.28
 20
-6.0
 30
0.0
  0
VERTEX
  8
0
  6
CONTINUOUS
 62
       7
  5
3D9
 10
38.24530216
 20
-6.21674688
 30
0.0
  0
VERTEX
  8
0
  6
CONTINUOUS
 62
       7
  5
3DA
 10
38.21299587
 20
-6.4338815
 30
0.0
  0
VERTEX
  8
0
  6
CONTINUOUS
 62
       7
  5
3DB
 10
38.18306002
 20
-6.651378
 30
0.0
  0
VERTEX
  8
0
  6
CONTINUOUS
 62
       7
  5
3DC
 10
38.15547352
 20
-6.86921052
 30
0.0
  0
VERTEX
  8
0
  6
CONTINUOUS
 62
       7
  5
3DD
 10
38.13021524
 20
-7.08735322
 30
0.0
  0
VERTEX
  8
0
  6
CONTINUOUS
 62
       7
  5
3DE
 10
38.10726408
 20
-7.30578024
 30
0.0
  0
VERTEX
  8
0
  6
CONTINUOUS
 62
       7
  5
3DF
 10
38.08659893
 20
-7.52446572
 30
0.0
  0
VERTEX
  8
0
  6
CONTINUOUS
 62
       7
  5
3E0
 10
38.06819868
 20
-7.74338381
 30
0.0
  0
VERTEX
  8
0
  6
CONTINUOUS
 62
       7
  5
3E1
 10
38.05204223
 20
-7.96250866
 30
0.0
  0
VERTEX
  8
0
  6
CONTINUOUS
 62
       7
  5
3E2
 10
38.03810845
 20
-8.18181441
 30
0.0
  0
VERTEX
  8
0
  6
CONTINUOUS
 62
       7
  5
3E3
 10
38.02637625
 20
-8.4012752
 30
0.0
  0
VERTEX
  8
0
  6
CONTINUOUS
 62
       7
  5
3E4
 10
38.01682451
 20
-8.62086519
 30
0.0
  0
VERTEX
  8
0
  6
CONTINUOUS
 62
       7
  5
3E5
 10
38.00943212
 20
-8.84055852
 30
0.0
  0
VERTEX
  8
0
  6
CONTINUOUS
 62
       7
  5
3E6
 10
38.00417798
 20
-9.06032934
 30
0.0
  0
VERTEX
  8
0
  6
CONTINUOUS
 62
       7
  5
3E7
 10
38.00104098
 20
-9.28015178
 30
0.0
  0
VERTEX
  8
0
  6
CONTINUOUS
 62
       7
  5
3E8
 10
38.0
 20
-9.5
 30
0.0
  0
VERTEX
  8
0
  6
CONTINUOUS
 62
       7
  5
3E9
 10
38.00104098
 20
-9.71984822
 30
0.0
  0
VERTEX
  8
0
  6
CONTINUOUS
 62
       7
  5
3EA
 10
38.00417798
 20
-9.93967066
 30
0.0
  0
VERTEX
  8
0
  6
CONTINUOUS
 62
       7
  5
3EB
 10
38.00943212
 20
-10.15944148
 30
0.0
  0
VERTEX
  8
0
  6
CONTINUOUS
 62
       7
  5
3EC
 10
38.0168245
 20
-10.37913481
 30
0.0
  0
VERTEX
  8
0
  6
CONTINUOUS
 62
       7
  5
3ED
 10
38.02637624
 20
-10.5987248
 30
0.0
  0
VERTEX
  8
0
  6
CONTINUOUS
 62
       7
  5
3EE
 10
38.03810845
 20
-10.81818559
 30
0.0
  0
VERTEX
  8
0
  6
CONTINUOUS
 62
       7
  5
3EF
 10
38.05204222
 20
-11.03749134
 30
0.0
  0
VERTEX
  8
0
  6
CONTINUOUS
 62
       7
  5
3F0
 10
38.06819868
 20
-11.25661619
 30
0.0
  0
VERTEX
  8
0
  6
CONTINUOUS
 62
       7
  5
3F1
 10
38.08659893
 20
-11.47553428
 30
0.0
  0
VERTEX
  8
0
  6
CONTINUOUS
 62
       7
  5
3F2
 10
38.10726408
 20
-11.69421976
 30
0.0
  0
VERTEX
  8
0
  6
CONTINUOUS
 62
       7
  5
3F3
 10
38.13021524
 20
-11.91264678
 30
0.0
  0
VERTEX
  8
0
  6
CONTINUOUS
 62
       7
  5
3F4
 10
38.15547352
 20
-12.13078948
 30
0.0
  0
VERTEX
  8
0
  6
CONTINUOUS
 62
       7
  5
3F5
 10
38.18306002
 20
-12.348622
 30
0.0
  0
VERTEX
  8
0
  6
CONTINUOUS
 62
       7
  5
3F6
 10
38.21299587
 20
-12.5661185
 30
0.0
  0
VERTEX
  8
0
  6
CONTINUOUS
 62
       7
  5
3F7
 10
38.24530215
 20
-12.78325312
 30
0.0
  0
VERTEX
  8
0
  6
CONTINUOUS
 62
       7
  5
3F8
 10
38.28
 20
-13.0
 30
0.0
  0
SEQEND
  8
0
  6
CONTINUOUS
 62
       7
  5
3F9
  0
POLYLINE
  8
0
  6
CONTINUOUS
 62
       7
  5
2A
 66
       1
 10
0.0
 20
0.0
 30
0.0
  0
VERTEX
  8
0
  6
CONTINUOUS
 62
       7
  5
3FA
 10
-57.72
 20
1.0
 30
0.0
  0
VERTEX
  8
0
  6
CONTINUOUS
 62
       7
  5
3FB
 10
-57.75469783
 20
0.78325323
 30
0.0
  0
VERTEX
  8
0
  6
CONTINUOUS
 62
       7
  5
3FC
 10
-57.7870041
 20
0.56611871
 30
0.0
  0
VERTEX
  8
0
  6
CONTINUOUS
 62
       7
  5
3FD
 10
-57.81693993
 20
0.34862229
 30
0.0
  0
VERTEX
  8
0
  6
CONTINUOUS
 62
       7
  5
3FE
 10
-57.84452642
 20
0.13078983
 30
0.0
  0
VERTEX
  8
0
  6
CONTINUOUS
 62
       7
  5
3FF
 10
-57.86978469
 20
-0.08735281
 30
0.0
  0
VERTEX
  8
0
  6
CONTINUOUS
 62
       7
  5
400
 10
-57.89273585
 20
-0.30577979
 30
0.0
  0
VERTEX
  8
0
  6
CONTINUOUS
 62
       7
  5
401
 10
-57.91340099
 20
-0.52446525
 30
0.0
  0
VERTEX
  8
0
  6
CONTINUOUS
 62
       7
  5
402
 10
-57.93180124
 20
-0.74338334
 30
0.0
  0
VERTEX
  8
0
  6
CONTINUOUS
 62
       7
  5
403
 10
-57.9479577
 20
-0.96250819
 30
0.0
  0
VERTEX
  8
0
  6
CONTINUOUS
 62
       7
  5
404
 10
-57.96189148
 20
-1.18181396
 30
0.0
  0
VERTEX
  8
0
  6
CONTINUOUS
 62
       7
  5
405
 10
-57.97362369
 20
-1.4012748
 30
0.0
  0
VERTEX
  8
0
  6
CONTINUOUS
 62
       7
  5
406
 10
-57.98317543
 20
-1.62086484
 30
0.0
  0
VERTEX
  8
0
  6
CONTINUOUS
 62
       7
  5
407
 10
-57.99056783
 20
-1.84055823
 30
0.0
  0
VERTEX
  8
0
  6
CONTINUOUS
 62
       7
  5
408
 10
-57.99582198
 20
-2.06032913
 30
0.0
  0
VERTEX
  8
0
  6
CONTINUOUS
 62
       7
  5
409
 10
-57.998959
 20
-2.28015167
 30
0.0
  0
VERTEX
  8
0
  6
CONTINUOUS
 62
       7
  5
40A
 10
-58.0
 20
-2.5
 30
0.0
  0
VERTEX
  8
0
  6
CONTINUOUS
 62
       7
  5
40B
 10
-57.99895904
 20
-2.71984832
 30
0.0
  0
VERTEX
  8
0
  6
CONTINUOUS
 62
       7
  5
40C
 10
-57.99582205
 20
-2.93967082
 30
0.0
  0
VERTEX
  8
0
  6
CONTINUOUS
 62
       7
  5
40D
 10
-57.99056793
 20
-3.15944166
 30
0.0
  0
VERTEX
  8
0
  6
CONTINUOUS
 62
       7
  5
40E
 10
-57.98317556
 20
-3.37913499
 30
0.0
  0
VERTEX
  8
0
  6
CONTINUOUS
 62
       7
  5
40F
 10
-57.97362382
 20
-3.59872495
 30
0.0
  0
VERTEX
  8
0
  6
CONTINUOUS
 62
       7
  5
410
 10
-57.96189163
 20
-3.81818571
 30
0.0
  0
VERTEX
  8
0
  6
CONTINUOUS
 62
       7
  5
411
 10
-57.94795786
 20
-4.0374914
 30
0.0
  0
VERTEX
  8
0
  6
CONTINUOUS
 62
       7
  5
412
 10
-57.9318014
 20
-4.25661619
 30
0.0
  0
VERTEX
  8
0
  6
CONTINUOUS
 62
       7
  5
413
 10
-57.91340115
 20
-4.47553423
 30
0.0
  0
VERTEX
  8
0
  6
CONTINUOUS
 62
       7
  5
414
 10
-57.89273599
 20
-4.69421966
 30
0.0
  0
VERTEX
  8
0
  6
CONTINUOUS
 62
       7
  5
415
 10
-57.86978483
 20
-4.91264663
 30
0.0
  0
VERTEX
  8
0
  6
CONTINUOUS
 62
       7
  5
416
 10
-57.84452654
 20
-5.1307893
 30
0.0
  0
VERTEX
  8
0
  6
CONTINUOUS
 62
       7
  5
417
 10
-57.81694003
 20
-5.34862183
 30
0.0
  0
VERTEX
  8
0
  6
CONTINUOUS
 62
       7
  5
418
 10
-57.78700417
 20
-5.56611835
 30
0.0
  0
VERTEX
  8
0
  6
CONTINUOUS
 62
       7
  5
419
 10
-57.75469786
 20
-5.78325302
 30
0.0
  0
VERTEX
  8
0
  6
CONTINUOUS
 62
       7
  5
41A
 10
-57.72
 20
-6.0
 30
0.0
  0
SEQEND
  8
0
  6
CONTINUOUS
 62
       7
  5
41B
  0
POLYLINE
  8
0
  6
CONTINUOUS
 62
       7
  5
2B
 66
       1
 10
0.0
 20
0.0
 30
0.0
  0
VERTEX
  8
0
  6
CONTINUOUS
 62
       7
  5
41C
 10
-57.72
 20
-6.0
 30
0.0
  0
VERTEX
  8
0
  6
CONTINUOUS
 62
       7
  5
41D
 10
-57.75469784
 20
-6.21674688
 30
0.0
  0
VERTEX
  8
0
  6
CONTINUOUS
 62
       7
  5
41E
 10
-57.78700413
 20
-6.4338815
 30
0.0
  0
VERTEX
  8
0
  6
CONTINUOUS
 62
       7
  5
41F
 10
-57.81693998
 20
-6.651378
 30
0.0
  0
VERTEX
  8
0
  6
CONTINUOUS
 62
       7
  5
420
 10
-57.84452648
 20
-6.86921052
 30
0.0
  0
VERTEX
  8
0
  6
CONTINUOUS
 62
       7
  5
421
 10
-57.86978476
 20
-7.08735322
 30
0.0
  0
VERTEX
  8
0
  6
CONTINUOUS
 62
       7
  5
422
 10
-57.89273592
 20
-7.30578024
 30
0.0
  0
VERTEX
  8
0
  6
CONTINUOUS
 62
       7
  5
423
 10
-57.91340107
 20
-7.52446572
 30
0.0
  0
VERTEX
  8
0
  6
CONTINUOUS
 62
       7
  5
424
 10
-57.93180132
 20
-7.74338381
 30
0.0
  0
VERTEX
  8
0
  6
CONTINUOUS
 62
       7
  5
425
 10
-57.94795777
 20
-7.96250866
 30
0.0
  0
VERTEX
  8
0
  6
CONTINUOUS
 62
       7
  5
426
 10
-57.96189155
 20
-8.18181441
 30
0.0
  0
VERTEX
  8
0
  6
CONTINUOUS
 62
       7
  5
427
 10
-57.97362375
 20
-8.4012752
 30
0.0
  0
VERTEX
  8
0
  6
CONTINUOUS
 62
       7
  5
428
 10
-57.98317549
 20
-8.62086519
 30
0.0
  0
VERTEX
  8
0
  6
CONTINUOUS
 62
       7
  5
429
 10
-57.99056788
 20
-8.84055852
 30
0.0
  0
VERTEX
  8
0
  6
CONTINUOUS
 62
       7
  5
42A
 10
-57.99582202
 20
-9.06032934
 30
0.0
  0
VERTEX
  8
0
  6
CONTINUOUS
 62
       7
  5
42B
 10
-57.99895902
 20
-9.28015178
 30
0.0
  0
VERTEX
  8
0
  6
CONTINUOUS
 62
       7
  5
42C
 10
-58.0
 20
-9.5
 30
0.0
  0
VERTEX
  8
0
  6
CONTINUOUS
 62
       7
  5
42D
 10
-57.99895902
 20
-9.71984822
 30
0.0
  0
VERTEX
  8
0
  6
CONTINUOUS
 62
       7
  5
42E
 10
-57.99582202
 20
-9.93967066
 30
0.0
  0
VERTEX
  8
0
  6
CONTINUOUS
 62
       7
  5
42F
 10
-57.99056788
 20
-10.15944148
 30
0.0
  0
VERTEX
  8
0
  6
CONTINUOUS
 62
       7
  5
430
 10
-57.9831755
 20
-10.37913481
 30
0.0
  0
VERTEX
  8
0
  6
CONTINUOUS
 62
       7
  5
431
 10
-57.97362376
 20
-10.5987248
 30
0.0
  0
VERTEX
  8
0
  6
CONTINUOUS
 62
       7
  5
432
 10
-57.96189155
 20
-10.81818559
 30
0.0
  0
VERTEX
  8
0
  6
CONTINUOUS
 62
       7
  5
433
 10
-57.94795778
 20
-11.03749134
 30
0.0
  0
VERTEX
  8
0
  6
CONTINUOUS
 62
       7
  5
434
 10
-57.93180132
 20
-11.25661619
 30
0.0
  0
VERTEX
  8
0
  6
CONTINUOUS
 62
       7
  5
435
 10
-57.91340107
 20
-11.47553428
 30
0.0
  0
VERTEX
  8
0
  6
CONTINUOUS
 62
       7
  5
436
 10
-57.89273592
 20
-11.69421976
 30
0.0
  0
VERTEX
  8
0
  6
CONTINUOUS
 62
       7
  5
437
 10
-57.86978476
 20
-11.91264678
 30
0.0
  0
VERTEX
  8
0
  6
CONTINUOUS
 62
       7
  5
438
 10
-57.84452648
 20
-12.13078948
 30
0.0
  0
VERTEX
  8
0
  6
CONTINUOUS
 62
       7
  5
439
 10
-57.81693998
 20
-12.348622
 30
0.0
  0
VERTEX
  8
0
  6
CONTINUOUS
 62
       7
  5
43A
 10
-57.78700413
 20
-12.5661185
 30
0.0
  0
VERTEX
  8
0
  6
CONTINUOUS
 62
       7
  5
43B
 10
-57.75469785
 20
-12.78325312
 30
0.0
  0
VERTEX
  8
0
  6
CONTINUOUS
 62
       7
  5
43C
 10
-57.72
 20
-13.0
 30
0.0
  0
SEQEND
  8
0
  6
CONTINUOUS
 62
       7
  5
43D
  0
POLYLINE
  8
0
  6
CONTINUOUS
 62
       7
  5
2C
 66
       1
 10
0.0
 20
0.0
 30
0.0
  0
VERTEX
  8
0
  6
CONTINUOUS
 62
       7
  5
43E
 10
-54.3
 20
-126.84
 30
0.0
  0
VERTEX
  8
0
  6
CONTINUOUS
 62
       7
  5
43F
 10
-54.26499527
 20
-126.58909738
 30
0.0
  0
VERTEX
  8
0
  6
CONTINUOUS
 62
       7
  5
440
 10
-54.23199314
 20
-126.33776056
 30
0.0
  0
VERTEX
  8
0
  6
CONTINUOUS
 62
       7
  5
441
 10
-54.20102892
 20
-126.08603695
 30
0.0
  0
VERTEX
  8
0
  6
CONTINUOUS
 62
       7
  5
442
 10
-54.17213789
 20
-125.83397394
 30
0.0
  0
VERTEX
  8
0
  6
CONTINUOUS
 62
       7
  5
443
 10
-54.14535534
 20
-125.58161894
 30
0.0
  0
VERTEX
  8
0
  6
CONTINUOUS
 62
       7
  5
444
 10
-54.12071656
 20
-125.32901936
 30
0.0
  0
VERTEX
  8
0
  6
CONTINUOUS
 62
       7
  5
445
 10
-54.09825685
 20
-125.0762226
 30
0.0
  0
VERTEX
  8
0
  6
CONTINUOUS
 62
       7
  5
446
 10
-54.07801148
 20
-124.82327605
 30
0.0
  0
VERTEX
  8
0
  6
CONTINUOUS
 62
       7
  5
447
 10
-54.06001576
 20
-124.57022713
 30
0.0
  0
VERTEX
  8
0
  6
CONTINUOUS
 62
       7
  5
448
 10
-54.04430496
 20
-124.31712324
 30
0.0
  0
VERTEX
  8
0
  6
CONTINUOUS
 62
       7
  5
449
 10
-54.03091439
 20
-124.06401177
 30
0.0
  0
VERTEX
  8
0
  6
CONTINUOUS
 62
       7
  5
44A
 10
-54.01987933
 20
-123.81094014
 30
0.0
  0
VERTEX
  8
0
  6
CONTINUOUS
 62
       7
  5
44B
 10
-54.01123507
 20
-123.55795574
 30
0.0
  0
VERTEX
  8
0
  6
CONTINUOUS
 62
       7
  5
44C
 10
-54.0050169
 20
-123.30510598
 30
0.0
  0
VERTEX
  8
0
  6
CONTINUOUS
 62
       7
  5
44D
 10
-54.00126012
 20
-123.05243827
 30
0.0
  0
VERTEX
  8
0
  6
CONTINUOUS
 62
       7
  5
44E
 10
-54.0
 20
-122.8
 30
0.0
  0
VERTEX
  8
0
  6
CONTINUOUS
 62
       7
  5
44F
 10
-54.00126008
 20
-122.54624534
 30
0.0
  0
VERTEX
  8
0
  6
CONTINUOUS
 62
       7
  5
450
 10
-54.00501684
 20
-122.29213254
 30
0.0
  0
VERTEX
  8
0
  6
CONTINUOUS
 62
       7
  5
451
 10
-54.01123498
 20
-122.03773848
 30
0.0
  0
VERTEX
  8
0
  6
CONTINUOUS
 62
       7
  5
452
 10
-54.01987922
 20
-121.78314003
 30
0.0
  0
VERTEX
  8
0
  6
CONTINUOUS
 62
       7
  5
453
 10
-54.03091426
 20
-121.52841407
 30
0.0
  0
VERTEX
  8
0
  6
CONTINUOUS
 62
       7
  5
454
 10
-54.04430482
 20
-121.27363748
 30
0.0
  0
VERTEX
  8
0
  6
CONTINUOUS
 62
       7
  5
455
 10
-54.0600156
 20
-121.01888714
 30
0.0
  0
VERTEX
  8
0
  6
CONTINUOUS
 62
       7
  5
456
 10
-54.07801132
 20
-120.76423992
 30
0.0
  0
VERTEX
  8
0
  6
CONTINUOUS
 62
       7
  5
457
 10
-54.09825668
 20
-120.50977271
 30
0.0
  0
VERTEX
  8
0
  6
CONTINUOUS
 62
       7
  5
458
 10
-54.12071641
 20
-120.25556237
 30
0.0
  0
VERTEX
  8
0
  6
CONTINUOUS
 62
       7
  5
459
 10
-54.1453552
 20
-120.0016858
 30
0.0
  0
VERTEX
  8
0
  6
CONTINUOUS
 62
       7
  5
45A
 10
-54.17213776
 20
-119.74821986
 30
0.0
  0
VERTEX
  8
0
  6
CONTINUOUS
 62
       7
  5
45B
 10
-54.20102881
 20
-119.49524143
 30
0.0
  0
VERTEX
  8
0
  6
CONTINUOUS
 62
       7
  5
45C
 10
-54.23199306
 20
-119.24282739
 30
0.0
  0
VERTEX
  8
0
  6
CONTINUOUS
 62
       7
  5
45D
 10
-54.26499522
 20
-118.99105462
 30
0.0
  0
VERTEX
  8
0
  6
CONTINUOUS
 62
       7
  5
45E
 10
-54.3
 20
-118.74
 30
0.0
  0
SEQEND
  8
0
  6
CONTINUOUS
 62
       7
  5
45F
  0
POLYLINE
  8
0
  6
CONTINUOUS
 62
       7
  5
2D
 66
       1
 10
0.0
 20
0.0
 30
0.0
  0
VERTEX
  8
0
  6
CONTINUOUS
 62
       7
  5
460
 10
-57.72
 20
-126.84
 30
0.0
  0
VERTEX
  8
0
  6
CONTINUOUS
 62
       7
  5
461
 10
-57.75478014
 20
-126.58909733
 30
0.0
  0
VERTEX
  8
0
  6
CONTINUOUS
 62
       7
  5
462
 10
-57.7871475
 20
-126.33776039
 30
0.0
  0
VERTEX
  8
0
  6
CONTINUOUS
 62
       7
  5
463
 10
-57.8171254
 20
-126.0860366
 30
0.0
  0
VERTEX
  8
0
  6
CONTINUOUS
 62
       7
  5
464
 10
-57.84473714
 20
-125.83397337
 30
0.0
  0
VERTEX
  8
0
  6
CONTINUOUS
 62
       7
  5
465
 10
-57.87000602
 20
-125.58161813
 30
0.0
  0
VERTEX
  8
0
  6
CONTINUOUS
 62
       7
  5
466
 10
-57.89295534
 20
-125.3290183
 30
0.0
  0
VERTEX
  8
0
  6
CONTINUOUS
 62
       7
  5
467
 10
-57.91360842
 20
-125.0762213
 30
0.0
  0
VERTEX
  8
0
  6
CONTINUOUS
 62
       7
  5
468
 10
-57.93198855
 20
-124.82327454
 30
0.0
  0
VERTEX
  8
0
  6
CONTINUOUS
 62
       7
  5
469
 10
-57.94811903
 20
-124.57022546
 30
0.0
  0
VERTEX
  8
0
  6
CONTINUOUS
 62
       7
  5
46A
 10
-57.96202318
 20
-124.31712147
 30
0.0
  0
VERTEX
  8
0
  6
CONTINUOUS
 62
       7
  5
46B
 10
-57.97372429
 20
-124.06400999
 30
0.0
  0
VERTEX
  8
0
  6
CONTINUOUS
 62
       7
  5
46C
 10
-57.98324568
 20
-123.81093845
 30
0.0
  0
VERTEX
  8
0
  6
CONTINUOUS
 62
       7
  5
46D
 10
-57.99061064
 20
-123.55795425
 30
0.0
  0
VERTEX
  8
0
  6
CONTINUOUS
 62
       7
  5
46E
 10
-57.99584247
 20
-123.30510483
 30
0.0
  0
VERTEX
  8
0
  6
CONTINUOUS
 62
       7
  5
46F
 10
-57.99896449
 20
-123.05243761
 30
0.0
  0
VERTEX
  8
0
  6
CONTINUOUS
 62
       7
  5
470
 10
-58.0
 20
-122.8
 30
0.0
  0
VERTEX
  8
0
  6
CONTINUOUS
 62
       7
  5
471
 10
-57.99896453
 20
-122.54624524
 30
0.0
  0
VERTEX
  8
0
  6
CONTINUOUS
 62
       7
  5
472
 10
-57.99584253
 20
-122.29213236
 30
0.0
  0
VERTEX
  8
0
  6
CONTINUOUS
 62
       7
  5
473
 10
-57.99061072
 20
-122.03773825
 30
0.0
  0
VERTEX
  8
0
  6
CONTINUOUS
 62
       7
  5
474
 10
-57.98324578
 20
-121.78313978
 30
0.0
  0
VERTEX
  8
0
  6
CONTINUOUS
 62
       7
  5
475
 10
-57.97372441
 20
-121.52841382
 30
0.0
  0
VERTEX
  8
0
  6
CONTINUOUS
 62
       7
  5
476
 10
-57.9620233
 20
-121.27363724
 30
0.0
  0
VERTEX
  8
0
  6
CONTINUOUS
 62
       7
  5
477
 10
-57.94811916
 20
-121.01888693
 30
0.0
  0
VERTEX
  8
0
  6
CONTINUOUS
 62
       7
  5
478
 10
-57.93198868
 20
-120.76423975
 30
0.0
  0
VERTEX
  8
0
  6
CONTINUOUS
 62
       7
  5
479
 10
-57.91360855
 20
-120.50977257
 30
0.0
  0
VERTEX
  8
0
  6
CONTINUOUS
 62
       7
  5
47A
 10
-57.89295546
 20
-120.25556228
 30
0.0
  0
VERTEX
  8
0
  6
CONTINUOUS
 62
       7
  5
47B
 10
-57.87000613
 20
-120.00168574
 30
0.0
  0
VERTEX
  8
0
  6
CONTINUOUS
 62
       7
  5
47C
 10
-57.84473724
 20
-119.74821984
 30
0.0
  0
VERTEX
  8
0
  6
CONTINUOUS
 62
       7
  5
47D
 10
-57.81712548
 20
-119.49524144
 30
0.0
  0
VERTEX
  8
0
  6
CONTINUOUS
 62
       7
  5
47E
 10
-57.78714756
 20
-119.24282741
 30
0.0
  0
VERTEX
  8
0
  6
CONTINUOUS
 62
       7
  5
47F
 10
-57.75478017
 20
-118.99105464
 30
0.0
  0
VERTEX
  8
0
  6
CONTINUOUS
 62
       7
  5
480
 10
-57.72
 20
-118.74
 30
0.0
  0
SEQEND
  8
0
  6
CONTINUOUS
 62
       7
  5
481
  0
POLYLINE
  8
0
  6
CONTINUOUS
 62
       7
  5
2E
 66
       1
 10
0.0
 20
0.0
 30
0.0
  0
VERTEX
  8
0
  6
CONTINUOUS
 62
       7
  5
482
 10
-57.72
 20
-118.74
 30
0.0
  0
VERTEX
  8
0
  6
CONTINUOUS
 62
       7
  5
483
 10
-57.75409836
 20
-118.61703833
 30
0.0
  0
VERTEX
  8
0
  6
CONTINUOUS
 62
       7
  5
484
 10
-57.78595971
 20
-118.49344799
 30
0.0
  0
VERTEX
  8
0
  6
CONTINUOUS
 62
       7
  5
485
 10
-57.81558915
 20
-118.36926974
 30
0.0
  0
VERTEX
  8
0
  6
CONTINUOUS
 62
       7
  5
486
 10
-57.84299181
 20
-118.24454434
 30
0.0
  0
VERTEX
  8
0
  6
CONTINUOUS
 62
       7
  5
487
 10
-57.86817282
 20
-118.11931256
 30
0.0
  0
VERTEX
  8
0
  6
CONTINUOUS
 62
       7
  5
488
 10
-57.8911373
 20
-117.99361515
 30
0.0
  0
VERTEX
  8
0
  6
CONTINUOUS
 62
       7
  5
489
 10
-57.91189038
 20
-117.86749289
 30
0.0
  0
VERTEX
  8
0
  6
CONTINUOUS
 62
       7
  5
48A
 10
-57.93043717
 20
-117.74098654
 30
0.0
  0
VERTEX
  8
0
  6
CONTINUOUS
 62
       7
  5
48B
 10
-57.94678279
 20
-117.61413686
 30
0.0
  0
VERTEX
  8
0
  6
CONTINUOUS
 62
       7
  5
48C
 10
-57.96093238
 20
-117.48698461
 30
0.0
  0
VERTEX
  8
0
  6
CONTINUOUS
 62
       7
  5
48D
 10
-57.97289106
 20
-117.35957056
 30
0.0
  0
VERTEX
  8
0
  6
CONTINUOUS
 62
       7
  5
48E
 10
-57.98266394
 20
-117.23193547
 30
0.0
  0
VERTEX
  8
0
  6
CONTINUOUS
 62
       7
  5
48F
 10
-57.99025615
 20
-117.10412011
 30
0.0
  0
VERTEX
  8
0
  6
CONTINUOUS
 62
       7
  5
490
 10
-57.99567281
 20
-116.97616523
 30
0.0
  0
VERTEX
  8
0
  6
CONTINUOUS
 62
       7
  5
491
 10
-57.99891906
 20
-116.84811161
 30
0.0
  0
VERTEX
  8
0
  6
CONTINUOUS
 62
       7
  5
492
 10
-58.0
 20
-116.72
 30
0.0
  0
VERTEX
  8
0
  6
CONTINUOUS
 62
       7
  5
493
 10
-57.99891906
 20
-116.59188839
 30
0.0
  0
VERTEX
  8
0
  6
CONTINUOUS
 62
       7
  5
494
 10
-57.99567282
 20
-116.46383477
 30
0.0
  0
VERTEX
  8
0
  6
CONTINUOUS
 62
       7
  5
495
 10
-57.99025615
 20
-116.3358799
 30
0.0
  0
VERTEX
  8
0
  6
CONTINUOUS
 62
       7
  5
496
 10
-57.98266394
 20
-116.20806453
 30
0.0
  0
VERTEX
  8
0
  6
CONTINUOUS
 62
       7
  5
497
 10
-57.97289106
 20
-116.08042945
 30
0.0
  0
VERTEX
  8
0
  6
CONTINUOUS
 62
       7
  5
498
 10
-57.96093239
 20
-115.9530154
 30
0.0
  0
VERTEX
  8
0
  6
CONTINUOUS
 62
       7
  5
499
 10
-57.9467828
 20
-115.82586315
 30
0.0
  0
VERTEX
  8
0
  6
CONTINUOUS
 62
       7
  5
49A
 10
-57.93043718
 20
-115.69901347
 30
0.0
  0
VERTEX
  8
0
  6
CONTINUOUS
 62
       7
  5
49B
 10
-57.91189039
 20
-115.57250712
 30
0.0
  0
VERTEX
  8
0
  6
CONTINUOUS
 62
       7
  5
49C
 10
-57.89113732
 20
-115.44638486
 30
0.0
  0
VERTEX
  8
0
  6
CONTINUOUS
 62
       7
  5
49D
 10
-57.86817284
 20
-115.32068745
 30
0.0
  0
VERTEX
  8
0
  6
CONTINUOUS
 62
       7
  5
49E
 10
-57.84299182
 20
-115.19545567
 30
0.0
  0
VERTEX
  8
0
  6
CONTINUOUS
 62
       7
  5
49F
 10
-57.81558916
 20
-115.07073027
 30
0.0
  0
VERTEX
  8
0
  6
CONTINUOUS
 62
       7
  5
4A0
 10
-57.78595971
 20
-114.94655201
 30
0.0
  0
VERTEX
  8
0
  6
CONTINUOUS
 62
       7
  5
4A1
 10
-57.75409837
 20
-114.82296167
 30
0.0
  0
VERTEX
  8
0
  6
CONTINUOUS
 62
       7
  5
4A2
 10
-57.72
 20
-114.7
 30
0.0
  0
SEQEND
  8
0
  6
CONTINUOUS
 62
       7
  5
4A3
  0
POLYLINE
  8
0
  6
CONTINUOUS
 62
       7
  5
2F
 66
       1
 10
0.0
 20
0.0
 30
0.0
  0
VERTEX
  8
0
  6
CONTINUOUS
 62
       7
  5
4A4
 10
38.28
 20
-126.84
 30
0.0
  0
VERTEX
  8
0
  6
CONTINUOUS
 62
       7
  5
4A5
 10
38.24521986
 20
-126.58909728
 30
0.0
  0
VERTEX
  8
0
  6
CONTINUOUS
 62
       7
  5
4A6
 10
38.21285249
 20
-126.33776028
 30
0.0
  0
VERTEX
  8
0
  6
CONTINUOUS
 62
       7
  5
4A7
 10
38.18287459
 20
-126.08603643
 30
0.0
  0
VERTEX
  8
0
  6
CONTINUOUS
 62
       7
  5
4A8
 10
38.15526286
 20
-125.83397315
 30
0.0
  0
VERTEX
  8
0
  6
CONTINUOUS
 62
       7
  5
4A9
 10
38.12999398
 20
-125.58161786
 30
0.0
  0
VERTEX
  8
0
  6
CONTINUOUS
 62
       7
  5
4AA
 10
38.10704465
 20
-125.32901799
 30
0.0
  0
VERTEX
  8
0
  6
CONTINUOUS
 62
       7
  5
4AB
 10
38.08639158
 20
-125.07622096
 30
0.0
  0
VERTEX
  8
0
  6
CONTINUOUS
 62
       7
  5
4AC
 10
38.06801145
 20
-124.82327419
 30
0.0
  0
VERTEX
  8
0
  6
CONTINUOUS
 62
       7
  5
4AD
 10
38.05188096
 20
-124.57022509
 30
0.0
  0
VERTEX
  8
0
  6
CONTINUOUS
 62
       7
  5
4AE
 10
38.03797682
 20
-124.31712111
 30
0.0
  0
VERTEX
  8
0
  6
CONTINUOUS
 62
       7
  5
4AF
 10
38.0262757
 20
-124.06400964
 30
0.0
  0
VERTEX
  8
0
  6
CONTINUOUS
 62
       7
  5
4B0
 10
38.01675432
 20
-123.81093813
 30
0.0
  0
VERTEX
  8
0
  6
CONTINUOUS
 62
       7
  5
4B1
 10
38.00938936
 20
-123.55795399
 30
0.0
  0
VERTEX
  8
0
  6
CONTINUOUS
 62
       7
  5
4B2
 10
38.00415752
 20
-123.30510464
 30
0.0
  0
VERTEX
  8
0
  6
CONTINUOUS
 62
       7
  5
4B3
 10
38.00103551
 20
-123.0524375
 30
0.0
  0
VERTEX
  8
0
  6
CONTINUOUS
 62
       7
  5
4B4
 10
38.0
 20
-122.8
 30
0.0
  0
VERTEX
  8
0
  6
CONTINUOUS
 62
       7
  5
4B5
 10
38.00103547
 20
-122.54624535
 30
0.0
  0
VERTEX
  8
0
  6
CONTINUOUS
 62
       7
  5
4B6
 10
38.00415747
 20
-122.29213256
 30
0.0
  0
VERTEX
  8
0
  6
CONTINUOUS
 62
       7
  5
4B7
 10
38.00938928
 20
-122.03773852
 30
0.0
  0
VERTEX
  8
0
  6
CONTINUOUS
 62
       7
  5
4B8
 10
38.01675422
 20
-121.7831401
 30
0.0
  0
VERTEX
  8
0
  6
CONTINUOUS
 62
       7
  5
4B9
 10
38.02627559
 20
-121.52841417
 30
0.0
  0
VERTEX
  8
0
  6
CONTINUOUS
 62
       7
  5
4BA
 10
38.03797669
 20
-121.27363761
 30
0.0
  0
VERTEX
  8
0
  6
CONTINUOUS
 62
       7
  5
4BB
 10
38.05188084
 20
-121.0188873
 30
0.0
  0
VERTEX
  8
0
  6
CONTINUOUS
 62
       7
  5
4BC
 10
38.06801132
 20
-120.76424011
 30
0.0
  0
VERTEX
  8
0
  6
CONTINUOUS
 62
       7
  5
4BD
 10
38.08639145
 20
-120.50977291
 30
0.0
  0
VERTEX
  8
0
  6
CONTINUOUS
 62
       7
  5
4BE
 10
38.10704453
 20
-120.25556259
 30
0.0
  0
VERTEX
  8
0
  6
CONTINUOUS
 62
       7
  5
4BF
 10
38.12999387
 20
-120.00168601
 30
0.0
  0
VERTEX
  8
0
  6
CONTINUOUS
 62
       7
  5
4C0
 10
38.15526276
 20
-119.74822006
 30
0.0
  0
VERTEX
  8
0
  6
CONTINUOUS
 62
       7
  5
4C1
 10
38.18287452
 20
-119.49524161
 30
0.0
  0
VERTEX
  8
0
  6
CONTINUOUS
 62
       7
  5
4C2
 10
38.21285244
 20
-119.24282753
 30
0.0
  0
VERTEX
  8
0
  6
CONTINUOUS
 62
       7
  5
4C3
 10
38.24521983
 20
-118.9910547
 30
0.0
  0
VERTEX
  8
0
  6
CONTINUOUS
 62
       7
  5
4C4
 10
38.28
 20
-118.74
 30
0.0
  0
SEQEND
  8
0
  6
CONTINUOUS
 62
       7
  5
4C5
  0
POLYLINE
  8
0
  6
CONTINUOUS
 62
       7
  5
30
 66
       1
 10
0.0
 20
0.0
 30
0.0
  0
VERTEX
  8
0
  6
CONTINUOUS
 62
       7
  5
4C6
 10
38.28
 20
-130.88
 30
0.0
  0
VERTEX
  8
0
  6
CONTINUOUS
 62
       7
  5
4C7
 10
38.24590167
 20
-130.75703829
 30
0.0
  0
VERTEX
  8
0
  6
CONTINUOUS
 62
       7
  5
4C8
 10
38.21404035
 20
-130.6334478
 30
0.0
  0
VERTEX
  8
0
  6
CONTINUOUS
 62
       7
  5
4C9
 10
38.18441093
 20
-130.50926932
 30
0.0
  0
VERTEX
  8
0
  6
CONTINUOUS
 62
       7
  5
4CA
 10
38.15700829
 20
-130.38454364
 30
0.0
  0
VERTEX
  8
0
  6
CONTINUOUS
 62
       7
  5
4CB
 10
38.13182729
 20
-130.25931155
 30
0.0
  0
VERTEX
  8
0
  6
CONTINUOUS
 62
       7
  5
4CC
 10
38.10886282
 20
-130.13361382
 30
0.0
  0
VERTEX
  8
0
  6
CONTINUOUS
 62
       7
  5
4CD
 10
38.08810976
 20
-130.00749125
 30
0.0
  0
VERTEX
  8
0
  6
CONTINUOUS
 62
       7
  5
4CE
 10
38.06956297
 20
-129.88098463
 30
0.0
  0
VERTEX
  8
0
  6
CONTINUOUS
 62
       7
  5
4CF
 10
38.05321734
 20
-129.75413474
 30
0.0
  0
VERTEX
  8
0
  6
CONTINUOUS
 62
       7
  5
4D0
 10
38.03906775
 20
-129.62698236
 30
0.0
  0
VERTEX
  8
0
  6
CONTINUOUS
 62
       7
  5
4D1
 10
38.02710906
 20
-129.49956829
 30
0.0
  0
VERTEX
  8
0
  6
CONTINUOUS
 62
       7
  5
4D2
 10
38.01733617
 20
-129.3719333
 30
0.0
  0
VERTEX
  8
0
  6
CONTINUOUS
 62
       7
  5
4D3
 10
38.00974393
 20
-129.2441182
 30
0.0
  0
VERTEX
  8
0
  6
CONTINUOUS
 62
       7
  5
4D4
 10
38.00432725
 20
-129.11616375
 30
0.0
  0
VERTEX
  8
0
  6
CONTINUOUS
 62
       7
  5
4D5
 10
38.00108097
 20
-128.98811076
 30
0.0
  0
VERTEX
  8
0
  6
CONTINUOUS
 62
       7
  5
4D6
 10
38.0
 20
-128.86
 30
0.0
  0
VERTEX
  8
0
  6
CONTINUOUS
 62
       7
  5
4D7
 10
38.00108091
 20
-128.73188926
 30
0.0
  0
VERTEX
  8
0
  6
CONTINUOUS
 62
       7
  5
4D8
 10
38.00432713
 20
-128.6038363
 30
0.0
  0
VERTEX
  8
0
  6
CONTINUOUS
 62
       7
  5
4D9
 10
38.00974377
 20
-128.47588191
 30
0.0
  0
VERTEX
  8
0
  6
CONTINUOUS
 62
       7
  5
4DA
 10
38.01733596
 20
-128.34806686
 30
0.0
  0
VERTEX
  8
0
  6
CONTINUOUS
 62
       7
  5
4DB
 10
38.02710883
 20
-128.22043195
 30
0.0
  0
VERTEX
  8
0
  6
CONTINUOUS
 62
       7
  5
4DC
 10
38.0390675
 20
-128.09301795
 30
0.0
  0
VERTEX
  8
0
  6
CONTINUOUS
 62
       7
  5
4DD
 10
38.05321708
 20
-127.96586564
 30
0.0
  0
VERTEX
  8
0
  6
CONTINUOUS
 62
       7
  5
4DE
 10
38.06956271
 20
-127.83901581
 30
0.0
  0
VERTEX
  8
0
  6
CONTINUOUS
 62
       7
  5
4DF
 10
38.0881095
 20
-127.71250923
 30
0.0
  0
VERTEX
  8
0
  6
CONTINUOUS
 62
       7
  5
4E0
 10
38.10886258
 20
-127.58638669
 30
0.0
  0
VERTEX
  8
0
  6
CONTINUOUS
 62
       7
  5
4E1
 10
38.13182707
 20
-127.46068897
 30
0.0
  0
VERTEX
  8
0
  6
CONTINUOUS
 62
       7
  5
4E2
 10
38.1570081
 20
-127.33545685
 30
0.0
  0
VERTEX
  8
0
  6
CONTINUOUS
 62
       7
  5
4E3
 10
38.18441078
 20
-127.21073111
 30
0.0
  0
VERTEX
  8
0
  6
CONTINUOUS
 62
       7
  5
4E4
 10
38.21404024
 20
-127.08655254
 30
0.0
  0
VERTEX
  8
0
  6
CONTINUOUS
 62
       7
  5
4E5
 10
38.24590161
 20
-126.96296191
 30
0.0
  0
VERTEX
  8
0
  6
CONTINUOUS
 62
       7
  5
4E6
 10
38.28
 20
-126.84
 30
0.0
  0
SEQEND
  8
0
  6
CONTINUOUS
 62
       7
  5
4E7
  0
POLYLINE
  8
0
  6
CONTINUOUS
 62
       7
  5
31
 66
       1
 10
0.0
 20
0.0
 30
0.0
  0
VERTEX
  8
0
  6
CONTINUOUS
 62
       7
  5
4E8
 10
38.28
 20
-118.74
 30
0.0
  0
VERTEX
  8
0
  6
CONTINUOUS
 62
       7
  5
4E9
 10
38.24590164
 20
-118.61703834
 30
0.0
  0
VERTEX
  8
0
  6
CONTINUOUS
 62
       7
  5
4EA
 10
38.2140403
 20
-118.49344799
 30
0.0
  0
VERTEX
  8
0
  6
CONTINUOUS
 62
       7
  5
4EB
 10
38.18441086
 20
-118.36926971
 30
0.0
  0
VERTEX
  8
0
  6
CONTINUOUS
 62
       7
  5
4EC
 10
38.1570082
 20
-118.24454428
 30
0.0
  0
VERTEX
  8
0
  6
CONTINUOUS
 62
       7
  5
4ED
 10
38.13182719
 20
-118.11931246
 30
0.0
  0
VERTEX
  8
0
  6
CONTINUOUS
 62
       7
  5
4EE
 10
38.10886271
 20
-117.99361501
 30
0.0
  0
VERTEX
  8
0
  6
CONTINUOUS
 62
       7
  5
4EF
 10
38.08810963
 20
-117.86749271
 30
0.0
  0
VERTEX
  8
0
  6
CONTINUOUS
 62
       7
  5
4F0
 10
38.06956284
 20
-117.74098632
 30
0.0
  0
VERTEX
  8
0
  6
CONTINUOUS
 62
       7
  5
4F1
 10
38.05321722
 20
-117.61413661
 30
0.0
  0
VERTEX
  8
0
  6
CONTINUOUS
 62
       7
  5
4F2
 10
38.03906762
 20
-117.48698434
 30
0.0
  0
VERTEX
  8
0
  6
CONTINUOUS
 62
       7
  5
4F3
 10
38.02710895
 20
-117.35957028
 30
0.0
  0
VERTEX
  8
0
  6
CONTINUOUS
 62
       7
  5
4F4
 10
38.01733607
 20
-117.2319352
 30
0.0
  0
VERTEX
  8
0
  6
CONTINUOUS
 62
       7
  5
4F5
 10
38.00974385
 20
-117.10411987
 30
0.0
  0
VERTEX
  8
0
  6
CONTINUOUS
 62
       7
  5
4F6
 10
38.00432719
 20
-116.97616504
 30
0.0
  0
VERTEX
  8
0
  6
CONTINUOUS
 62
       7
  5
4F7
 10
38.00108094
 20
-116.8481115
 30
0.0
  0
VERTEX
  8
0
  6
CONTINUOUS
 62
       7
  5
4F8
 10
38.0
 20
-116.72
 30
0.0
  0
VERTEX
  8
0
  6
CONTINUOUS
 62
       7
  5
4F9
 10
38.00108094
 20
-116.5918885
 30
0.0
  0
VERTEX
  8
0
  6
CONTINUOUS
 62
       7
  5
4FA
 10
38.00432718
 20
-116.46383496
 30
0.0
  0
VERTEX
  8
0
  6
CONTINUOUS
 62
       7
  5
4FB
 10
38.00974385
 20
-116.33588014
 30
0.0
  0
VERTEX
  8
0
  6
CONTINUOUS
 62
       7
  5
4FC
 10
38.01733606
 20
-116.20806481
 30
0.0
  0
VERTEX
  8
0
  6
CONTINUOUS
 62
       7
  5
4FD
 10
38.02710894
 20
-116.08042973
 30
0.0
  0
VERTEX
  8
0
  6
CONTINUOUS
 62
       7
  5
4FE
 10
38.03906762
 20
-115.95301568
 30
0.0
  0
VERTEX
  8
0
  6
CONTINUOUS
 62
       7
  5
4FF
 10
38.05321721
 20
-115.82586341
 30
0.0
  0
VERTEX
  8
0
  6
CONTINUOUS
 62
       7
  5
500
 10
38.06956283
 20
-115.6990137
 30
0.0
  0
VERTEX
  8
0
  6
CONTINUOUS
 62
       7
  5
501
 10
38.08810962
 20
-115.57250731
 30
0.0
  0
VERTEX
  8
0
  6
CONTINUOUS
 62
       7
  5
502
 10
38.1088627
 20
-115.44638501
 30
0.0
  0
VERTEX
  8
0
  6
CONTINUOUS
 62
       7
  5
503
 10
38.13182718
 20
-115.32068757
 30
0.0
  0
VERTEX
  8
0
  6
CONTINUOUS
 62
       7
  5
504
 10
38.15700819
 20
-115.19545575
 30
0.0
  0
VERTEX
  8
0
  6
CONTINUOUS
 62
       7
  5
505
 10
38.18441085
 20
-115.07073031
 30
0.0
  0
VERTEX
  8
0
  6
CONTINUOUS
 62
       7
  5
506
 10
38.21404029
 20
-114.94655203
 30
0.0
  0
VERTEX
  8
0
  6
CONTINUOUS
 62
       7
  5
507
 10
38.24590164
 20
-114.82296167
 30
0.0
  0
VERTEX
  8
0
  6
CONTINUOUS
 62
       7
  5
508
 10
38.28
 20
-114.7
 30
0.0
  0
SEQEND
  8
0
  6
CONTINUOUS
 62
       7
  5
509
  0
POLYLINE
  8
0
  6
CONTINUOUS
 62
       7
  5
32
 66
       1
 10
0.0
 20
0.0
 30
0.0
  0
VERTEX
  8
0
  6
CONTINUOUS
 62
       7
  5
50A
 10
-57.72
 20
-130.88
 30
0.0
  0
VERTEX
  8
0
  6
CONTINUOUS
 62
       7
  5
50B
 10
-57.75409834
 20
-130.75703828
 30
0.0
  0
VERTEX
  8
0
  6
CONTINUOUS
 62
       7
  5
50C
 10
-57.78595966
 20
-130.63344778
 30
0.0
  0
VERTEX
  8
0
  6
CONTINUOUS
 62
       7
  5
50D
 10
-57.81558908
 20
-130.50926929
 30
0.0
  0
VERTEX
  8
0
  6
CONTINUOUS
 62
       7
  5
50E
 10
-57.84299172
 20
-130.38454361
 30
0.0
  0
VERTEX
  8
0
  6
CONTINUOUS
 62
       7
  5
50F
 10
-57.86817272
 20
-130.25931152
 30
0.0
  0
VERTEX
  8
0
  6
CONTINUOUS
 62
       7
  5
510
 10
-57.89113719
 20
-130.13361379
 30
0.0
  0
VERTEX
  8
0
  6
CONTINUOUS
 62
       7
  5
511
 10
-57.91189026
 20
-130.00749123
 30
0.0
  0
VERTEX
  8
0
  6
CONTINUOUS
 62
       7
  5
512
 10
-57.93043704
 20
-129.88098461
 30
0.0
  0
VERTEX
  8
0
  6
CONTINUOUS
 62
       7
  5
513
 10
-57.94678267
 20
-129.75413472
 30
0.0
  0
VERTEX
  8
0
  6
CONTINUOUS
 62
       7
  5
514
 10
-57.96093226
 20
-129.62698234
 30
0.0
  0
VERTEX
  8
0
  6
CONTINUOUS
 62
       7
  5
515
 10
-57.97289094
 20
-129.49956828
 30
0.0
  0
VERTEX
  8
0
  6
CONTINUOUS
 62
       7
  5
516
 10
-57.98266384
 20
-129.3719333
 30
0.0
  0
VERTEX
  8
0
  6
CONTINUOUS
 62
       7
  5
517
 10
-57.99025607
 20
-129.24411819
 30
0.0
  0
VERTEX
  8
0
  6
CONTINUOUS
 62
       7
  5
518
 10
-57.99567276
 20
-129.11616375
 30
0.0
  0
VERTEX
  8
0
  6
CONTINUOUS
 62
       7
  5
519
 10
-57.99891903
 20
-128.98811076
 30
0.0
  0
VERTEX
  8
0
  6
CONTINUOUS
 62
       7
  5
51A
 10
-58.0
 20
-128.86
 30
0.0
  0
VERTEX
  8
0
  6
CONTINUOUS
 62
       7
  5
51B
 10
-57.99891909
 20
-128.73188925
 30
0.0
  0
VERTEX
  8
0
  6
CONTINUOUS
 62
       7
  5
51C
 10
-57.99567288
 20
-128.6038363
 30
0.0
  0
VERTEX
  8
0
  6
CONTINUOUS
 62
       7
  5
51D
 10
-57.99025623
 20
-128.47588191
 30
0.0
  0
VERTEX
  8
0
  6
CONTINUOUS
 62
       7
  5
51E
 10
-57.98266404
 20
-128.34806687
 30
0.0
  0
VERTEX
  8
0
  6
CONTINUOUS
 62
       7
  5
51F
 10
-57.97289117
 20
-128.22043196
 30
0.0
  0
VERTEX
  8
0
  6
CONTINUOUS
 62
       7
  5
520
 10
-57.96093251
 20
-128.09301797
 30
0.0
  0
VERTEX
  8
0
  6
CONTINUOUS
 62
       7
  5
521
 10
-57.94678293
 20
-127.96586566
 30
0.0
  0
VERTEX
  8
0
  6
CONTINUOUS
 62
       7
  5
522
 10
-57.9304373
 20
-127.83901584
 30
0.0
  0
VERTEX
  8
0
  6
CONTINUOUS
 62
       7
  5
523
 10
-57.91189051
 20
-127.71250926
 30
0.0
  0
VERTEX
  8
0
  6
CONTINUOUS
 62
       7
  5
524
 10
-57.89113743
 20
-127.58638673
 30
0.0
  0
VERTEX
  8
0
  6
CONTINUOUS
 62
       7
  5
525
 10
-57.86817294
 20
-127.46068901
 30
0.0
  0
VERTEX
  8
0
  6
CONTINUOUS
 62
       7
  5
526
 10
-57.84299191
 20
-127.33545688
 30
0.0
  0
VERTEX
  8
0
  6
CONTINUOUS
 62
       7
  5
527
 10
-57.81558923
 20
-127.21073114
 30
0.0
  0
VERTEX
  8
0
  6
CONTINUOUS
 62
       7
  5
528
 10
-57.78595976
 20
-127.08655256
 30
0.0
  0
VERTEX
  8
0
  6
CONTINUOUS
 62
       7
  5
529
 10
-57.7540984
 20
-126.96296192
 30
0.0
  0
VERTEX
  8
0
  6
CONTINUOUS
 62
       7
  5
52A
 10
-57.72
 20
-126.84
 30
0.0
  0
SEQEND
  8
0
  6
CONTINUOUS
 62
       7
  5
52B
  0
POLYLINE
  8
0
  6
CONTINUOUS
 62
       7
  5
33
 66
       1
 10
0.0
 20
0.0
 30
0.0
  0
VERTEX
  8
0
  6
CONTINUOUS
 62
       7
  5
52C
 10
-54.3
 20
-130.88
 30
0.0
  0
VERTEX
  8
0
  6
CONTINUOUS
 62
       7
  5
52D
 10
-54.26567706
 20
-130.7570383
 30
0.0
  0
VERTEX
  8
0
  6
CONTINUOUS
 62
       7
  5
52E
 10
-54.23318099
 20
-130.63344782
 30
0.0
  0
VERTEX
  8
0
  6
CONTINUOUS
 62
       7
  5
52F
 10
-54.20256524
 20
-130.50926935
 30
0.0
  0
VERTEX
  8
0
  6
CONTINUOUS
 62
       7
  5
530
 10
-54.1738833
 20
-130.38454368
 30
0.0
  0
VERTEX
  8
0
  6
CONTINUOUS
 62
       7
  5
531
 10
-54.14718863
 20
-130.25931158
 30
0.0
  0
VERTEX
  8
0
  6
CONTINUOUS
 62
       7
  5
532
 10
-54.12253471
 20
-130.13361385
 30
0.0
  0
VERTEX
  8
0
  6
CONTINUOUS
 62
       7
  5
533
 10
-54.099975
 20
-130.00749128
 30
0.0
  0
VERTEX
  8
0
  6
CONTINUOUS
 62
       7
  5
534
 10
-54.07956298
 20
-129.88098466
 30
0.0
  0
VERTEX
  8
0
  6
CONTINUOUS
 62
       7
  5
535
 10
-54.06135211
 20
-129.75413476
 30
0.0
  0
VERTEX
  8
0
  6
CONTINUOUS
 62
       7
  5
536
 10
-54.04539588
 20
-129.62698238
 30
0.0
  0
VERTEX
  8
0
  6
CONTINUOUS
 62
       7
  5
537
 10
-54.03174774
 20
-129.4995683
 30
0.0
  0
VERTEX
  8
0
  6
CONTINUOUS
 62
       7
  5
538
 10
-54.02046117
 20
-129.37193331
 30
0.0
  0
VERTEX
  8
0
  6
CONTINUOUS
 62
       7
  5
539
 10
-54.01158964
 20
-129.2441182
 30
0.0
  0
VERTEX
  8
0
  6
CONTINUOUS
 62
       7
  5
53A
 10
-54.00518662
 20
-129.11616375
 30
0.0
  0
VERTEX
  8
0
  6
CONTINUOUS
 62
       7
  5
53B
 10
-54.00130558
 20
-128.98811076
 30
0.0
  0
VERTEX
  8
0
  6
CONTINUOUS
 62
       7
  5
53C
 10
-54.0
 20
-128.86
 30
0.0
  0
VERTEX
  8
0
  6
CONTINUOUS
 62
       7
  5
53D
 10
-54.00130552
 20
-128.73188926
 30
0.0
  0
VERTEX
  8
0
  6
CONTINUOUS
 62
       7
  5
53E
 10
-54.0051865
 20
-128.6038363
 30
0.0
  0
VERTEX
  8
0
  6
CONTINUOUS
 62
       7
  5
53F
 10
-54.01158947
 20
-128.4758819
 30
0.0
  0
VERTEX
  8
0
  6
CONTINUOUS
 62
       7
  5
540
 10
-54.02046097
 20
-128.34806686
 30
0.0
  0
VERTEX
  8
0
  6
CONTINUOUS
 62
       7
  5
541
 10
-54.03174751
 20
-128.22043194
 30
0.0
  0
VERTEX
  8
0
  6
CONTINUOUS
 62
       7
  5
542
 10
-54.04539563
 20
-128.09301793
 30
0.0
  0
VERTEX
  8
0
  6
CONTINUOUS
 62
       7
  5
543
 10
-54.06135186
 20
-127.96586562
 30
0.0
  0
VERTEX
  8
0
  6
CONTINUOUS
 62
       7
  5
544
 10
-54.07956272
 20
-127.83901578
 30
0.0
  0
VERTEX
  8
0
  6
CONTINUOUS
 62
       7
  5
545
 10
-54.09997475
 20
-127.7125092
 30
0.0
  0
VERTEX
  8
0
  6
CONTINUOUS
 62
       7
  5
546
 10
-54.12253447
 20
-127.58638666
 30
0.0
  0
VERTEX
  8
0
  6
CONTINUOUS
 62
       7
  5
547
 10
-54.14718841
 20
-127.46068894
 30
0.0
  0
VERTEX
  8
0
  6
CONTINUOUS
 62
       7
  5
548
 10
-54.17388311
 20
-127.33545682
 30
0.0
  0
VERTEX
  8
0
  6
CONTINUOUS
 62
       7
  5
549
 10
-54.20256509
 20
-127.21073109
 30
0.0
  0
VERTEX
  8
0
  6
CONTINUOUS
 62
       7
  5
54A
 10
-54.23318088
 20
-127.08655252
 30
0.0
  0
VERTEX
  8
0
  6
CONTINUOUS
 62
       7
  5
54B
 10
-54.265677
 20
-126.96296189
 30
0.0
  0
VERTEX
  8
0
  6
CONTINUOUS
 62
       7
  5
54C
 10
-54.3
 20
-126.84
 30
0.0
  0
SEQEND
  8
0
  6
CONTINUOUS
 62
       7
  5
54D
  0
POLYLINE
  8
0
  6
CONTINUOUS
 62
       7
  5
34
 66
       1
 10
0.0
 20
0.0
 30
0.0
  0
VERTEX
  8
0
  6
CONTINUOUS
 62
       7
  5
54E
 10
-54.3
 20
-118.74
 30
0.0
  0
VERTEX
  8
0
  6
CONTINUOUS
 62
       7
  5
54F
 10
-54.26567685
 20
-118.61703841
 30
0.0
  0
VERTEX
  8
0
  6
CONTINUOUS
 62
       7
  5
550
 10
-54.23318058
 20
-118.49344813
 30
0.0
  0
VERTEX
  8
0
  6
CONTINUOUS
 62
       7
  5
551
 10
-54.20256467
 20
-118.36926992
 30
0.0
  0
VERTEX
  8
0
  6
CONTINUOUS
 62
       7
  5
552
 10
-54.17388259
 20
-118.24454454
 30
0.0
  0
VERTEX
  8
0
  6
CONTINUOUS
 62
       7
  5
553
 10
-54.14718781
 20
-118.11931276
 30
0.0
  0
VERTEX
  8
0
  6
CONTINUOUS
 62
       7
  5
554
 10
-54.1225338
 20
-117.99361536
 30
0.0
  0
VERTEX
  8
0
  6
CONTINUOUS
 62
       7
  5
555
 10
-54.09997404
 20
-117.86749308
 30
0.0
  0
VERTEX
  8
0
  6
CONTINUOUS
 62
       7
  5
556
 10
-54.07956199
 20
-117.74098671
 30
0.0
  0
VERTEX
  8
0
  6
CONTINUOUS
 62
       7
  5
557
 10
-54.06135114
 20
-117.614137
 30
0.0
  0
VERTEX
  8
0
  6
CONTINUOUS
 62
       7
  5
558
 10
-54.04539494
 20
-117.48698472
 30
0.0
  0
VERTEX
  8
0
  6
CONTINUOUS
 62
       7
  5
559
 10
-54.03174687
 20
-117.35957064
 30
0.0
  0
VERTEX
  8
0
  6
CONTINUOUS
 62
       7
  5
55A
 10
-54.0204604
 20
-117.23193552
 30
0.0
  0
VERTEX
  8
0
  6
CONTINUOUS
 62
       7
  5
55B
 10
-54.01158901
 20
-117.10412014
 30
0.0
  0
VERTEX
  8
0
  6
CONTINUOUS
 62
       7
  5
55C
 10
-54.00518616
 20
-116.97616524
 30
0.0
  0
VERTEX
  8
0
  6
CONTINUOUS
 62
       7
  5
55D
 10
-54.00130534
 20
-116.84811161
 30
0.0
  0
VERTEX
  8
0
  6
CONTINUOUS
 62
       7
  5
55E
 10
-54.0
 20
-116.72
 30
0.0
  0
VERTEX
  8
0
  6
CONTINUOUS
 62
       7
  5
55F
 10
-54.00130572
 20
-116.59188839
 30
0.0
  0
VERTEX
  8
0
  6
CONTINUOUS
 62
       7
  5
560
 10
-54.00518677
 20
-116.46383474
 30
0.0
  0
VERTEX
  8
0
  6
CONTINUOUS
 62
       7
  5
561
 10
-54.01158971
 20
-116.33587983
 30
0.0
  0
VERTEX
  8
0
  6
CONTINUOUS
 62
       7
  5
562
 10
-54.02046108
 20
-116.20806442
 30
0.0
  0
VERTEX
  8
0
  6
CONTINUOUS
 62
       7
  5
563
 10
-54.03174745
 20
-116.08042928
 30
0.0
  0
VERTEX
  8
0
  6
CONTINUOUS
 62
       7
  5
564
 10
-54.04539535
 20
-115.95301518
 30
0.0
  0
VERTEX
  8
0
  6
CONTINUOUS
 62
       7
  5
565
 10
-54.06135134
 20
-115.82586288
 30
0.0
  0
VERTEX
  8
0
  6
CONTINUOUS
 62
       7
  5
566
 10
-54.07956196
 20
-115.69901315
 30
0.0
  0
VERTEX
  8
0
  6
CONTINUOUS
 62
       7
  5
567
 10
-54.09997378
 20
-115.57250676
 30
0.0
  0
VERTEX
  8
0
  6
CONTINUOUS
 62
       7
  5
568
 10
-54.12253333
 20
-115.44638448
 30
0.0
  0
VERTEX
  8
0
  6
CONTINUOUS
 62
       7
  5
569
 10
-54.14718718
 20
-115.32068707
 30
0.0
  0
VERTEX
  8
0
  6
CONTINUOUS
 62
       7
  5
56A
 10
-54.17388186
 20
-115.1954553
 30
0.0
  0
VERTEX
  8
0
  6
CONTINUOUS
 62
       7
  5
56B
 10
-54.20256394
 20
-115.07072994
 30
0.0
  0
VERTEX
  8
0
  6
CONTINUOUS
 62
       7
  5
56C
 10
-54.23317995
 20
-114.94655176
 30
0.0
  0
VERTEX
  8
0
  6
CONTINUOUS
 62
       7
  5
56D
 10
-54.26567645
 20
-114.82296152
 30
0.0
  0
VERTEX
  8
0
  6
CONTINUOUS
 62
       7
  5
56E
 10
-54.3
 20
-114.7
 30
0.0
  0
SEQEND
  8
0
  6
CONTINUOUS
 62
       7
  5
56F
  0
POLYLINE
  8
0
  6
CONTINUOUS
 62
       7
  5
35
 66
       1
 10
0.0
 20
0.0
 30
0.0
  0
VERTEX
  8
0
  6
CONTINUOUS
 62
       7
  5
570
 10
192.6
 20
178.0
 30
0.0
  0
VERTEX
  8
0
  6
CONTINUOUS
 62
       7
  5
571
 10
192.58940398
 20
177.95828604
 30
0.0
  0
VERTEX
  8
0
  6
CONTINUOUS
 62
       7
  5
572
 10
192.5771807
 20
177.91620076
 30
0.0
  0
VERTEX
  8
0
  6
CONTINUOUS
 62
       7
  5
573
 10
192.56333875
 20
177.87397984
 30
0.0
  0
VERTEX
  8
0
  6
CONTINUOUS
 62
       7
  5
574
 10
192.54788671
 20
177.83185896
 30
0.0
  0
VERTEX
  8
0
  6
CONTINUOUS
 62
       7
  5
575
 10
192.53083316
 20
177.7900738
 30
0.0
  0
VERTEX
  8
0
  6
CONTINUOUS
 62
       7
  5
576
 10
192.5121867
 20
177.74886005
 30
0.0
  0
VERTEX
  8
0
  6
CONTINUOUS
 62
       7
  5
577
 10
192.49195589
 20
177.70845338
 30
0.0
  0
VERTEX
  8
0
  6
CONTINUOUS
 62
       7
  5
578
 10
192.47014934
 20
177.66908949
 30
0.0
  0
VERTEX
  8
0
  6
CONTINUOUS
 62
       7
  5
579
 10
192.44677562
 20
177.63100405
 30
0.0
  0
VERTEX
  8
0
  6
CONTINUOUS
 62
       7
  5
57A
 10
192.42184332
 20
177.59443275
 30
0.0
  0
VERTEX
  8
0
  6
CONTINUOUS
 62
       7
  5
57B
 10
192.39536102
 20
177.55961126
 30
0.0
  0
VERTEX
  8
0
  6
CONTINUOUS
 62
       7
  5
57C
 10
192.3673373
 20
177.52677528
 30
0.0
  0
VERTEX
  8
0
  6
CONTINUOUS
 62
       7
  5
57D
 10
192.33778076
 20
177.49616047
 30
0.0
  0
VERTEX
  8
0
  6
CONTINUOUS
 62
       7
  5
57E
 10
192.30669997
 20
177.46800254
 30
0.0
  0
VERTEX
  8
0
  6
CONTINUOUS
 62
       7
  5
57F
 10
192.27410352
 20
177.44253715
 30
0.0
  0
VERTEX
  8
0
  6
CONTINUOUS
 62
       7
  5
580
 10
192.24
 20
177.42
 30
0.0
  0
VERTEX
  8
0
  6
CONTINUOUS
 62
       7
  5
581
 10
192.1991971
 20
177.39810894
 30
0.0
  0
VERTEX
  8
0
  6
CONTINUOUS
 62
       7
  5
582
 10
192.15655059
 20
177.38025359
 30
0.0
  0
VERTEX
  8
0
  6
CONTINUOUS
 62
       7
  5
583
 10
192.11222847
 20
177.36619461
 30
0.0
  0
VERTEX
  8
0
  6
CONTINUOUS
 62
       7
  5
584
 10
192.06639872
 20
177.35569268
 30
0.0
  0
VERTEX
  8
0
  6
CONTINUOUS
 62
       7
  5
585
 10
192.01922937
 20
177.34850846
 30
0.0
  0
VERTEX
  8
0
  6
CONTINUOUS
 62
       7
  5
586
 10
191.9708884
 20
177.34440259
 30
0.0
  0
VERTEX
  8
0
  6
CONTINUOUS
 62
       7
  5
587
 10
191.92154382
 20
177.34313576
 30
0.0
  0
VERTEX
  8
0
  6
CONTINUOUS
 62
       7
  5
588
 10
191.87136362
 20
177.34446862
 30
0.0
  0
VERTEX
  8
0
  6
CONTINUOUS
 62
       7
  5
589
 10
191.82051581
 20
177.34816184
 30
0.0
  0
VERTEX
  8
0
  6
CONTINUOUS
 62
       7
  5
58A
 10
191.76916839
 20
177.35397608
 30
0.0
  0
VERTEX
  8
0
  6
CONTINUOUS
 62
       7
  5
58B
 10
191.71748935
 20
177.36167199
 30
0.0
  0
VERTEX
  8
0
  6
CONTINUOUS
 62
       7
  5
58C
 10
191.6656467
 20
177.37101025
 30
0.0
  0
VERTEX
  8
0
  6
CONTINUOUS
 62
       7
  5
58D
 10
191.61380844
 20
177.38175152
 30
0.0
  0
VERTEX
  8
0
  6
CONTINUOUS
 62
       7
  5
58E
 10
191.56214257
 20
177.39365646
 30
0.0
  0
VERTEX
  8
0
  6
CONTINUOUS
 62
       7
  5
58F
 10
191.51081709
 20
177.40648573
 30
0.0
  0
VERTEX
  8
0
  6
CONTINUOUS
 62
       7
  5
590
 10
191.46
 20
177.42
 30
0.0
  0
VERTEX
  8
0
  6
CONTINUOUS
 62
       7
  5
591
 10
191.40673408
 20
177.4347679
 30
0.0
  0
VERTEX
  8
0
  6
CONTINUOUS
 62
       7
  5
592
 10
191.35423751
 20
177.44980906
 30
0.0
  0
VERTEX
  8
0
  6
CONTINUOUS
 62
       7
  5
593
 10
191.30247445
 20
177.46514298
 30
0.0
  0
VERTEX
  8
0
  6
CONTINUOUS
 62
       7
  5
594
 10
191.25140908
 20
177.48078918
 30
0.0
  0
VERTEX
  8
0
  6
CONTINUOUS
 62
       7
  5
595
 10
191.20100555
 20
177.49676715
 30
0.0
  0
VERTEX
  8
0
  6
CONTINUOUS
 62
       7
  5
596
 10
191.15122803
 20
177.5130964
 30
0.0
  0
VERTEX
  8
0
  6
CONTINUOUS
 62
       7
  5
597
 10
191.10204069
 20
177.52979643
 30
0.0
  0
VERTEX
  8
0
  6
CONTINUOUS
 62
       7
  5
598
 10
191.0534077
 20
177.54688675
 30
0.0
  0
VERTEX
  8
0
  6
CONTINUOUS
 62
       7
  5
599
 10
191.00529321
 20
177.56438685
 30
0.0
  0
VERTEX
  8
0
  6
CONTINUOUS
 62
       7
  5
59A
 10
190.9576614
 20
177.58231625
 30
0.0
  0
VERTEX
  8
0
  6
CONTINUOUS
 62
       7
  5
59B
 10
190.91047644
 20
177.60069445
 30
0.0
  0
VERTEX
  8
0
  6
CONTINUOUS
 62
       7
  5
59C
 10
190.86370247
 20
177.61954094
 30
0.0
  0
VERTEX
  8
0
  6
CONTINUOUS
 62
       7
  5
59D
 10
190.81730368
 20
177.63887524
 30
0.0
  0
VERTEX
  8
0
  6
CONTINUOUS
 62
       7
  5
59E
 10
190.77124423
 20
177.65871685
 30
0.0
  0
VERTEX
  8
0
  6
CONTINUOUS
 62
       7
  5
59F
 10
190.72548828
 20
177.67908527
 30
0.0
  0
VERTEX
  8
0
  6
CONTINUOUS
 62
       7
  5
5A0
 10
190.68
 20
177.7
 30
0.0
  0
VERTEX
  8
0
  6
CONTINUOUS
 62
       7
  5
5A1
 10
190.63818942
 20
177.71967681
 30
0.0
  0
VERTEX
  8
0
  6
CONTINUOUS
 62
       7
  5
5A2
 10
190.59613571
 20
177.73968803
 30
0.0
  0
VERTEX
  8
0
  6
CONTINUOUS
 62
       7
  5
5A3
 10
190.55383556
 20
177.75993551
 30
0.0
  0
VERTEX
  8
0
  6
CONTINUOUS
 62
       7
  5
5A4
 10
190.51128565
 20
177.78032111
 30
0.0
  0
VERTEX
  8
0
  6
CONTINUOUS
 62
       7
  5
5A5
 10
190.46848267
 20
177.8007467
 30
0.0
  0
VERTEX
  8
0
  6
CONTINUOUS
 62
       7
  5
5A6
 10
190.4254233
 20
177.82111415
 30
0.0
  0
VERTEX
  8
0
  6
CONTINUOUS
 62
       7
  5
5A7
 10
190.38210425
 20
177.8413253
 30
0.0
  0
VERTEX
  8
0
  6
CONTINUOUS
 62
       7
  5
5A8
 10
190.33852218
 20
177.86128203
 30
0.0
  0
VERTEX
  8
0
  6
CONTINUOUS
 62
       7
  5
5A9
 10
190.2946738
 20
177.8808862
 30
0.0
  0
VERTEX
  8
0
  6
CONTINUOUS
 62
       7
  5
5AA
 10
190.25055579
 20
177.90003966
 30
0.0
  0
VERTEX
  8
0
  6
CONTINUOUS
 62
       7
  5
5AB
 10
190.20616484
 20
177.91864429
 30
0.0
  0
VERTEX
  8
0
  6
CONTINUOUS
 62
       7
  5
5AC
 10
190.16149763
 20
177.93660194
 30
0.0
  0
VERTEX
  8
0
  6
CONTINUOUS
 62
       7
  5
5AD
 10
190.11655085
 20
177.95381447
 30
0.0
  0
VERTEX
  8
0
  6
CONTINUOUS
 62
       7
  5
5AE
 10
190.0713212
 20
177.97018375
 30
0.0
  0
VERTEX
  8
0
  6
CONTINUOUS
 62
       7
  5
5AF
 10
190.02580535
 20
177.98561164
 30
0.0
  0
VERTEX
  8
0
  6
CONTINUOUS
 62
       7
  5
5B0
 10
189.98
 20
178.0
 30
0.0
  0
VERTEX
  8
0
  6
CONTINUOUS
 62
       7
  5
5B1
 10
189.93844773
 20
178.01204859
 30
0.0
  0
VERTEX
  8
0
  6
CONTINUOUS
 62
       7
  5
5B2
 10
189.89673633
 20
178.02323382
 30
0.0
  0
VERTEX
  8
0
  6
CONTINUOUS
 62
       7
  5
5B3
 10
189.85487283
 20
178.03357503
 30
0.0
  0
VERTEX
  8
0
  6
CONTINUOUS
 62
       7
  5
5B4
 10
189.81286424
 20
178.04309155
 30
0.0
  0
VERTEX
  8
0
  6
CONTINUOUS
 62
       7
  5
5B5
 10
189.77071758
 20
178.05180271
 30
0.0
  0
VERTEX
  8
0
  6
CONTINUOUS
 62
       7
  5
5B6
 10
189.72843988
 20
178.05972784
 30
0.0
  0
VERTEX
  8
0
  6
CONTINUOUS
 62
       7
  5
5B7
 10
189.68603815
 20
178.06688626
 30
0.0
  0
VERTEX
  8
0
  6
CONTINUOUS
 62
       7
  5
5B8
 10
189.64351942
 20
178.07329732
 30
0.0
  0
VERTEX
  8
0
  6
CONTINUOUS
 62
       7
  5
5B9
 10
189.60089071
 20
178.07898033
 30
0.0
  0
VERTEX
  8
0
  6
CONTINUOUS
 62
       7
  5
5BA
 10
189.55815904
 20
178.08395464
 30
0.0
  0
VERTEX
  8
0
  6
CONTINUOUS
 62
       7
  5
5BB
 10
189.51533143
 20
178.08823956
 30
0.0
  0
VERTEX
  8
0
  6
CONTINUOUS
 62
       7
  5
5BC
 10
189.4724149
 20
178.09185443
 30
0.0
  0
VERTEX
  8
0
  6
CONTINUOUS
 62
       7
  5
5BD
 10
189.42941647
 20
178.09481858
 30
0.0
  0
VERTEX
  8
0
  6
CONTINUOUS
 62
       7
  5
5BE
 10
189.38634316
 20
178.09715134
 30
0.0
  0
VERTEX
  8
0
  6
CONTINUOUS
 62
       7
  5
5BF
 10
189.343202
 20
178.09887203
 30
0.0
  0
VERTEX
  8
0
  6
CONTINUOUS
 62
       7
  5
5C0
 10
189.3
 20
178.1
 30
0.0
  0
SEQEND
  8
0
  6
CONTINUOUS
 62
       7
  5
5C1
  0
POLYLINE
  8
0
  6
CONTINUOUS
 62
       7
  5
36
 66
       1
 10
0.0
 20
0.0
 30
0.0
  0
VERTEX
  8
0
  6
CONTINUOUS
 62
       7
  5
5C2
 10
92.6
 20
178.0
 30
0.0
  0
VERTEX
  8
0
  6
CONTINUOUS
 62
       7
  5
5C3
 10
92.5894039
 20
177.958286
 30
0.0
  0
VERTEX
  8
0
  6
CONTINUOUS
 62
       7
  5
5C4
 10
92.57718041
 20
177.91620059
 30
0.0
  0
VERTEX
  8
0
  6
CONTINUOUS
 62
       7
  5
5C5
 10
92.56333813
 20
177.87397947
 30
0.0
  0
VERTEX
  8
0
  6
CONTINUOUS
 62
       7
  5
5C6
 10
92.54788569
 20
177.83185835
 30
0.0
  0
VERTEX
  8
0
  6
CONTINUOUS
 62
       7
  5
5C7
 10
92.5308317
 20
177.79007292
 30
0.0
  0
VERTEX
  8
0
  6
CONTINUOUS
 62
       7
  5
5C8
 10
92.51218479
 20
177.7488589
 30
0.0
  0
VERTEX
  8
0
  6
CONTINUOUS
 62
       7
  5
5C9
 10
92.49195355
 20
177.70845197
 30
0.0
  0
VERTEX
  8
0
  6
CONTINUOUS
 62
       7
  5
5CA
 10
92.47014662
 20
177.66908785
 30
0.0
  0
VERTEX
  8
0
  6
CONTINUOUS
 62
       7
  5
5CB
 10
92.44677261
 20
177.63100224
 30
0.0
  0
VERTEX
  8
0
  6
CONTINUOUS
 62
       7
  5
5CC
 10
92.42184013
 20
177.59443083
 30
0.0
  0
VERTEX
  8
0
  6
CONTINUOUS
 62
       7
  5
5CD
 10
92.3953578
 20
177.55960933
 30
0.0
  0
VERTEX
  8
0
  6
CONTINUOUS
 62
       7
  5
5CE
 10
92.36733424
 20
177.52677343
 30
0.0
  0
VERTEX
  8
0
  6
CONTINUOUS
 62
       7
  5
5CF
 10
92.33777807
 20
177.49615885
 30
0.0
  0
VERTEX
  8
0
  6
CONTINUOUS
 62
       7
  5
5D0
 10
92.30669789
 20
177.46800129
 30
0.0
  0
VERTEX
  8
0
  6
CONTINUOUS
 62
       7
  5
5D1
 10
92.27410233
 20
177.44253643
 30
0.0
  0
VERTEX
  8
0
  6
CONTINUOUS
 62
       7
  5
5D2
 10
92.24
 20
177.42
 30
0.0
  0
VERTEX
  8
0
  6
CONTINUOUS
 62
       7
  5
5D3
 10
92.19919858
 20
177.39810973
 30
0.0
  0
VERTEX
  8
0
  6
CONTINUOUS
 62
       7
  5
5D4
 10
92.1565534
 20
177.3802549
 30
0.0
  0
VERTEX
  8
0
  6
CONTINUOUS
 62
       7
  5
5D5
 10
92.11223244
 20
177.36619622
 30
0.0
  0
VERTEX
  8
0
  6
CONTINUOUS
 62
       7
  5
5D6
 10
92.0664037
 20
177.35569439
 30
0.0
  0
VERTEX
  8
0
  6
CONTINUOUS
 62
       7
  5
5D7
 10
92.01923515
 20
177.34851009
 30
0.0
  0
VERTEX
  8
0
  6
CONTINUOUS
 62
       7
  5
5D8
 10
91.97089481
 20
177.34440403
 30
0.0
  0
VERTEX
  8
0
  6
CONTINUOUS
 62
       7
  5
5D9
 10
91.92155065
 20
177.34313691
 30
0.0
  0
VERTEX
  8
0
  6
CONTINUOUS
 62
       7
  5
5DA
 10
91.87137066
 20
177.34446942
 30
0.0
  0
VERTEX
  8
0
  6
CONTINUOUS
 62
       7
  5
5DB
 10
91.82052285
 20
177.34816226
 30
0.0
  0
VERTEX
  8
0
  6
CONTINUOUS
 62
       7
  5
5DC
 10
91.76917519
 20
177.35397613
 30
0.0
  0
VERTEX
  8
0
  6
CONTINUOUS
 62
       7
  5
5DD
 10
91.71749567
 20
177.36167173
 30
0.0
  0
VERTEX
  8
0
  6
CONTINUOUS
 62
       7
  5
5DE
 10
91.6656523
 20
177.37100975
 30
0.0
  0
VERTEX
  8
0
  6
CONTINUOUS
 62
       7
  5
5DF
 10
91.61381305
 20
177.38175089
 30
0.0
  0
VERTEX
  8
0
  6
CONTINUOUS
 62
       7
  5
5E0
 10
91.56214593
 20
177.39365584
 30
0.0
  0
VERTEX
  8
0
  6
CONTINUOUS
 62
       7
  5
5E1
 10
91.51081891
 20
177.40648532
 30
0.0
  0
VERTEX
  8
0
  6
CONTINUOUS
 62
       7
  5
5E2
 10
91.46
 20
177.42
 30
0.0
  0
VERTEX
  8
0
  6
CONTINUOUS
 62
       7
  5
5E3
 10
91.40673234
 20
177.43476835
 30
0.0
  0
VERTEX
  8
0
  6
CONTINUOUS
 62
       7
  5
5E4
 10
91.35423468
 20
177.44980975
 30
0.0
  0
VERTEX
  8
0
  6
CONTINUOUS
 62
       7
  5
5E5
 10
91.30247109
 20
177.46514375
 30
0.0
  0
VERTEX
  8
0
  6
CONTINUOUS
 62
       7
  5
5E6
 10
91.25140565
 20
177.48078986
 30
0.0
  0
VERTEX
  8
0
  6
CONTINUOUS
 62
       7
  5
5E7
 10
91.20100243
 20
177.49676764
 30
0.0
  0
VERTEX
  8
0
  6
CONTINUOUS
 62
       7
  5
5E8
 10
91.15122553
 20
177.51309662
 30
0.0
  0
VERTEX
  8
0
  6
CONTINUOUS
 62
       7
  5
5E9
 10
91.102039
 20
177.52979632
 30
0.0
  0
VERTEX
  8
0
  6
CONTINUOUS
 62
       7
  5
5EA
 10
91.05340693
 20
177.5468863
 30
0.0
  0
VERTEX
  8
0
  6
CONTINUOUS
 62
       7
  5
5EB
 10
91.00529339
 20
177.56438607
 30
0.0
  0
VERTEX
  8
0
  6
CONTINUOUS
 62
       7
  5
5EC
 10
90.95766246
 20
177.58231519
 30
0.0
  0
VERTEX
  8
0
  6
CONTINUOUS
 62
       7
  5
5ED
 10
90.91047822
 20
177.60069318
 30
0.0
  0
VERTEX
  8
0
  6
CONTINUOUS
 62
       7
  5
5EE
 10
90.86370474
 20
177.61953958
 30
0.0
  0
VERTEX
  8
0
  6
CONTINUOUS
 62
       7
  5
5EF
 10
90.8173061
 20
177.63887392
 30
0.0
  0
VERTEX
  8
0
  6
CONTINUOUS
 62
       7
  5
5F0
 10
90.77124638
 20
177.65871575
 30
0.0
  0
VERTEX
  8
0
  6
CONTINUOUS
 62
       7
  5
5F1
 10
90.72548966
 20
177.6790846
 30
0.0
  0
VERTEX
  8
0
  6
CONTINUOUS
 62
       7
  5
5F2
 10
90.68
 20
177.7
 30
0.0
  0
VERTEX
  8
0
  6
CONTINUOUS
 62
       7
  5
5F3
 10
90.63818783
 20
177.71967752
 30
0.0
  0
VERTEX
  8
0
  6
CONTINUOUS
 62
       7
  5
5F4
 10
90.5961325
 20
177.73968939
 30
0.0
  0
VERTEX
  8
0
  6
CONTINUOUS
 62
       7
  5
5F5
 10
90.55383075
 20
177.75993747
 30
0.0
  0
VERTEX
  8
0
  6
CONTINUOUS
 62
       7
  5
5F6
 10
90.51127932
 20
177.7803236
 30
0.0
  0
VERTEX
  8
0
  6
CONTINUOUS
 62
       7
  5
5F7
 10
90.46847495
 20
177.80074964
 30
0.0
  0
VERTEX
  8
0
  6
CONTINUOUS
 62
       7
  5
5F8
 10
90.42541437
 20
177.82111744
 30
0.0
  0
VERTEX
  8
0
  6
CONTINUOUS
 62
       7
  5
5F9
 10
90.38209434
 20
177.84132886
 30
0.0
  0
VERTEX
  8
0
  6
CONTINUOUS
 62
       7
  5
5FA
 10
90.33851157
 20
177.86128575
 30
0.0
  0
VERTEX
  8
0
  6
CONTINUOUS
 62
       7
  5
5FB
 10
90.29466282
 20
177.88088995
 30
0.0
  0
VERTEX
  8
0
  6
CONTINUOUS
 62
       7
  5
5FC
 10
90.25054482
 20
177.90004333
 30
0.0
  0
VERTEX
  8
0
  6
CONTINUOUS
 62
       7
  5
5FD
 10
90.20615432
 20
177.91864773
 30
0.0
  0
VERTEX
  8
0
  6
CONTINUOUS
 62
       7
  5
5FE
 10
90.16148804
 20
177.93660502
 30
0.0
  0
VERTEX
  8
0
  6
CONTINUOUS
 62
       7
  5
5FF
 10
90.11654273
 20
177.95381703
 30
0.0
  0
VERTEX
  8
0
  6
CONTINUOUS
 62
       7
  5
600
 10
90.07131513
 20
177.97018563
 30
0.0
  0
VERTEX
  8
0
  6
CONTINUOUS
 62
       7
  5
601
 10
90.02580197
 20
177.98561267
 30
0.0
  0
VERTEX
  8
0
  6
CONTINUOUS
 62
       7
  5
602
 10
89.98
 20
178.0
 30
0.0
  0
VERTEX
  8
0
  6
CONTINUOUS
 62
       7
  5
603
 10
89.9384507
 20
178.01204769
 30
0.0
  0
VERTEX
  8
0
  6
CONTINUOUS
 62
       7
  5
604
 10
89.8967415
 20
178.02323226
 30
0.0
  0
VERTEX
  8
0
  6
CONTINUOUS
 62
       7
  5
605
 10
89.85487951
 20
178.03357302
 30
0.0
  0
VERTEX
  8
0
  6
CONTINUOUS
 62
       7
  5
606
 10
89.81287182
 20
178.04308927
 30
0.0
  0
VERTEX
  8
0
  6
CONTINUOUS
 62
       7
  5
607
 10
89.77072555
 20
178.05180031
 30
0.0
  0
VERTEX
  8
0
  6
CONTINUOUS
 62
       7
  5
608
 10
89.72844778
 20
178.05972546
 30
0.0
  0
VERTEX
  8
0
  6
CONTINUOUS
 62
       7
  5
609
 10
89.68604561
 20
178.06688401
 30
0.0
  0
VERTEX
  8
0
  6
CONTINUOUS
 62
       7
  5
60A
 10
89.64352616
 20
178.07329529
 30
0.0
  0
VERTEX
  8
0
  6
CONTINUOUS
 62
       7
  5
60B
 10
89.60089651
 20
178.07897858
 30
0.0
  0
VERTEX
  8
0
  6
CONTINUOUS
 62
       7
  5
60C
 10
89.55816377
 20
178.08395321
 30
0.0
  0
VERTEX
  8
0
  6
CONTINUOUS
 62
       7
  5
60D
 10
89.51533504
 20
178.08823847
 30
0.0
  0
VERTEX
  8
0
  6
CONTINUOUS
 62
       7
  5
60E
 10
89.47241742
 20
178.09185367
 30
0.0
  0
VERTEX
  8
0
  6
CONTINUOUS
 62
       7
  5
60F
 10
89.429418
 20
178.09481811
 30
0.0
  0
VERTEX
  8
0
  6
CONTINUOUS
 62
       7
  5
610
 10
89.38634389
 20
178.09715111
 30
0.0
  0
VERTEX
  8
0
  6
CONTINUOUS
 62
       7
  5
611
 10
89.34320219
 20
178.09887197
 30
0.0
  0
VERTEX
  8
0
  6
CONTINUOUS
 62
       7
  5
612
 10
89.3
 20
178.1
 30
0.0
  0
SEQEND
  8
0
  6
CONTINUOUS
 62
       7
  5
613
  0
POLYLINE
  8
0
  6
CONTINUOUS
 62
       7
  5
37
 66
       1
 10
0.0
 20
0.0
 30
0.0
  0
VERTEX
  8
0
  6
CONTINUOUS
 62
       7
  5
614
 10
92.6
 20
-183.0
 30
0.0
  0
VERTEX
  8
0
  6
CONTINUOUS
 62
       7
  5
615
 10
92.58940381
 20
-182.95828594
 30
0.0
  0
VERTEX
  8
0
  6
CONTINUOUS
 62
       7
  5
616
 10
92.57718008
 20
-182.91620039
 30
0.0
  0
VERTEX
  8
0
  6
CONTINUOUS
 62
       7
  5
617
 10
92.56333745
 20
-182.87397905
 30
0.0
  0
VERTEX
  8
0
  6
CONTINUOUS
 62
       7
  5
618
 10
92.54788457
 20
-182.83185767
 30
0.0
  0
VERTEX
  8
0
  6
CONTINUOUS
 62
       7
  5
619
 10
92.5308301
 20
-182.79007195
 30
0.0
  0
VERTEX
  8
0
  6
CONTINUOUS
 62
       7
  5
61A
 10
92.51218268
 20
-182.74885762
 30
0.0
  0
VERTEX
  8
0
  6
CONTINUOUS
 62
       7
  5
61B
 10
92.49195097
 20
-182.70845042
 30
0.0
  0
VERTEX
  8
0
  6
CONTINUOUS
 62
       7
  5
61C
 10
92.47014363
 20
-182.66908604
 30
0.0
  0
VERTEX
  8
0
  6
CONTINUOUS
 62
       7
  5
61D
 10
92.44676929
 20
-182.63100023
 30
0.0
  0
VERTEX
  8
0
  6
CONTINUOUS
 62
       7
  5
61E
 10
92.42183662
 20
-182.59442871
 30
0.0
  0
VERTEX
  8
0
  6
CONTINUOUS
 62
       7
  5
61F
 10
92.39535426
 20
-182.55960719
 30
0.0
  0
VERTEX
  8
0
  6
CONTINUOUS
 62
       7
  5
620
 10
92.36733087
 20
-182.5267714
 30
0.0
  0
VERTEX
  8
0
  6
CONTINUOUS
 62
       7
  5
621
 10
92.3377751
 20
-182.49615706
 30
0.0
  0
VERTEX
  8
0
  6
CONTINUOUS
 62
       7
  5
622
 10
92.30669559
 20
-182.4679999
 30
0.0
  0
VERTEX
  8
0
  6
CONTINUOUS
 62
       7
  5
623
 10
92.27410101
 20
-182.44253564
 30
0.0
  0
VERTEX
  8
0
  6
CONTINUOUS
 62
       7
  5
624
 10
92.24
 20
-182.42
 30
0.0
  0
VERTEX
  8
0
  6
CONTINUOUS
 62
       7
  5
625
 10
92.19920022
 20
-182.3981106
 30
0.0
  0
VERTEX
  8
0
  6
CONTINUOUS
 62
       7
  5
626
 10
92.15655653
 20
-182.38025634
 30
0.0
  0
VERTEX
  8
0
  6
CONTINUOUS
 62
       7
  5
627
 10
92.11223688
 20
-182.36619798
 30
0.0
  0
VERTEX
  8
0
  6
CONTINUOUS
 62
       7
  5
628
 10
92.06640927
 20
-182.35569624
 30
0.0
  0
VERTEX
  8
0
  6
CONTINUOUS
 62
       7
  5
629
 10
92.01924167
 20
-182.34851186
 30
0.0
  0
VERTEX
  8
0
  6
CONTINUOUS
 62
       7
  5
62A
 10
91.97090205
 20
-182.34440557
 30
0.0
  0
VERTEX
  8
0
  6
CONTINUOUS
 62
       7
  5
62B
 10
91.92155839
 20
-182.34313812
 30
0.0
  0
VERTEX
  8
0
  6
CONTINUOUS
 62
       7
  5
62C
 10
91.87137868
 20
-182.34447024
 30
0.0
  0
VERTEX
  8
0
  6
CONTINUOUS
 62
       7
  5
62D
 10
91.82053088
 20
-182.34816266
 30
0.0
  0
VERTEX
  8
0
  6
CONTINUOUS
 62
       7
  5
62E
 10
91.76918297
 20
-182.35397612
 30
0.0
  0
VERTEX
  8
0
  6
CONTINUOUS
 62
       7
  5
62F
 10
91.71750293
 20
-182.36167136
 30
0.0
  0
VERTEX
  8
0
  6
CONTINUOUS
 62
       7
  5
630
 10
91.66565874
 20
-182.37100912
 30
0.0
  0
VERTEX
  8
0
  6
CONTINUOUS
 62
       7
  5
631
 10
91.61381838
 20
-182.38175012
 30
0.0
  0
VERTEX
  8
0
  6
CONTINUOUS
 62
       7
  5
632
 10
91.56214982
 20
-182.39365511
 30
0.0
  0
VERTEX
  8
0
  6
CONTINUOUS
 62
       7
  5
633
 10
91.51082103
 20
-182.40648483
 30
0.0
  0
VERTEX
  8
0
  6
CONTINUOUS
 62
       7
  5
634
 10
91.46
 20
-182.42
 30
0.0
  0
VERTEX
  8
0
  6
CONTINUOUS
 62
       7
  5
635
 10
91.40673024
 20
-182.43476892
 30
0.0
  0
VERTEX
  8
0
  6
CONTINUOUS
 62
       7
  5
636
 10
91.35423109
 20
-182.4498107
 30
0.0
  0
VERTEX
  8
0
  6
CONTINUOUS
 62
       7
  5
637
 10
91.30246657
 20
-182.46514491
 30
0.0
  0
VERTEX
  8
0
  6
CONTINUOUS
 62
       7
  5
638
 10
91.25140068
 20
-182.48079112
 30
0.0
  0
VERTEX
  8
0
  6
CONTINUOUS
 62
       7
  5
639
 10
91.20099741
 20
-182.49676887
 30
0.0
  0
VERTEX
  8
0
  6
CONTINUOUS
 62
       7
  5
63A
 10
91.15122078
 20
-182.51309772
 30
0.0
  0
VERTEX
  8
0
  6
CONTINUOUS
 62
       7
  5
63B
 10
91.10203478
 20
-182.52979724
 30
0.0
  0
VERTEX
  8
0
  6
CONTINUOUS
 62
       7
  5
63C
 10
91.05340343
 20
-182.54688698
 30
0.0
  0
VERTEX
  8
0
  6
CONTINUOUS
 62
       7
  5
63D
 10
91.00529071
 20
-182.5643865
 30
0.0
  0
VERTEX
  8
0
  6
CONTINUOUS
 62
       7
  5
63E
 10
90.95766064
 20
-182.58231537
 30
0.0
  0
VERTEX
  8
0
  6
CONTINUOUS
 62
       7
  5
63F
 10
90.91047722
 20
-182.60069313
 30
0.0
  0
VERTEX
  8
0
  6
CONTINUOUS
 62
       7
  5
640
 10
90.86370446
 20
-182.61953935
 30
0.0
  0
VERTEX
  8
0
  6
CONTINUOUS
 62
       7
  5
641
 10
90.81730635
 20
-182.63887359
 30
0.0
  0
VERTEX
  8
0
  6
CONTINUOUS
 62
       7
  5
642
 10
90.7712469
 20
-182.65871541
 30
0.0
  0
VERTEX
  8
0
  6
CONTINUOUS
 62
       7
  5
643
 10
90.72549012
 20
-182.67908436
 30
0.0
  0
VERTEX
  8
0
  6
CONTINUOUS
 62
       7
  5
644
 10
90.68
 20
-182.7
 30
0.0
  0
VERTEX
  8
0
  6
CONTINUOUS
 62
       7
  5
645
 10
90.6381871
 20
-182.71967783
 30
0.0
  0
VERTEX
  8
0
  6
CONTINUOUS
 62
       7
  5
646
 10
90.59613087
 20
-182.73969004
 30
0.0
  0
VERTEX
  8
0
  6
CONTINUOUS
 62
       7
  5
647
 10
90.55382813
 20
-182.75993847
 30
0.0
  0
VERTEX
  8
0
  6
CONTINUOUS
 62
       7
  5
648
 10
90.51127565
 20
-182.78032494
 30
0.0
  0
VERTEX
  8
0
  6
CONTINUOUS
 62
       7
  5
649
 10
90.46847024
 20
-182.80075131
 30
0.0
  0
VERTEX
  8
0
  6
CONTINUOUS
 62
       7
  5
64A
 10
90.42540868
 20
-182.82111941
 30
0.0
  0
VERTEX
  8
0
  6
CONTINUOUS
 62
       7
  5
64B
 10
90.38208777
 20
-182.84133107
 30
0.0
  0
VERTEX
  8
0
  6
CONTINUOUS
 62
       7
  5
64C
 10
90.33850432
 20
-182.86128814
 30
0.0
  0
VERTEX
  8
0
  6
CONTINUOUS
 62
       7
  5
64D
 10
90.2946551
 20
-182.88089246
 30
0.0
  0
VERTEX
  8
0
  6
CONTINUOUS
 62
       7
  5
64E
 10
90.25053691
 20
-182.90004586
 30
0.0
  0
VERTEX
  8
0
  6
CONTINUOUS
 62
       7
  5
64F
 10
90.20614656
 20
-182.91865019
 30
0.0
  0
VERTEX
  8
0
  6
CONTINUOUS
 62
       7
  5
650
 10
90.16148082
 20
-182.93660727
 30
0.0
  0
VERTEX
  8
0
  6
CONTINUOUS
 62
       7
  5
651
 10
90.11653651
 20
-182.95381896
 30
0.0
  0
VERTEX
  8
0
  6
CONTINUOUS
 62
       7
  5
652
 10
90.0713104
 20
-182.97018708
 30
0.0
  0
VERTEX
  8
0
  6
CONTINUOUS
 62
       7
  5
653
 10
90.0257993
 20
-182.98561348
 30
0.0
  0
VERTEX
  8
0
  6
CONTINUOUS
 62
       7
  5
654
 10
89.98
 20
-183.0
 30
0.0
  0
VERTEX
  8
0
  6
CONTINUOUS
 62
       7
  5
655
 10
89.93845307
 20
-183.01204698
 30
0.0
  0
VERTEX
  8
0
  6
CONTINUOUS
 62
       7
  5
656
 10
89.89674564
 20
-183.02323102
 30
0.0
  0
VERTEX
  8
0
  6
CONTINUOUS
 62
       7
  5
657
 10
89.85488487
 20
-183.03357141
 30
0.0
  0
VERTEX
  8
0
  6
CONTINUOUS
 62
       7
  5
658
 10
89.81287791
 20
-183.04308743
 30
0.0
  0
VERTEX
  8
0
  6
CONTINUOUS
 62
       7
  5
659
 10
89.77073194
 20
-183.05179838
 30
0.0
  0
VERTEX
  8
0
  6
CONTINUOUS
 62
       7
  5
65A
 10
89.72845412
 20
-183.05972355
 30
0.0
  0
VERTEX
  8
0
  6
CONTINUOUS
 62
       7
  5
65B
 10
89.68605161
 20
-183.06688221
 30
0.0
  0
VERTEX
  8
0
  6
CONTINUOUS
 62
       7
  5
65C
 10
89.64353158
 20
-183.07329366
 30
0.0
  0
VERTEX
  8
0
  6
CONTINUOUS
 62
       7
  5
65D
 10
89.60090118
 20
-183.07897718
 30
0.0
  0
VERTEX
  8
0
  6
CONTINUOUS
 62
       7
  5
65E
 10
89.55816759
 20
-183.08395206
 30
0.0
  0
VERTEX
  8
0
  6
CONTINUOUS
 62
       7
  5
65F
 10
89.51533796
 20
-183.08823759
 30
0.0
  0
VERTEX
  8
0
  6
CONTINUOUS
 62
       7
  5
660
 10
89.47241945
 20
-183.09185305
 30
0.0
  0
VERTEX
  8
0
  6
CONTINUOUS
 62
       7
  5
661
 10
89.42941924
 20
-183.09481774
 30
0.0
  0
VERTEX
  8
0
  6
CONTINUOUS
 62
       7
  5
662
 10
89.38634449
 20
-183.09715093
 30
0.0
  0
VERTEX
  8
0
  6
CONTINUOUS
 62
       7
  5
663
 10
89.34320235
 20
-183.09887193
 30
0.0
  0
VERTEX
  8
0
  6
CONTINUOUS
 62
       7
  5
664
 10
89.3
 20
-183.1
 30
0.0
  0
SEQEND
  8
0
  6
CONTINUOUS
 62
       7
  5
665
  0
POLYLINE
  8
0
  6
CONTINUOUS
 62
       7
  5
38
 66
       1
 10
0.0
 20
0.0
 30
0.0
  0
VERTEX
  8
0
  6
CONTINUOUS
 62
       7
  5
666
 10
192.6
 20
-183.0
 30
0.0
  0
VERTEX
  8
0
  6
CONTINUOUS
 62
       7
  5
667
 10
192.58940389
 20
-182.95828599
 30
0.0
  0
VERTEX
  8
0
  6
CONTINUOUS
 62
       7
  5
668
 10
192.57718038
 20
-182.91620056
 30
0.0
  0
VERTEX
  8
0
  6
CONTINUOUS
 62
       7
  5
669
 10
192.56333807
 20
-182.87397943
 30
0.0
  0
VERTEX
  8
0
  6
CONTINUOUS
 62
       7
  5
66A
 10
192.54788559
 20
-182.83185828
 30
0.0
  0
VERTEX
  8
0
  6
CONTINUOUS
 62
       7
  5
66B
 10
192.53083156
 20
-182.79007283
 30
0.0
  0
VERTEX
  8
0
  6
CONTINUOUS
 62
       7
  5
66C
 10
192.51218459
 20
-182.74885878
 30
0.0
  0
VERTEX
  8
0
  6
CONTINUOUS
 62
       7
  5
66D
 10
192.49195331
 20
-182.70845183
 30
0.0
  0
VERTEX
  8
0
  6
CONTINUOUS
 62
       7
  5
66E
 10
192.47014634
 20
-182.66908768
 30
0.0
  0
VERTEX
  8
0
  6
CONTINUOUS
 62
       7
  5
66F
 10
192.4467723
 20
-182.63100205
 30
0.0
  0
VERTEX
  8
0
  6
CONTINUOUS
 62
       7
  5
670
 10
192.4218398
 20
-182.59443063
 30
0.0
  0
VERTEX
  8
0
  6
CONTINUOUS
 62
       7
  5
671
 10
192.39535747
 20
-182.55960912
 30
0.0
  0
VERTEX
  8
0
  6
CONTINUOUS
 62
       7
  5
672
 10
192.36733393
 20
-182.52677324
 30
0.0
  0
VERTEX
  8
0
  6
CONTINUOUS
 62
       7
  5
673
 10
192.33777779
 20
-182.49615869
 30
0.0
  0
VERTEX
  8
0
  6
CONTINUOUS
 62
       7
  5
674
 10
192.30669767
 20
-182.46800116
 30
0.0
  0
VERTEX
  8
0
  6
CONTINUOUS
 62
       7
  5
675
 10
192.2741022
 20
-182.44253636
 30
0.0
  0
VERTEX
  8
0
  6
CONTINUOUS
 62
       7
  5
676
 10
192.24
 20
-182.42
 30
0.0
  0
VERTEX
  8
0
  6
CONTINUOUS
 62
       7
  5
677
 10
192.19919864
 20
-182.39810983
 30
0.0
  0
VERTEX
  8
0
  6
CONTINUOUS
 62
       7
  5
678
 10
192.15655334
 20
-182.38025513
 30
0.0
  0
VERTEX
  8
0
  6
CONTINUOUS
 62
       7
  5
679
 10
192.11223212
 20
-182.36619659
 30
0.0
  0
VERTEX
  8
0
  6
CONTINUOUS
 62
       7
  5
67A
 10
192.06640301
 20
-182.35569489
 30
0.0
  0
VERTEX
  8
0
  6
CONTINUOUS
 62
       7
  5
67B
 10
192.01923403
 20
-182.34851073
 30
0.0
  0
VERTEX
  8
0
  6
CONTINUOUS
 62
       7
  5
67C
 10
191.97089322
 20
-182.34440479
 30
0.0
  0
VERTEX
  8
0
  6
CONTINUOUS
 62
       7
  5
67D
 10
191.9215486
 20
-182.34313778
 30
0.0
  0
VERTEX
  8
0
  6
CONTINUOUS
 62
       7
  5
67E
 10
191.87136819
 20
-182.34447038
 30
0.0
  0
VERTEX
  8
0
  6
CONTINUOUS
 62
       7
  5
67F
 10
191.82052003
 20
-182.34816327
 30
0.0
  0
VERTEX
  8
0
  6
CONTINUOUS
 62
       7
  5
680
 10
191.76917214
 20
-182.35397716
 30
0.0
  0
VERTEX
  8
0
  6
CONTINUOUS
 62
       7
  5
681
 10
191.71749254
 20
-182.36167273
 30
0.0
  0
VERTEX
  8
0
  6
CONTINUOUS
 62
       7
  5
682
 10
191.66564928
 20
-182.37101068
 30
0.0
  0
VERTEX
  8
0
  6
CONTINUOUS
 62
       7
  5
683
 10
191.61381036
 20
-182.38175169
 30
0.0
  0
VERTEX
  8
0
  6
CONTINUOUS
 62
       7
  5
684
 10
191.56214382
 20
-182.39365645
 30
0.0
  0
VERTEX
  8
0
  6
CONTINUOUS
 62
       7
  5
685
 10
191.5108177
 20
-182.40648566
 30
0.0
  0
VERTEX
  8
0
  6
CONTINUOUS
 62
       7
  5
686
 10
191.46
 20
-182.42
 30
0.0
  0
VERTEX
  8
0
  6
CONTINUOUS
 62
       7
  5
687
 10
191.40673378
 20
-182.43476793
 30
0.0
  0
VERTEX
  8
0
  6
CONTINUOUS
 62
       7
  5
688
 10
191.35423744
 20
-182.44980891
 30
0.0
  0
VERTEX
  8
0
  6
CONTINUOUS
 62
       7
  5
689
 10
191.30247505
 20
-182.46514247
 30
0.0
  0
VERTEX
  8
0
  6
CONTINUOUS
 62
       7
  5
68A
 10
191.25141066
 20
-182.48078817
 30
0.0
  0
VERTEX
  8
0
  6
CONTINUOUS
 62
       7
  5
68B
 10
191.20100835
 20
-182.49676556
 30
0.0
  0
VERTEX
  8
0
  6
CONTINUOUS
 62
       7
  5
68C
 10
191.15123215
 20
-182.5130942
 30
0.0
  0
VERTEX
  8
0
  6
CONTINUOUS
 62
       7
  5
68D
 10
191.10204614
 20
-182.52979362
 30
0.0
  0
VERTEX
  8
0
  6
CONTINUOUS
 62
       7
  5
68E
 10
191.05341437
 20
-182.54688339
 30
0.0
  0
VERTEX
  8
0
  6
CONTINUOUS
 62
       7
  5
68F
 10
191.0053009
 20
-182.56438306
 30
0.0
  0
VERTEX
  8
0
  6
CONTINUOUS
 62
       7
  5
690
 10
190.95766979
 20
-182.58231216
 30
0.0
  0
VERTEX
  8
0
  6
CONTINUOUS
 62
       7
  5
691
 10
190.9104851
 20
-182.60069027
 30
0.0
  0
VERTEX
  8
0
  6
CONTINUOUS
 62
       7
  5
692
 10
190.86371089
 20
-182.61953692
 30
0.0
  0
VERTEX
  8
0
  6
CONTINUOUS
 62
       7
  5
693
 10
190.81731121
 20
-182.63887167
 30
0.0
  0
VERTEX
  8
0
  6
CONTINUOUS
 62
       7
  5
694
 10
190.77125013
 20
-182.65871406
 30
0.0
  0
VERTEX
  8
0
  6
CONTINUOUS
 62
       7
  5
695
 10
190.72549171
 20
-182.67908366
 30
0.0
  0
VERTEX
  8
0
  6
CONTINUOUS
 62
       7
  5
696
 10
190.68
 20
-182.7
 30
0.0
  0
VERTEX
  8
0
  6
CONTINUOUS
 62
       7
  5
697
 10
190.63818596
 20
-182.71967839
 30
0.0
  0
VERTEX
  8
0
  6
CONTINUOUS
 62
       7
  5
698
 10
190.59612913
 20
-182.73969093
 30
0.0
  0
VERTEX
  8
0
  6
CONTINUOUS
 62
       7
  5
699
 10
190.55382622
 20
-182.75993951
 30
0.0
  0
VERTEX
  8
0
  6
CONTINUOUS
 62
       7
  5
69A
 10
190.51127395
 20
-182.78032599
 30
0.0
  0
VERTEX
  8
0
  6
CONTINUOUS
 62
       7
  5
69B
 10
190.46846902
 20
-182.80075224
 30
0.0
  0
VERTEX
  8
0
  6
CONTINUOUS
 62
       7
  5
69C
 10
190.42540816
 20
-182.82112012
 30
0.0
  0
VERTEX
  8
0
  6
CONTINUOUS
 62
       7
  5
69D
 10
190.38208807
 20
-182.84133151
 30
0.0
  0
VERTEX
  8
0
  6
CONTINUOUS
 62
       7
  5
69E
 10
190.33850547
 20
-182.86128827
 30
0.0
  0
VERTEX
  8
0
  6
CONTINUOUS
 62
       7
  5
69F
 10
190.29465708
 20
-182.88089227
 30
0.0
  0
VERTEX
  8
0
  6
CONTINUOUS
 62
       7
  5
6A0
 10
190.25053961
 20
-182.90004539
 30
0.0
  0
VERTEX
  8
0
  6
CONTINUOUS
 62
       7
  5
6A1
 10
190.20614976
 20
-182.91864948
 30
0.0
  0
VERTEX
  8
0
  6
CONTINUOUS
 62
       7
  5
6A2
 10
190.16148426
 20
-182.93660641
 30
0.0
  0
VERTEX
  8
0
  6
CONTINUOUS
 62
       7
  5
6A3
 10
190.11653982
 20
-182.95381807
 30
0.0
  0
VERTEX
  8
0
  6
CONTINUOUS
 62
       7
  5
6A4
 10
190.07131316
 20
-182.9701863
 30
0.0
  0
VERTEX
  8
0
  6
CONTINUOUS
 62
       7
  5
6A5
 10
190.02580098
 20
-182.98561299
 30
0.0
  0
VERTEX
  8
0
  6
CONTINUOUS
 62
       7
  5
6A6
 10
189.98
 20
-183.0
 30
0.0
  0
VERTEX
  8
0
  6
CONTINUOUS
 62
       7
  5
6A7
 10
189.93845148
 20
-183.01204745
 30
0.0
  0
VERTEX
  8
0
  6
CONTINUOUS
 62
       7
  5
6A8
 10
189.89674287
 20
-183.02323185
 30
0.0
  0
VERTEX
  8
0
  6
CONTINUOUS
 62
       7
  5
6A9
 10
189.85488128
 20
-183.03357248
 30
0.0
  0
VERTEX
  8
0
  6
CONTINUOUS
 62
       7
  5
6AA
 10
189.81287384
 20
-183.04308866
 30
0.0
  0
VERTEX
  8
0
  6
CONTINUOUS
 62
       7
  5
6AB
 10
189.77072767
 20
-183.05179967
 30
0.0
  0
VERTEX
  8
0
  6
CONTINUOUS
 62
       7
  5
6AC
 10
189.72844988
 20
-183.05972482
 30
0.0
  0
VERTEX
  8
0
  6
CONTINUOUS
 62
       7
  5
6AD
 10
189.6860476
 20
-183.06688342
 30
0.0
  0
VERTEX
  8
0
  6
CONTINUOUS
 62
       7
  5
6AE
 10
189.64352795
 20
-183.07329475
 30
0.0
  0
VERTEX
  8
0
  6
CONTINUOUS
 62
       7
  5
6AF
 10
189.60089806
 20
-183.07897812
 30
0.0
  0
VERTEX
  8
0
  6
CONTINUOUS
 62
       7
  5
6B0
 10
189.55816503
 20
-183.08395283
 30
0.0
  0
VERTEX
  8
0
  6
CONTINUOUS
 62
       7
  5
6B1
 10
189.515336
 20
-183.08823818
 30
0.0
  0
VERTEX
  8
0
  6
CONTINUOUS
 62
       7
  5
6B2
 10
189.47241809
 20
-183.09185346
 30
0.0
  0
VERTEX
  8
0
  6
CONTINUOUS
 62
       7
  5
6B3
 10
189.42941841
 20
-183.09481799
 30
0.0
  0
VERTEX
  8
0
  6
CONTINUOUS
 62
       7
  5
6B4
 10
189.38634409
 20
-183.09715105
 30
0.0
  0
VERTEX
  8
0
  6
CONTINUOUS
 62
       7
  5
6B5
 10
189.34320224
 20
-183.09887196
 30
0.0
  0
VERTEX
  8
0
  6
CONTINUOUS
 62
       7
  5
6B6
 10
189.3
 20
-183.1
 30
0.0
  0
SEQEND
  8
0
  6
CONTINUOUS
 62
       7
  5
6B7
  0
POLYLINE
  8
0
  6
CONTINUOUS
 62
       7
  5
39
 66
       1
 10
0.0
 20
0.0
 30
0.0
  0
VERTEX
  8
0
  6
CONTINUOUS
 62
       7
  5
6B8
 10
-238.9
 20
0.9
 30
0.0
  0
VERTEX
  8
0
  6
CONTINUOUS
 62
       7
  5
6B9
 10
-238.93695799
 20
0.92346368
 30
0.0
  0
VERTEX
  8
0
  6
CONTINUOUS
 62
       7
  5
6BA
 10
-238.97334927
 20
0.94781749
 30
0.0
  0
VERTEX
  8
0
  6
CONTINUOUS
 62
       7
  5
6BB
 10
-239.00909649
 20
0.97309316
 30
0.0
  0
VERTEX
  8
0
  6
CONTINUOUS
 62
       7
  5
6BC
 10
-239.04412227
 20
0.99932242
 30
0.0
  0
VERTEX
  8
0
  6
CONTINUOUS
 62
       7
  5
6BD
 10
-239.07834925
 20
1.02653697
 30
0.0
  0
VERTEX
  8
0
  6
CONTINUOUS
 62
       7
  5
6BE
 10
-239.11170008
 20
1.05476856
 30
0.0
  0
VERTEX
  8
0
  6
CONTINUOUS
 62
       7
  5
6BF
 10
-239.14409739
 20
1.08404889
 30
0.0
  0
VERTEX
  8
0
  6
CONTINUOUS
 62
       7
  5
6C0
 10
-239.17546381
 20
1.1144097
 30
0.0
  0
VERTEX
  8
0
  6
CONTINUOUS
 62
       7
  5
6C1
 10
-239.205722
 20
1.14588271
 30
0.0
  0
VERTEX
  8
0
  6
CONTINUOUS
 62
       7
  5
6C2
 10
-239.23479457
 20
1.17849963
 30
0.0
  0
VERTEX
  8
0
  6
CONTINUOUS
 62
       7
  5
6C3
 10
-239.26260418
 20
1.2122922
 30
0.0
  0
VERTEX
  8
0
  6
CONTINUOUS
 62
       7
  5
6C4
 10
-239.28907346
 20
1.24729213
 30
0.0
  0
VERTEX
  8
0
  6
CONTINUOUS
 62
       7
  5
6C5
 10
-239.31412504
 20
1.28353116
 30
0.0
  0
VERTEX
  8
0
  6
CONTINUOUS
 62
       7
  5
6C6
 10
-239.33768156
 20
1.321041
 30
0.0
  0
VERTEX
  8
0
  6
CONTINUOUS
 62
       7
  5
6C7
 10
-239.35966567
 20
1.35985337
 30
0.0
  0
VERTEX
  8
0
  6
CONTINUOUS
 62
       7
  5
6C8
 10
-239.38
 20
1.4
 30
0.0
  0
VERTEX
  8
0
  6
CONTINUOUS
 62
       7
  5
6C9
 10
-239.40340974
 20
1.45274687
 30
0.0
  0
VERTEX
  8
0
  6
CONTINUOUS
 62
       7
  5
6CA
 10
-239.42410616
 20
1.50713181
 30
0.0
  0
VERTEX
  8
0
  6
CONTINUOUS
 62
       7
  5
6CB
 10
-239.44200185
 20
1.5628682
 30
0.0
  0
VERTEX
  8
0
  6
CONTINUOUS
 62
       7
  5
6CC
 10
-239.45700937
 20
1.61966938
 30
0.0
  0
VERTEX
  8
0
  6
CONTINUOUS
 62
       7
  5
6CD
 10
-239.4690413
 20
1.67724872
 30
0.0
  0
VERTEX
  8
0
  6
CONTINUOUS
 62
       7
  5
6CE
 10
-239.47801022
 20
1.73531957
 30
0.0
  0
VERTEX
  8
0
  6
CONTINUOUS
 62
       7
  5
6CF
 10
-239.4838287
 20
1.79359529
 30
0.0
  0
VERTEX
  8
0
  6
CONTINUOUS
 62
       7
  5
6D0
 10
-239.48640931
 20
1.85178924
 30
0.0
  0
VERTEX
  8
0
  6
CONTINUOUS
 62
       7
  5
6D1
 10
-239.48566463
 20
1.90961478
 30
0.0
  0
VERTEX
  8
0
  6
CONTINUOUS
 62
       7
  5
6D2
 10
-239.48150723
 20
1.96678526
 30
0.0
  0
VERTEX
  8
0
  6
CONTINUOUS
 62
       7
  5
6D3
 10
-239.47384969
 20
2.02301404
 30
0.0
  0
VERTEX
  8
0
  6
CONTINUOUS
 62
       7
  5
6D4
 10
-239.46260459
 20
2.07801448
 30
0.0
  0
VERTEX
  8
0
  6
CONTINUOUS
 62
       7
  5
6D5
 10
-239.44768449
 20
2.13149994
 30
0.0
  0
VERTEX
  8
0
  6
CONTINUOUS
 62
       7
  5
6D6
 10
-239.42900198
 20
2.18318377
 30
0.0
  0
VERTEX
  8
0
  6
CONTINUOUS
 62
       7
  5
6D7
 10
-239.40646962
 20
2.23277934
 30
0.0
  0
VERTEX
  8
0
  6
CONTINUOUS
 62
       7
  5
6D8
 10
-239.38
 20
2.28
 30
0.0
  0
VERTEX
  8
0
  6
CONTINUOUS
 62
       7
  5
6D9
 10
-239.35112446
 20
2.32237384
 30
0.0
  0
VERTEX
  8
0
  6
CONTINUOUS
 62
       7
  5
6DA
 10
-239.31881546
 20
2.36256498
 30
0.0
  0
VERTEX
  8
0
  6
CONTINUOUS
 62
       7
  5
6DB
 10
-239.28356233
 20
2.40086618
 30
0.0
  0
VERTEX
  8
0
  6
CONTINUOUS
 62
       7
  5
6DC
 10
-239.24585439
 20
2.43757018
 30
0.0
  0
VERTEX
  8
0
  6
CONTINUOUS
 62
       7
  5
6DD
 10
-239.20618097
 20
2.47296975
 30
0.0
  0
VERTEX
  8
0
  6
CONTINUOUS
 62
       7
  5
6DE
 10
-239.16503141
 20
2.50735764
 30
0.0
  0
VERTEX
  8
0
  6
CONTINUOUS
 62
       7
  5
6DF
 10
-239.12289503
 20
2.54102659
 30
0.0
  0
VERTEX
  8
0
  6
CONTINUOUS
 62
       7
  5
6E0
 10
-239.08026115
 20
2.57426938
 30
0.0
  0
VERTEX
  8
0
  6
CONTINUOUS
 62
       7
  5
6E1
 10
-239.03761912
 20
2.60737875
 30
0.0
  0
VERTEX
  8
0
  6
CONTINUOUS
 62
       7
  5
6E2
 10
-238.99545825
 20
2.64064745
 30
0.0
  0
VERTEX
  8
0
  6
CONTINUOUS
 62
       7
  5
6E3
 10
-238.95426788
 20
2.67436825
 30
0.0
  0
VERTEX
  8
0
  6
CONTINUOUS
 62
       7
  5
6E4
 10
-238.91453734
 20
2.70883389
 30
0.0
  0
VERTEX
  8
0
  6
CONTINUOUS
 62
       7
  5
6E5
 10
-238.87675595
 20
2.74433713
 30
0.0
  0
VERTEX
  8
0
  6
CONTINUOUS
 62
       7
  5
6E6
 10
-238.84141304
 20
2.78117072
 30
0.0
  0
VERTEX
  8
0
  6
CONTINUOUS
 62
       7
  5
6E7
 10
-238.80899795
 20
2.81962743
 30
0.0
  0
VERTEX
  8
0
  6
CONTINUOUS
 62
       7
  5
6E8
 10
-238.78
 20
2.86
 30
0.0
  0
VERTEX
  8
0
  6
CONTINUOUS
 62
       7
  5
6E9
 10
-238.74245454
 20
2.92616713
 30
0.0
  0
VERTEX
  8
0
  6
CONTINUOUS
 62
       7
  5
6EA
 10
-238.71296927
 20
2.99681622
 30
0.0
  0
VERTEX
  8
0
  6
CONTINUOUS
 62
       7
  5
6EB
 10
-238.69106832
 20
3.07138207
 30
0.0
  0
VERTEX
  8
0
  6
CONTINUOUS
 62
       7
  5
6EC
 10
-238.67627579
 20
3.14929949
 30
0.0
  0
VERTEX
  8
0
  6
CONTINUOUS
 62
       7
  5
6ED
 10
-238.6681158
 20
3.23000327
 30
0.0
  0
VERTEX
  8
0
  6
CONTINUOUS
 62
       7
  5
6EE
 10
-238.66611247
 20
3.31292823
 30
0.0
  0
VERTEX
  8
0
  6
CONTINUOUS
 62
       7
  5
6EF
 10
-238.6697899
 20
3.39750918
 30
0.0
  0
VERTEX
  8
0
  6
CONTINUOUS
 62
       7
  5
6F0
 10
-238.67867221
 20
3.48318092
 30
0.0
  0
VERTEX
  8
0
  6
CONTINUOUS
 62
       7
  5
6F1
 10
-238.69228351
 20
3.56937825
 30
0.0
  0
VERTEX
  8
0
  6
CONTINUOUS
 62
       7
  5
6F2
 10
-238.71014792
 20
3.65553599
 30
0.0
  0
VERTEX
  8
0
  6
CONTINUOUS
 62
       7
  5
6F3
 10
-238.73178956
 20
3.74108894
 30
0.0
  0
VERTEX
  8
0
  6
CONTINUOUS
 62
       7
  5
6F4
 10
-238.75673252
 20
3.82547189
 30
0.0
  0
VERTEX
  8
0
  6
CONTINUOUS
 62
       7
  5
6F5
 10
-238.78450094
 20
3.90811967
 30
0.0
  0
VERTEX
  8
0
  6
CONTINUOUS
 62
       7
  5
6F6
 10
-238.81461891
 20
3.98846708
 30
0.0
  0
VERTEX
  8
0
  6
CONTINUOUS
 62
       7
  5
6F7
 10
-238.84661056
 20
4.06594892
 30
0.0
  0
VERTEX
  8
0
  6
CONTINUOUS
 62
       7
  5
6F8
 10
-238.88
 20
4.14
 30
0.0
  0
SEQEND
  8
0
  6
CONTINUOUS
 62
       7
  5
6F9
  0
POLYLINE
  8
0
  6
CONTINUOUS
 62
       7
  5
3A
 66
       1
 10
0.0
 20
0.0
 30
0.0
  0
VERTEX
  8
0
  6
CONTINUOUS
 62
       7
  5
6FA
 10
-223.78
 20
-2.26
 30
0.0
  0
VERTEX
  8
0
  6
CONTINUOUS
 62
       7
  5
6FB
 10
-223.79253449
 20
-2.3374417
 30
0.0
  0
VERTEX
  8
0
  6
CONTINUOUS
 62
       7
  5
6FC
 10
-223.8044623
 20
-2.41498807
 30
0.0
  0
VERTEX
  8
0
  6
CONTINUOUS
 62
       7
  5
6FD
 10
-223.81576764
 20
-2.49264267
 30
0.0
  0
VERTEX
  8
0
  6
CONTINUOUS
 62
       7
  5
6FE
 10
-223.82643474
 20
-2.57040906
 30
0.0
  0
VERTEX
  8
0
  6
CONTINUOUS
 62
       7
  5
6FF
 10
-223.83644783
 20
-2.64829081
 30
0.0
  0
VERTEX
  8
0
  6
CONTINUOUS
 62
       7
  5
700
 10
-223.84579114
 20
-2.72629147
 30
0.0
  0
VERTEX
  8
0
  6
CONTINUOUS
 62
       7
  5
701
 10
-223.85444889
 20
-2.80441462
 30
0.0
  0
VERTEX
  8
0
  6
CONTINUOUS
 62
       7
  5
702
 10
-223.86240531
 20
-2.88266382
 30
0.0
  0
VERTEX
  8
0
  6
CONTINUOUS
 62
       7
  5
703
 10
-223.86964462
 20
-2.96104262
 30
0.0
  0
VERTEX
  8
0
  6
CONTINUOUS
 62
       7
  5
704
 10
-223.87615106
 20
-3.03955459
 30
0.0
  0
VERTEX
  8
0
  6
CONTINUOUS
 62
       7
  5
705
 10
-223.88190884
 20
-3.1182033
 30
0.0
  0
VERTEX
  8
0
  6
CONTINUOUS
 62
       7
  5
706
 10
-223.8869022
 20
-3.19699231
 30
0.0
  0
VERTEX
  8
0
  6
CONTINUOUS
 62
       7
  5
707
 10
-223.89111535
 20
-3.27592517
 30
0.0
  0
VERTEX
  8
0
  6
CONTINUOUS
 62
       7
  5
708
 10
-223.89453253
 20
-3.35500546
 30
0.0
  0
VERTEX
  8
0
  6
CONTINUOUS
 62
       7
  5
709
 10
-223.89713797
 20
-3.43423673
 30
0.0
  0
VERTEX
  8
0
  6
CONTINUOUS
 62
       7
  5
70A
 10
-223.89891589
 20
-3.51362255
 30
0.0
  0
SEQEND
  8
0
  6
CONTINUOUS
 62
       7
  5
70B
  0
POLYLINE
  8
0
  6
CONTINUOUS
 62
       7
  5
3B
 66
       1
 10
0.0
 20
0.0
 30
0.0
  0
VERTEX
  8
0
  6
CONTINUOUS
 62
       7
  5
70C
 10
-223.89889504
 20
-6.50607242
 30
0.0
  0
VERTEX
  8
0
  6
CONTINUOUS
 62
       7
  5
70D
 10
-223.89710647
 20
-6.58473244
 30
0.0
  0
VERTEX
  8
0
  6
CONTINUOUS
 62
       7
  5
70E
 10
-223.89449219
 20
-6.66344077
 30
0.0
  0
VERTEX
  8
0
  6
CONTINUOUS
 62
       7
  5
70F
 10
-223.89106792
 20
-6.74217877
 30
0.0
  0
VERTEX
  8
0
  6
CONTINUOUS
 62
       7
  5
710
 10
-223.88684939
 20
-6.82092782
 30
0.0
  0
VERTEX
  8
0
  6
CONTINUOUS
 62
       7
  5
711
 10
-223.88185233
 20
-6.89966931
 30
0.0
  0
VERTEX
  8
0
  6
CONTINUOUS
 62
       7
  5
712
 10
-223.87609247
 20
-6.97838461
 30
0.0
  0
VERTEX
  8
0
  6
CONTINUOUS
 62
       7
  5
713
 10
-223.86958553
 20
-7.05705509
 30
0.0
  0
VERTEX
  8
0
  6
CONTINUOUS
 62
       7
  5
714
 10
-223.86234725
 20
-7.13566213
 30
0.0
  0
VERTEX
  8
0
  6
CONTINUOUS
 62
       7
  5
715
 10
-223.85439336
 20
-7.21418712
 30
0.0
  0
VERTEX
  8
0
  6
CONTINUOUS
 62
       7
  5
716
 10
-223.84573957
 20
-7.29261142
 30
0.0
  0
VERTEX
  8
0
  6
CONTINUOUS
 62
       7
  5
717
 10
-223.83640162
 20
-7.37091642
 30
0.0
  0
VERTEX
  8
0
  6
CONTINUOUS
 62
       7
  5
718
 10
-223.82639525
 20
-7.44908348
 30
0.0
  0
VERTEX
  8
0
  6
CONTINUOUS
 62
       7
  5
719
 10
-223.81573617
 20
-7.527094
 30
0.0
  0
VERTEX
  8
0
  6
CONTINUOUS
 62
       7
  5
71A
 10
-223.80444011
 20
-7.60492934
 30
0.0
  0
VERTEX
  8
0
  6
CONTINUOUS
 62
       7
  5
71B
 10
-223.79252282
 20
-7.68257088
 30
0.0
  0
VERTEX
  8
0
  6
CONTINUOUS
 62
       7
  5
71C
 10
-223.78
 20
-7.76
 30
0.0
  0
SEQEND
  8
0
  6
CONTINUOUS
 62
       7
  5
71D
  0
POLYLINE
  8
0
  6
CONTINUOUS
 62
       7
  5
3C
 66
       1
 10
0.0
 20
0.0
 30
0.0
  0
VERTEX
  8
0
  6
CONTINUOUS
 62
       7
  5
71E
 10
-221.6
 20
-2.26
 30
0.0
  0
VERTEX
  8
0
  6
CONTINUOUS
 62
       7
  5
71F
 10
-221.58647903
 20
-2.34513244
 30
0.0
  0
VERTEX
  8
0
  6
CONTINUOUS
 62
       7
  5
720
 10
-221.57410319
 20
-2.43039148
 30
0.0
  0
VERTEX
  8
0
  6
CONTINUOUS
 62
       7
  5
721
 10
-221.56283484
 20
-2.51578193
 30
0.0
  0
VERTEX
  8
0
  6
CONTINUOUS
 62
       7
  5
722
 10
-221.55263633
 20
-2.60130857
 30
0.0
  0
VERTEX
  8
0
  6
CONTINUOUS
 62
       7
  5
723
 10
-221.54347002
 20
-2.68697622
 30
0.0
  0
VERTEX
  8
0
  6
CONTINUOUS
 62
       7
  5
724
 10
-221.53529826
 20
-2.77278968
 30
0.0
  0
VERTEX
  8
0
  6
CONTINUOUS
 62
       7
  5
725
 10
-221.52808342
 20
-2.85875375
 30
0.0
  0
VERTEX
  8
0
  6
CONTINUOUS
 62
       7
  5
726
 10
-221.52178785
 20
-2.94487322
 30
0.0
  0
VERTEX
  8
0
  6
CONTINUOUS
 62
       7
  5
727
 10
-221.51637392
 20
-3.03115291
 30
0.0
  0
VERTEX
  8
0
  6
CONTINUOUS
 62
       7
  5
728
 10
-221.51180397
 20
-3.11759761
 30
0.0
  0
VERTEX
  8
0
  6
CONTINUOUS
 62
       7
  5
729
 10
-221.50804036
 20
-3.20421213
 30
0.0
  0
VERTEX
  8
0
  6
CONTINUOUS
 62
       7
  5
72A
 10
-221.50504545
 20
-3.29100126
 30
0.0
  0
VERTEX
  8
0
  6
CONTINUOUS
 62
       7
  5
72B
 10
-221.50278161
 20
-3.37796981
 30
0.0
  0
VERTEX
  8
0
  6
CONTINUOUS
 62
       7
  5
72C
 10
-221.50121118
 20
-3.46512259
 30
0.0
  0
VERTEX
  8
0
  6
CONTINUOUS
 62
       7
  5
72D
 10
-221.50029652
 20
-3.55246438
 30
0.0
  0
VERTEX
  8
0
  6
CONTINUOUS
 62
       7
  5
72E
 10
-221.5
 20
-3.64
 30
0.0
  0
VERTEX
  8
0
  6
CONTINUOUS
 62
       7
  5
72F
 10
-221.50029651
 20
-3.72620062
 30
0.0
  0
VERTEX
  8
0
  6
CONTINUOUS
 62
       7
  5
730
 10
-221.50121116
 20
-3.81208348
 30
0.0
  0
VERTEX
  8
0
  6
CONTINUOUS
 62
       7
  5
731
 10
-221.50278158
 20
-3.89768238
 30
0.0
  0
VERTEX
  8
0
  6
CONTINUOUS
 62
       7
  5
732
 10
-221.50504542
 20
-3.9830311
 30
0.0
  0
VERTEX
  8
0
  6
CONTINUOUS
 62
       7
  5
733
 10
-221.50804032
 20
-4.06816342
 30
0.0
  0
VERTEX
  8
0
  6
CONTINUOUS
 62
       7
  5
734
 10
-221.51180393
 20
-4.15311314
 30
0.0
  0
VERTEX
  8
0
  6
CONTINUOUS
 62
       7
  5
735
 10
-221.51637388
 20
-4.23791404
 30
0.0
  0
VERTEX
  8
0
  6
CONTINUOUS
 62
       7
  5
736
 10
-221.52178781
 20
-4.3225999
 30
0.0
  0
VERTEX
  8
0
  6
CONTINUOUS
 62
       7
  5
737
 10
-221.52808338
 20
-4.40720452
 30
0.0
  0
VERTEX
  8
0
  6
CONTINUOUS
 62
       7
  5
738
 10
-221.53529822
 20
-4.49176167
 30
0.0
  0
VERTEX
  8
0
  6
CONTINUOUS
 62
       7
  5
739
 10
-221.54346998
 20
-4.57630516
 30
0.0
  0
VERTEX
  8
0
  6
CONTINUOUS
 62
       7
  5
73A
 10
-221.5526363
 20
-4.66086875
 30
0.0
  0
VERTEX
  8
0
  6
CONTINUOUS
 62
       7
  5
73B
 10
-221.56283482
 20
-4.74548625
 30
0.0
  0
VERTEX
  8
0
  6
CONTINUOUS
 62
       7
  5
73C
 10
-221.57410318
 20
-4.83019143
 30
0.0
  0
VERTEX
  8
0
  6
CONTINUOUS
 62
       7
  5
73D
 10
-221.58647902
 20
-4.91501809
 30
0.0
  0
VERTEX
  8
0
  6
CONTINUOUS
 62
       7
  5
73E
 10
-221.6
 20
-5.0
 30
0.0
  0
SEQEND
  8
0
  6
CONTINUOUS
 62
       7
  5
73F
  0
POLYLINE
  8
0
  6
CONTINUOUS
 62
       7
  5
3D
 66
       1
 10
0.0
 20
0.0
 30
0.0
  0
VERTEX
  8
0
  6
CONTINUOUS
 62
       7
  5
740
 10
-221.6
 20
-5.0
 30
0.0
  0
VERTEX
  8
0
  6
CONTINUOUS
 62
       7
  5
741
 10
-221.58647902
 20
-5.08520653
 30
0.0
  0
VERTEX
  8
0
  6
CONTINUOUS
 62
       7
  5
742
 10
-221.57410317
 20
-5.17066795
 30
0.0
  0
VERTEX
  8
0
  6
CONTINUOUS
 62
       7
  5
743
 10
-221.5628348
 20
-5.25635945
 30
0.0
  0
VERTEX
  8
0
  6
CONTINUOUS
 62
       7
  5
744
 10
-221.55263628
 20
-5.34225622
 30
0.0
  0
VERTEX
  8
0
  6
CONTINUOUS
 62
       7
  5
745
 10
-221.54346997
 20
-5.42833346
 30
0.0
  0
VERTEX
  8
0
  6
CONTINUOUS
 62
       7
  5
746
 10
-221.53529821
 20
-5.51456637
 30
0.0
  0
VERTEX
  8
0
  6
CONTINUOUS
 62
       7
  5
747
 10
-221.52808337
 20
-5.60093014
 30
0.0
  0
VERTEX
  8
0
  6
CONTINUOUS
 62
       7
  5
748
 10
-221.5217878
 20
-5.68739997
 30
0.0
  0
VERTEX
  8
0
  6
CONTINUOUS
 62
       7
  5
749
 10
-221.51637386
 20
-5.77395104
 30
0.0
  0
VERTEX
  8
0
  6
CONTINUOUS
 62
       7
  5
74A
 10
-221.51180391
 20
-5.86055857
 30
0.0
  0
VERTEX
  8
0
  6
CONTINUOUS
 62
       7
  5
74B
 10
-221.50804031
 20
-5.94719773
 30
0.0
  0
VERTEX
  8
0
  6
CONTINUOUS
 62
       7
  5
74C
 10
-221.50504541
 20
-6.03384373
 30
0.0
  0
VERTEX
  8
0
  6
CONTINUOUS
 62
       7
  5
74D
 10
-221.50278157
 20
-6.12047176
 30
0.0
  0
VERTEX
  8
0
  6
CONTINUOUS
 62
       7
  5
74E
 10
-221.50121115
 20
-6.20705702
 30
0.0
  0
VERTEX
  8
0
  6
CONTINUOUS
 62
       7
  5
74F
 10
-221.50029651
 20
-6.2935747
 30
0.0
  0
VERTEX
  8
0
  6
CONTINUOUS
 62
       7
  5
750
 10
-221.5
 20
-6.38
 30
0.0
  0
VERTEX
  8
0
  6
CONTINUOUS
 62
       7
  5
751
 10
-221.50029653
 20
-6.4664253
 30
0.0
  0
VERTEX
  8
0
  6
CONTINUOUS
 62
       7
  5
752
 10
-221.50121118
 20
-6.552943
 30
0.0
  0
VERTEX
  8
0
  6
CONTINUOUS
 62
       7
  5
753
 10
-221.50278162
 20
-6.63952827
 30
0.0
  0
VERTEX
  8
0
  6
CONTINUOUS
 62
       7
  5
754
 10
-221.50504546
 20
-6.72615633
 30
0.0
  0
VERTEX
  8
0
  6
CONTINUOUS
 62
       7
  5
755
 10
-221.50804037
 20
-6.81280236
 30
0.0
  0
VERTEX
  8
0
  6
CONTINUOUS
 62
       7
  5
756
 10
-221.51180398
 20
-6.89944155
 30
0.0
  0
VERTEX
  8
0
  6
CONTINUOUS
 62
       7
  5
757
 10
-221.51637393
 20
-6.9860491
 30
0.0
  0
VERTEX
  8
0
  6
CONTINUOUS
 62
       7
  5
758
 10
-221.52178787
 20
-7.0726002
 30
0.0
  0
VERTEX
  8
0
  6
CONTINUOUS
 62
       7
  5
759
 10
-221.52808344
 20
-7.15907004
 30
0.0
  0
VERTEX
  8
0
  6
CONTINUOUS
 62
       7
  5
75A
 10
-221.53529828
 20
-7.24543382
 30
0.0
  0
VERTEX
  8
0
  6
CONTINUOUS
 62
       7
  5
75B
 10
-221.54347003
 20
-7.33166673
 30
0.0
  0
VERTEX
  8
0
  6
CONTINUOUS
 62
       7
  5
75C
 10
-221.55263634
 20
-7.41774397
 30
0.0
  0
VERTEX
  8
0
  6
CONTINUOUS
 62
       7
  5
75D
 10
-221.56283485
 20
-7.50364072
 30
0.0
  0
VERTEX
  8
0
  6
CONTINUOUS
 62
       7
  5
75E
 10
-221.5741032
 20
-7.58933218
 30
0.0
  0
VERTEX
  8
0
  6
CONTINUOUS
 62
       7
  5
75F
 10
-221.58647904
 20
-7.67479354
 30
0.0
  0
VERTEX
  8
0
  6
CONTINUOUS
 62
       7
  5
760
 10
-221.6
 20
-7.76
 30
0.0
  0
SEQEND
  8
0
  6
CONTINUOUS
 62
       7
  5
761
  0
LINE
  8
0
  6
CONTINUOUS
 62
       7
  5
3E
 10
41.0
 20
157.8
 30
0.0
 11
41.0
 21
77.8
 31
0.0
  0
LINE
  8
0
  6
CONTINUOUS
 62
       2
  5
3F
 10
75.5
 20
156.8
 30
0.0
 11
75.5
 21
148.8
 31
0.0
  0
LINE
  8
0
  6
CONTINUOUS
 62
       2
  5
40
 10
71.5
 20
152.8
 30
0.0
 11
79.5
 21
152.8
 31
0.0
  0
LINE
  8
0
  6
CONTINUOUS
 62
       2
  5
41
 10
75.5
 20
86.8
 30
0.0
 11
75.5
 21
78.8
 31
0.0
  0
LINE
  8
0
  6
CONTINUOUS
 62
       2
  5
42
 10
71.5
 20
82.8
 30
0.0
 11
79.5
 21
82.8
 31
0.0
  0
LINE
  8
0
  6
CONTINUOUS
 62
       2
  5
43
 10
160.5
 20
124.8
 30
0.0
 11
160.5
 21
110.8
 31
0.0
  0
LINE
  8
0
  6
CONTINUOUS
 62
       2
  5
44
 10
90.5
 20
124.8
 30
0.0
 11
90.5
 21
110.8
 31
0.0
  0
LINE
  8
0
  6
CONTINUOUS
 62
       2
  5
45
 10
55.5
 20
122.8
 30
0.0
 11
55.5
 21
112.8
 31
0.0
  0
LINE
  8
0
  6
CONTINUOUS
 62
       7
  5
46
 10
-40.0
 20
159.8
 30
0.0
 11
-40.0
 21
75.8
 31
0.0
  0
LINE
  8
0
  6
CONTINUOUS
 62
       7
  5
47
 10
-54.0
 20
159.8
 30
0.0
 11
-54.0
 21
75.8
 31
0.0
  0
LINE
  8
0
  6
CONTINUOUS
 62
       7
  5
48
 10
-54.0
 20
159.8
 30
0.0
 11
-40.0
 21
159.8
 31
0.0
  0
LINE
  8
0
  6
CONTINUOUS
 62
       7
  5
49
 10
-54.0
 20
75.8
 30
0.0
 11
-40.0
 21
75.8
 31
0.0
  0
LINE
  8
0
  6
CONTINUOUS
 62
       2
  5
4A
 10
-54.0
 20
82.8
 30
0.0
 11
-42.0
 21
82.8
 31
0.0
  0
LINE
  8
0
  6
CONTINUOUS
 62
       2
  5
4B
 10
-48.0
 20
76.8
 30
0.0
 11
-48.0
 21
88.8
 31
0.0
  0
LINE
  8
0
  6
CONTINUOUS
 62
       2
  5
4C
 10
-54.0
 20
152.8
 30
0.0
 11
-42.0
 21
152.8
 31
0.0
  0
LINE
  8
0
  6
CONTINUOUS
 62
       2
  5
4D
 10
-48.0
 20
146.8
 30
0.0
 11
-48.0
 21
158.8
 31
0.0
  0
LINE
  8
0
  6
CONTINUOUS
 62
       2
  5
4E
 10
-45.0
 20
101.8
 30
0.0
 11
-45.0
 21
93.8
 31
0.0
  0
LINE
  8
0
  6
CONTINUOUS
 62
       7
  5
4F
 10
-46.5
 20
98.66
 30
0.0
 11
-45.0
 21
99.52
 31
0.0
  0
LINE
  8
0
  6
CONTINUOUS
 62
       7
  5
50
 10
-45.0
 20
96.06
 30
0.0
 11
-43.5
 21
96.92
 31
0.0
  0
LINE
  8
0
  6
CONTINUOUS
 62
       7
  5
51
 10
-45.0
 20
99.52
 30
0.0
 11
-43.5
 21
98.66
 31
0.0
  0
LINE
  8
0
  6
CONTINUOUS
 62
       7
  5
52
 10
-46.5
 20
96.92
 30
0.0
 11
-45.0
 21
96.06
 31
0.0
  0
LINE
  8
0
  6
CONTINUOUS
 62
       7
  5
53
 10
-46.5
 20
98.66
 30
0.0
 11
-46.5
 21
96.92
 31
0.0
  0
LINE
  8
0
  6
CONTINUOUS
 62
       7
  5
54
 10
-43.5
 20
98.66
 30
0.0
 11
-43.5
 21
96.92
 31
0.0
  0
LINE
  8
0
  6
CONTINUOUS
 62
       2
  5
55
 10
-45.0
 20
141.8
 30
0.0
 11
-45.0
 21
133.8
 31
0.0
  0
LINE
  8
0
  6
CONTINUOUS
 62
       7
  5
56
 10
-46.5
 20
138.66
 30
0.0
 11
-45.0
 21
139.52
 31
0.0
  0
LINE
  8
0
  6
CONTINUOUS
 62
       7
  5
57
 10
-45.0
 20
136.06
 30
0.0
 11
-43.5
 21
136.92
 31
0.0
  0
LINE
  8
0
  6
CONTINUOUS
 62
       7
  5
58
 10
-45.0
 20
139.52
 30
0.0
 11
-43.5
 21
138.66
 31
0.0
  0
LINE
  8
0
  6
CONTINUOUS
 62
       7
  5
59
 10
-46.5
 20
136.92
 30
0.0
 11
-45.0
 21
136.06
 31
0.0
  0
LINE
  8
0
  6
CONTINUOUS
 62
       7
  5
5A
 10
-46.5
 20
138.66
 30
0.0
 11
-46.5
 21
136.92
 31
0.0
  0
LINE
  8
0
  6
CONTINUOUS
 62
       7
  5
5B
 10
-43.5
 20
138.66
 30
0.0
 11
-43.5
 21
136.92
 31
0.0
  0
LINE
  8
0
  6
CONTINUOUS
 62
       7
  5
5C
 10
38.0
 20
110.8
 30
0.0
 11
38.28
 21
109.7
 31
0.0
  0
LINE
  8
0
  6
CONTINUOUS
 62
       7
  5
5D
 10
38.0
 20
124.8
 30
0.0
 11
38.28
 21
125.88
 31
0.0
  0
LINE
  8
0
  6
CONTINUOUS
 62
       7
  5
5E
 10
38.0
 20
124.8
 30
0.0
 11
38.0
 21
110.8
 31
0.0
  0
LINE
  8
0
  6
CONTINUOUS
 62
       7
  5
5F
 10
38.28
 20
125.88
 30
0.0
 11
41.0
 21
125.88
 31
0.0
  0
LINE
  8
0
  6
CONTINUOUS
 62
       7
  5
60
 10
38.28
 20
109.7
 30
0.0
 11
41.0
 21
109.7
 31
0.0
  0
LINE
  8
0
  6
CONTINUOUS
 62
       7
  5
61
 10
38.28
 20
121.84
 30
0.0
 11
41.0
 21
121.84
 31
0.0
  0
LINE
  8
0
  6
CONTINUOUS
 62
       7
  5
62
 10
38.28
 20
113.74
 30
0.0
 11
41.0
 21
113.74
 31
0.0
  0
LINE
  8
0
  6
CONTINUOUS
 62
       7
  5
63
 10
-58.0
 20
124.8
 30
0.0
 11
-58.0
 21
110.8
 31
0.0
  0
LINE
  8
0
  6
CONTINUOUS
 62
       7
  5
64
 10
-57.72
 20
125.88
 30
0.0
 11
-54.3
 21
125.88
 31
0.0
  0
LINE
  8
0
  6
CONTINUOUS
 62
       7
  5
65
 10
-57.72
 20
109.7
 30
0.0
 11
-54.3
 21
109.7
 31
0.0
  0
LINE
  8
0
  6
CONTINUOUS
 62
       7
  5
66
 10
-57.72
 20
121.84
 30
0.0
 11
-54.3
 21
121.84
 31
0.0
  0
LINE
  8
0
  6
CONTINUOUS
 62
       7
  5
67
 10
-57.72
 20
113.74
 30
0.0
 11
-54.3
 21
113.74
 31
0.0
  0
LINE
  8
0
  6
CONTINUOUS
 62
       7
  5
68
 10
-58.0
 20
124.8
 30
0.0
 11
-57.72
 21
125.88
 31
0.0
  0
LINE
  8
0
  6
CONTINUOUS
 62
       7
  5
69
 10
-54.3
 20
109.7
 30
0.0
 11
-54.0
 21
110.8
 31
0.0
  0
LINE
  8
0
  6
CONTINUOUS
 62
       7
  5
6A
 10
-54.3
 20
125.88
 30
0.0
 11
-54.0
 21
124.8
 31
0.0
  0
LINE
  8
0
  6
CONTINUOUS
 62
       7
  5
6B
 10
-58.0
 20
110.8
 30
0.0
 11
-57.72
 21
109.7
 31
0.0
  0
LINE
  8
0
  6
CONTINUOUS
 62
       7
  5
6C
 10
-40.0
 20
123.8
 30
0.0
 11
-37.5
 21
123.8
 31
0.0
  0
LINE
  8
0
  6
CONTINUOUS
 62
       7
  5
6D
 10
-40.0
 20
-12.0
 30
0.0
 11
-37.5
 21
-12.0
 31
0.0
  0
LINE
  8
0
  6
CONTINUOUS
 62
       2
  5
6E
 10
-40.0
 20
-11.0
 30
0.0
 11
-37.0
 21
-11.0
 31
0.0
  0
LINE
  8
0
  6
CONTINUOUS
 62
       2
  5
6F
 10
-40.0
 20
122.8
 30
0.0
 11
-37.0
 21
122.8
 31
0.0
  0
LINE
  8
0
  6
CONTINUOUS
 62
       7
  5
70
 10
-37.5
 20
-12.0
 30
0.0
 11
-37.0
 21
-11.5
 31
0.0
  0
LINE
  8
0
  6
CONTINUOUS
 62
       7
  5
71
 10
-37.5
 20
123.8
 30
0.0
 11
-37.0
 21
123.3
 31
0.0
  0
LINE
  8
0
  6
CONTINUOUS
 62
       7
  5
72
 10
-37.5
 20
-12.0
 30
0.0
 11
-37.5
 21
-6.0
 31
0.0
  0
LINE
  8
0
  6
CONTINUOUS
 62
       7
  5
73
 10
-40.0
 20
131.8
 30
0.0
 11
41.0
 21
131.8
 31
0.0
  0
LINE
  8
0
  6
CONTINUOUS
 62
       7
  5
74
 10
-40.0
 20
143.8
 30
0.0
 11
41.0
 21
143.8
 31
0.0
  0
LINE
  8
0
  6
CONTINUOUS
 62
       7
  5
75
 10
-40.0
 20
103.8
 30
0.0
 11
41.0
 21
103.8
 31
0.0
  0
LINE
  8
0
  6
CONTINUOUS
 62
       7
  5
76
 10
-40.0
 20
91.8
 30
0.0
 11
41.0
 21
91.8
 31
0.0
  0
LINE
  8
0
  6
CONTINUOUS
 62
       2
  5
77
 10
-65.0
 20
117.8
 30
0.0
 11
230.36
 21
117.8
 31
0.0
  0
LINE
  8
0
  6
CONTINUOUS
 62
       7
  5
78
 10
41.0
 20
157.8
 30
0.0
 11
210.0
 21
157.8
 31
0.0
  0
LINE
  8
0
  6
CONTINUOUS
 62
       7
  5
79
 10
41.0
 20
77.8
 30
0.0
 11
210.0
 21
77.8
 31
0.0
  0
LINE
  8
0
  6
CONTINUOUS
 62
       7
  5
7A
 10
41.0
 20
93.8
 30
0.0
 11
210.0
 21
93.8
 31
0.0
  0
LINE
  8
0
  6
CONTINUOUS
 62
       7
  5
7B
 10
41.0
 20
141.8
 30
0.0
 11
210.0
 21
141.8
 31
0.0
  0
LINE
  8
0
  6
CONTINUOUS
 62
       7
  5
7C
 10
41.0
 20
126.8
 30
0.0
 11
210.0
 21
126.8
 31
0.0
  0
LINE
  8
0
  6
CONTINUOUS
 62
       7
  5
7D
 10
41.0
 20
108.8
 30
0.0
 11
210.0
 21
108.8
 31
0.0
  0
LINE
  8
0
  6
CONTINUOUS
 62
       7
  5
7E
 10
41.0
 20
142.8
 30
0.0
 11
210.0
 21
142.8
 31
0.0
  0
LINE
  8
0
  6
CONTINUOUS
 62
       7
  5
7F
 10
41.0
 20
125.8
 30
0.0
 11
210.0
 21
125.8
 31
0.0
  0
LINE
  8
0
  6
CONTINUOUS
 62
       7
  5
80
 10
41.0
 20
92.8
 30
0.0
 11
210.0
 21
92.8
 31
0.0
  0
LINE
  8
0
  6
CONTINUOUS
 62
       7
  5
81
 10
41.0
 20
109.8
 30
0.0
 11
210.0
 21
109.8
 31
0.0
  0
LINE
  8
0
  6
CONTINUOUS
 62
       2
  5
82
 10
175.5
 20
156.8
 30
0.0
 11
175.5
 21
148.8
 31
0.0
  0
LINE
  8
0
  6
CONTINUOUS
 62
       2
  5
83
 10
171.5
 20
152.8
 30
0.0
 11
179.5
 21
152.8
 31
0.0
  0
LINE
  8
0
  6
CONTINUOUS
 62
       2
  5
84
 10
175.5
 20
86.8
 30
0.0
 11
175.5
 21
78.8
 31
0.0
  0
LINE
  8
0
  6
CONTINUOUS
 62
       2
  5
85
 10
171.5
 20
82.8
 30
0.0
 11
179.5
 21
82.8
 31
0.0
  0
LINE
  8
0
  6
CONTINUOUS
 62
       2
  5
86
 10
195.5
 20
122.8
 30
0.0
 11
195.5
 21
112.8
 31
0.0
  0
LINE
  8
0
  6
CONTINUOUS
 62
       7
  5
87
 10
194.5
 20
120.8
 30
0.0
 11
196.5
 21
120.8
 31
0.0
  0
LINE
  8
0
  6
CONTINUOUS
 62
       7
  5
88
 10
194.5
 20
114.8
 30
0.0
 11
196.5
 21
114.8
 31
0.0
  0
LINE
  8
0
  6
CONTINUOUS
 62
       7
  5
89
 10
210.0
 20
75.8
 30
0.0
 11
210.0
 21
159.8
 31
0.0
  0
LINE
  8
0
  6
CONTINUOUS
 62
       7
  5
8A
 10
224.0
 20
75.8
 30
0.0
 11
224.0
 21
159.8
 31
0.0
  0
LINE
  8
0
  6
CONTINUOUS
 62
       7
  5
8B
 10
224.0
 20
75.8
 30
0.0
 11
210.0
 21
75.8
 31
0.0
  0
LINE
  8
0
  6
CONTINUOUS
 62
       7
  5
8C
 10
224.0
 20
159.8
 30
0.0
 11
210.0
 21
159.8
 31
0.0
  0
LINE
  8
0
  6
CONTINUOUS
 62
       2
  5
8D
 10
224.0
 20
152.8
 30
0.0
 11
212.0
 21
152.8
 31
0.0
  0
LINE
  8
0
  6
CONTINUOUS
 62
       2
  5
8E
 10
218.0
 20
158.8
 30
0.0
 11
218.0
 21
146.8
 31
0.0
  0
LINE
  8
0
  6
CONTINUOUS
 62
       2
  5
8F
 10
224.0
 20
82.8
 30
0.0
 11
212.0
 21
82.8
 31
0.0
  0
LINE
  8
0
  6
CONTINUOUS
 62
       2
  5
90
 10
218.0
 20
88.8
 30
0.0
 11
218.0
 21
76.8
 31
0.0
  0
LINE
  8
0
  6
CONTINUOUS
 62
       2
  5
91
 10
215.0
 20
133.8
 30
0.0
 11
215.0
 21
141.8
 31
0.0
  0
LINE
  8
0
  6
CONTINUOUS
 62
       7
  5
92
 10
216.5
 20
136.92
 30
0.0
 11
215.0
 21
136.06
 31
0.0
  0
LINE
  8
0
  6
CONTINUOUS
 62
       7
  5
93
 10
215.0
 20
139.52
 30
0.0
 11
213.5
 21
138.66
 31
0.0
  0
LINE
  8
0
  6
CONTINUOUS
 62
       7
  5
94
 10
215.0
 20
136.06
 30
0.0
 11
213.5
 21
136.92
 31
0.0
  0
LINE
  8
0
  6
CONTINUOUS
 62
       7
  5
95
 10
216.5
 20
138.66
 30
0.0
 11
215.0
 21
139.52
 31
0.0
  0
LINE
  8
0
  6
CONTINUOUS
 62
       7
  5
96
 10
216.5
 20
136.92
 30
0.0
 11
216.5
 21
138.66
 31
0.0
  0
LINE
  8
0
  6
CONTINUOUS
 62
       7
  5
97
 10
213.5
 20
136.92
 30
0.0
 11
213.5
 21
138.66
 31
0.0
  0
LINE
  8
0
  6
CONTINUOUS
 62
       2
  5
98
 10
215.0
 20
93.8
 30
0.0
 11
215.0
 21
101.8
 31
0.0
  0
LINE
  8
0
  6
CONTINUOUS
 62
       7
  5
99
 10
216.5
 20
96.92
 30
0.0
 11
215.0
 21
96.06
 31
0.0
  0
LINE
  8
0
  6
CONTINUOUS
 62
       7
  5
9A
 10
215.0
 20
99.52
 30
0.0
 11
213.5
 21
98.66
 31
0.0
  0
LINE
  8
0
  6
CONTINUOUS
 62
       7
  5
9B
 10
215.0
 20
96.06
 30
0.0
 11
213.5
 21
96.92
 31
0.0
  0
LINE
  8
0
  6
CONTINUOUS
 62
       7
  5
9C
 10
216.5
 20
98.66
 30
0.0
 11
215.0
 21
99.52
 31
0.0
  0
LINE
  8
0
  6
CONTINUOUS
 62
       7
  5
9D
 10
216.5
 20
96.92
 30
0.0
 11
216.5
 21
98.66
 31
0.0
  0
LINE
  8
0
  6
CONTINUOUS
 62
       7
  5
9E
 10
213.5
 20
96.92
 30
0.0
 11
213.5
 21
98.66
 31
0.0
  0
LINE
  8
0
  6
CONTINUOUS
 62
       2
  5
9F
 10
194.5
 20
113.8
 30
0.0
 11
194.5
 21
121.8
 31
0.0
  0
LINE
  8
0
  6
CONTINUOUS
 62
       2
  5
A0
 10
196.5
 20
113.8
 30
0.0
 11
196.5
 21
121.8
 31
0.0
  0
LINE
  8
0
  6
CONTINUOUS
 62
       2
  5
A1
 10
-65.0
 20
0.0
 30
0.0
 11
228.28
 21
0.0
 31
0.0
  0
LINE
  8
0
  6
CONTINUOUS
 62
       7
  5
A2
 10
41.0
 20
15.5
 30
0.0
 11
210.0
 21
15.5
 31
0.0
  0
LINE
  8
0
  6
CONTINUOUS
 62
       7
  5
A3
 10
41.0
 20
-15.5
 30
0.0
 11
210.0
 21
-15.5
 31
0.0
  0
LINE
  8
0
  6
CONTINUOUS
 62
       7
  5
A4
 10
41.0
 20
15.5
 30
0.0
 11
41.0
 21
-15.5
 31
0.0
  0
LINE
  8
0
  6
CONTINUOUS
 62
       7
  5
A5
 10
-40.0
 20
6.0
 30
0.0
 11
41.0
 21
6.0
 31
0.0
  0
LINE
  8
0
  6
CONTINUOUS
 62
       7
  5
A6
 10
-40.0
 20
-6.0
 30
0.0
 11
41.0
 21
-6.0
 31
0.0
  0
LINE
  8
0
  6
CONTINUOUS
 62
       7
  5
A7
 10
-54.0
 20
14.0
 30
0.0
 11
-54.0
 21
-17.0
 31
0.0
  0
LINE
  8
0
  6
CONTINUOUS
 62
       7
  5
A8
 10
-40.0
 20
14.0
 30
0.0
 11
-40.0
 21
-17.0
 31
0.0
  0
LINE
  8
0
  6
CONTINUOUS
 62
       7
  5
A9
 10
210.0
 20
15.5
 30
0.0
 11
210.0
 21
-17.0
 31
0.0
  0
LINE
  8
0
  6
CONTINUOUS
 62
       7
  5
AA
 10
224.0
 20
14.0
 30
0.0
 11
224.0
 21
-17.0
 31
0.0
  0
LINE
  8
0
  6
CONTINUOUS
 62
       7
  5
AB
 10
-54.0
 20
-17.0
 30
0.0
 11
-40.0
 21
-17.0
 31
0.0
  0
LINE
  8
0
  6
CONTINUOUS
 62
       7
  5
AC
 10
-54.0
 20
14.0
 30
0.0
 11
-40.0
 21
14.0
 31
0.0
  0
LINE
  8
0
  6
CONTINUOUS
 62
       7
  5
AD
 10
210.0
 20
14.0
 30
0.0
 11
224.0
 21
14.0
 31
0.0
  0
LINE
  8
0
  6
CONTINUOUS
 62
       7
  5
AE
 10
210.0
 20
-17.0
 30
0.0
 11
224.0
 21
-17.0
 31
0.0
  0
LINE
  8
0
  6
CONTINUOUS
 62
       2
  5
AF
 10
-61.58
 20
112.8
 30
0.0
 11
-58.0
 21
112.8
 31
0.0
  0
LINE
  8
0
  6
CONTINUOUS
 62
       7
  5
B0
 10
-61.0
 20
111.8
 30
0.0
 11
-58.0
 21
111.8
 31
0.0
  0
LINE
  8
0
  6
CONTINUOUS
 62
       7
  5
B1
 10
-62.0
 20
113.52
 30
0.0
 11
-61.0
 21
111.8
 31
0.0
  0
LINE
  8
0
  6
CONTINUOUS
 62
       7
  5
B2
 10
-61.0
 20
123.8
 30
0.0
 11
-61.0
 21
111.8
 31
0.0
  0
LINE
  8
0
  6
CONTINUOUS
 62
       7
  5
B3
 10
-62.0
 20
122.06
 30
0.0
 11
-62.0
 21
113.52
 31
0.0
  0
LINE
  8
0
  6
CONTINUOUS
 62
       7
  5
B4
 10
-62.0
 20
122.06
 30
0.0
 11
-61.0
 21
123.8
 31
0.0
  0
LINE
  8
0
  6
CONTINUOUS
 62
       2
  5
B5
 10
-61.58
 20
122.8
 30
0.0
 11
-58.0
 21
122.8
 31
0.0
  0
LINE
  8
0
  6
CONTINUOUS
 62
       7
  5
B6
 10
-61.0
 20
123.8
 30
0.0
 11
-58.0
 21
123.8
 31
0.0
  0
LINE
  8
0
  6
CONTINUOUS
 62
       7
  5
B7
 10
-62.0
 20
-1.74
 30
0.0
 11
-62.0
 21
-10.28
 31
0.0
  0
LINE
  8
0
  6
CONTINUOUS
 62
       7
  5
B8
 10
-61.0
 20
-12.0
 30
0.0
 11
-58.0
 21
-12.0
 31
0.0
  0
LINE
  8
0
  6
CONTINUOUS
 62
       7
  5
B9
 10
-61.0
 20
0.0
 30
0.0
 11
-58.0
 21
0.0
 31
0.0
  0
LINE
  8
0
  6
CONTINUOUS
 62
       7
  5
BA
 10
-61.0
 20
0.0
 30
0.0
 11
-61.0
 21
-12.0
 31
0.0
  0
LINE
  8
0
  6
CONTINUOUS
 62
       7
  5
BB
 10
-62.0
 20
-1.74
 30
0.0
 11
-61.0
 21
0.0
 31
0.0
  0
LINE
  8
0
  6
CONTINUOUS
 62
       7
  5
BC
 10
-62.0
 20
-10.28
 30
0.0
 11
-61.0
 21
-12.0
 31
0.0
  0
LINE
  8
0
  6
CONTINUOUS
 62
       2
  5
BD
 10
-61.58
 20
-11.0
 30
0.0
 11
-58.0
 21
-11.0
 31
0.0
  0
LINE
  8
0
  6
CONTINUOUS
 62
       2
  5
BE
 10
-61.58
 20
-1.0
 30
0.0
 11
-58.0
 21
-1.0
 31
0.0
  0
LINE
  8
0
  6
CONTINUOUS
 62
       7
  5
BF
 10
38.0
 20
-6.0
 30
0.0
 11
38.0
 21
-13.0
 31
0.0
  0
LINE
  8
0
  6
CONTINUOUS
 62
       7
  5
C0
 10
38.0
 20
-13.0
 30
0.0
 11
41.0
 21
-13.0
 31
0.0
  0
LINE
  8
0
  6
CONTINUOUS
 62
       7
  5
C1
 10
-57.72
 20
-6.0
 30
0.0
 11
-54.3
 21
-6.0
 31
0.0
  0
LINE
  8
0
  6
CONTINUOUS
 62
       7
  5
C2
 10
-58.0
 20
1.0
 30
0.0
 11
-54.0
 21
1.0
 31
0.0
  0
LINE
  8
0
  6
CONTINUOUS
 62
       7
  5
C3
 10
-58.0
 20
1.0
 30
0.0
 11
-58.0
 21
-13.0
 31
0.0
  0
LINE
  8
0
  6
CONTINUOUS
 62
       7
  5
C4
 10
-58.0
 20
-13.0
 30
0.0
 11
-54.0
 21
-13.0
 31
0.0
  0
LINE
  8
0
  6
CONTINUOUS
 62
       7
  5
C5
 10
-37.5
 20
111.8
 30
0.0
 11
-37.0
 21
112.3
 31
0.0
  0
LINE
  8
0
  6
CONTINUOUS
 62
       7
  5
C6
 10
-37.5
 20
111.8
 30
0.0
 11
-37.5
 21
123.8
 31
0.0
  0
LINE
  8
0
  6
CONTINUOUS
 62
       2
  5
C7
 10
-40.0
 20
112.8
 30
0.0
 11
-37.0
 21
112.8
 31
0.0
  0
LINE
  8
0
  6
CONTINUOUS
 62
       7
  5
C8
 10
-40.0
 20
111.8
 30
0.0
 11
-37.5
 21
111.8
 31
0.0
  0
LINE
  8
0
  6
CONTINUOUS
 62
       2
  5
C9
 10
210.5
 20
-5.0
 30
0.0
 11
214.5
 21
-5.0
 31
0.0
  0
LINE
  8
0
  6
CONTINUOUS
 62
       2
  5
CA
 10
212.5
 20
-3.0
 30
0.0
 11
212.5
 21
-7.0
 31
0.0
  0
LINE
  8
0
  6
CONTINUOUS
 62
       2
  5
CB
 10
-44.5
 20
-5.0
 30
0.0
 11
-40.5
 21
-5.0
 31
0.0
  0
LINE
  8
0
  6
CONTINUOUS
 62
       2
  5
CC
 10
-42.5
 20
-3.0
 30
0.0
 11
-42.5
 21
-7.0
 31
0.0
  0
LINE
  8
0
  6
CONTINUOUS
 62
       2
  5
CD
 10
188.0
 20
7.0
 30
0.0
 11
188.0
 21
-8.74
 31
0.0
  0
LINE
  8
0
  6
CONTINUOUS
 62
       2
  5
CE
 10
63.0
 20
7.0
 30
0.0
 11
63.0
 21
-7.0
 31
0.0
  0
LINE
  8
0
  6
CONTINUOUS
 62
       7
  5
CF
 10
41.0
 20
-162.8
 30
0.0
 11
41.0
 21
-82.8
 31
0.0
  0
LINE
  8
0
  6
CONTINUOUS
 62
       2
  5
D0
 10
160.5
 20
-129.8
 30
0.0
 11
160.5
 21
-115.8
 31
0.0
  0
LINE
  8
0
  6
CONTINUOUS
 62
       2
  5
D1
 10
90.5
 20
-129.8
 30
0.0
 11
90.5
 21
-115.8
 31
0.0
  0
LINE
  8
0
  6
CONTINUOUS
 62
       7
  5
D2
 10
-40.0
 20
-164.8
 30
0.0
 11
-40.0
 21
-80.8
 31
0.0
  0
LINE
  8
0
  6
CONTINUOUS
 62
       7
  5
D3
 10
-54.0
 20
-164.8
 30
0.0
 11
-54.0
 21
-80.8
 31
0.0
  0
LINE
  8
0
  6
CONTINUOUS
 62
       7
  5
D4
 10
-54.0
 20
-164.8
 30
0.0
 11
-40.0
 21
-164.8
 31
0.0
  0
LINE
  8
0
  6
CONTINUOUS
 62
       7
  5
D5
 10
-54.0
 20
-80.8
 30
0.0
 11
-40.0
 21
-80.8
 31
0.0
  0
LINE
  8
0
  6
CONTINUOUS
 62
       7
  5
D6
 10
38.0
 20
-115.8
 30
0.0
 11
38.28
 21
-114.7
 31
0.0
  0
LINE
  8
0
  6
CONTINUOUS
 62
       7
  5
D7
 10
38.0
 20
-129.8
 30
0.0
 11
38.28
 21
-130.88
 31
0.0
  0
LINE
  8
0
  6
CONTINUOUS
 62
       7
  5
D8
 10
38.0
 20
-129.8
 30
0.0
 11
38.0
 21
-115.8
 31
0.0
  0
LINE
  8
0
  6
CONTINUOUS
 62
       7
  5
D9
 10
38.28
 20
-130.88
 30
0.0
 11
41.0
 21
-130.88
 31
0.0
  0
LINE
  8
0
  6
CONTINUOUS
 62
       7
  5
DA
 10
38.28
 20
-114.7
 30
0.0
 11
41.0
 21
-114.7
 31
0.0
  0
LINE
  8
0
  6
CONTINUOUS
 62
       7
  5
DB
 10
38.28
 20
-126.84
 30
0.0
 11
41.0
 21
-126.84
 31
0.0
  0
LINE
  8
0
  6
CONTINUOUS
 62
       7
  5
DC
 10
38.28
 20
-118.74
 30
0.0
 11
41.0
 21
-118.74
 31
0.0
  0
LINE
  8
0
  6
CONTINUOUS
 62
       7
  5
DD
 10
-58.0
 20
-129.8
 30
0.0
 11
-58.0
 21
-115.8
 31
0.0
  0
LINE
  8
0
  6
CONTINUOUS
 62
       7
  5
DE
 10
-57.72
 20
-130.88
 30
0.0
 11
-54.3
 21
-130.88
 31
0.0
  0
LINE
  8
0
  6
CONTINUOUS
 62
       7
  5
DF
 10
-57.72
 20
-114.7
 30
0.0
 11
-54.3
 21
-114.7
 31
0.0
  0
LINE
  8
0
  6
CONTINUOUS
 62
       7
  5
E0
 10
-57.72
 20
-126.84
 30
0.0
 11
-54.3
 21
-126.84
 31
0.0
  0
LINE
  8
0
  6
CONTINUOUS
 62
       7
  5
E1
 10
-57.72
 20
-118.74
 30
0.0
 11
-54.3
 21
-118.74
 31
0.0
  0
LINE
  8
0
  6
CONTINUOUS
 62
       7
  5
E2
 10
-58.0
 20
-129.8
 30
0.0
 11
-57.72
 21
-130.88
 31
0.0
  0
LINE
  8
0
  6
CONTINUOUS
 62
       7
  5
E3
 10
-54.3
 20
-114.7
 30
0.0
 11
-54.0
 21
-115.8
 31
0.0
  0
LINE
  8
0
  6
CONTINUOUS
 62
       7
  5
E4
 10
-54.3
 20
-130.88
 30
0.0
 11
-54.0
 21
-129.8
 31
0.0
  0
LINE
  8
0
  6
CONTINUOUS
 62
       7
  5
E5
 10
-58.0
 20
-115.8
 30
0.0
 11
-57.72
 21
-114.7
 31
0.0
  0
LINE
  8
0
  6
CONTINUOUS
 62
       7
  5
E6
 10
-40.0
 20
-128.8
 30
0.0
 11
-37.5
 21
-128.8
 31
0.0
  0
LINE
  8
0
  6
CONTINUOUS
 62
       2
  5
E7
 10
-40.0
 20
-127.8
 30
0.0
 11
-37.0
 21
-127.8
 31
0.0
  0
LINE
  8
0
  6
CONTINUOUS
 62
       7
  5
E8
 10
-37.5
 20
-128.8
 30
0.0
 11
-37.0
 21
-128.3
 31
0.0
  0
LINE
  8
0
  6
CONTINUOUS
 62
       7
  5
E9
 10
-40.0
 20
-136.8
 30
0.0
 11
41.0
 21
-136.8
 31
0.0
  0
LINE
  8
0
  6
CONTINUOUS
 62
       7
  5
EA
 10
-40.0
 20
-148.8
 30
0.0
 11
41.0
 21
-148.8
 31
0.0
  0
LINE
  8
0
  6
CONTINUOUS
 62
       7
  5
EB
 10
-40.0
 20
-108.8
 30
0.0
 11
41.0
 21
-108.8
 31
0.0
  0
LINE
  8
0
  6
CONTINUOUS
 62
       7
  5
EC
 10
-40.0
 20
-96.8
 30
0.0
 11
41.0
 21
-96.8
 31
0.0
  0
LINE
  8
0
  6
CONTINUOUS
 62
       2
  5
ED
 10
-65.0
 20
-122.8
 30
0.0
 11
235.0
 21
-122.8
 31
0.0
  0
LINE
  8
0
  6
CONTINUOUS
 62
       7
  5
EE
 10
41.0
 20
-162.8
 30
0.0
 11
210.0
 21
-162.8
 31
0.0
  0
LINE
  8
0
  6
CONTINUOUS
 62
       7
  5
EF
 10
41.0
 20
-82.8
 30
0.0
 11
210.0
 21
-82.8
 31
0.0
  0
LINE
  8
0
  6
CONTINUOUS
 62
       7
  5
F0
 10
210.0
 20
-80.8
 30
0.0
 11
210.0
 21
-164.8
 31
0.0
  0
LINE
  8
0
  6
CONTINUOUS
 62
       7
  5
F1
 10
224.0
 20
-80.8
 30
0.0
 11
224.0
 21
-164.8
 31
0.0
  0
LINE
  8
0
  6
CONTINUOUS
 62
       7
  5
F2
 10
224.0
 20
-80.8
 30
0.0
 11
210.0
 21
-80.8
 31
0.0
  0
LINE
  8
0
  6
CONTINUOUS
 62
       7
  5
F3
 10
224.0
 20
-164.8
 30
0.0
 11
210.0
 21
-164.8
 31
0.0
  0
LINE
  8
0
  6
CONTINUOUS
 62
       2
  5
F4
 10
-61.58
 20
-117.8
 30
0.0
 11
-58.0
 21
-117.8
 31
0.0
  0
LINE
  8
0
  6
CONTINUOUS
 62
       7
  5
F5
 10
-61.0
 20
-116.8
 30
0.0
 11
-58.0
 21
-116.8
 31
0.0
  0
LINE
  8
0
  6
CONTINUOUS
 62
       7
  5
F6
 10
-62.0
 20
-118.52
 30
0.0
 11
-61.0
 21
-116.8
 31
0.0
  0
LINE
  8
0
  6
CONTINUOUS
 62
       7
  5
F7
 10
-61.0
 20
-128.8
 30
0.0
 11
-61.0
 21
-116.8
 31
0.0
  0
LINE
  8
0
  6
CONTINUOUS
 62
       7
  5
F8
 10
-62.0
 20
-127.06
 30
0.0
 11
-62.0
 21
-118.52
 31
0.0
  0
LINE
  8
0
  6
CONTINUOUS
 62
       7
  5
F9
 10
-62.0
 20
-127.06
 30
0.0
 11
-61.0
 21
-128.8
 31
0.0
  0
LINE
  8
0
  6
CONTINUOUS
 62
       2
  5
FA
 10
-61.58
 20
-127.8
 30
0.0
 11
-58.0
 21
-127.8
 31
0.0
  0
LINE
  8
0
  6
CONTINUOUS
 62
       7
  5
FB
 10
-61.0
 20
-128.8
 30
0.0
 11
-58.0
 21
-128.8
 31
0.0
  0
LINE
  8
0
  6
CONTINUOUS
 62
       7
  5
FC
 10
-37.5
 20
-116.8
 30
0.0
 11
-37.0
 21
-117.3
 31
0.0
  0
LINE
  8
0
  6
CONTINUOUS
 62
       7
  5
FD
 10
-37.5
 20
-116.8
 30
0.0
 11
-37.5
 21
-128.8
 31
0.0
  0
LINE
  8
0
  6
CONTINUOUS
 62
       2
  5
FE
 10
-40.0
 20
-117.8
 30
0.0
 11
-37.0
 21
-117.8
 31
0.0
  0
LINE
  8
0
  6
CONTINUOUS
 62
       7
  5
FF
 10
-40.0
 20
-116.8
 30
0.0
 11
-37.5
 21
-116.8
 31
0.0
  0
LINE
  8
0
  6
CONTINUOUS
 62
       2
  5
100
 10
213.0
 20
-157.8
 30
0.0
 11
223.0
 21
-157.8
 31
0.0
  0
LINE
  8
0
  6
CONTINUOUS
 62
       2
  5
101
 10
217.0
 20
-97.8
 30
0.0
 11
217.0
 21
-107.8
 31
0.0
  0
LINE
  8
0
  6
CONTINUOUS
 62
       2
  5
102
 10
218.0
 20
-152.8
 30
0.0
 11
218.0
 21
-162.8
 31
0.0
  0
LINE
  8
0
  6
CENTER
 62
       2
  5
104
 10
-47.0
 20
-97.8
 30
0.0
 11
-47.0
 21
-107.8
 31
0.0
  0
LINE
  8
0
  6
CONTINUOUS
 62
       2
  5
105
 10
-47.0
 20
-137.8
 30
0.0
 11
-47.0
 21
-147.8
 31
0.0
  0
LINE
  8
0
  6
CONTINUOUS
 62
       2
  5
106
 10
217.0
 20
-137.8
 30
0.0
 11
217.0
 21
-147.8
 31
0.0
  0
LINE
  8
0
  6
CONTINUOUS
 62
       2
  5
107
 10
-48.0
 20
-82.8
 30
0.0
 11
-48.0
 21
-92.8
 31
0.0
  0
LINE
  8
0
  6
CONTINUOUS
 62
       2
  5
108
 10
-53.0
 20
-87.8
 30
0.0
 11
-43.0
 21
-87.8
 31
0.0
  0
LINE
  8
0
  6
CONTINUOUS
 62
       2
  5
109
 10
-48.0
 20
-152.8
 30
0.0
 11
-48.0
 21
-162.8
 31
0.0
  0
LINE
  8
0
  6
CONTINUOUS
 62
       2
  5
10A
 10
-53.0
 20
-157.8
 30
0.0
 11
-43.0
 21
-157.8
 31
0.0
  0
LINE
  8
0
  6
CONTINUOUS
 62
       2
  5
10B
 10
218.0
 20
-82.8
 30
0.0
 11
218.0
 21
-92.8
 31
0.0
  0
LINE
  8
0
  6
CONTINUOUS
 62
       2
  5
10C
 10
213.0
 20
-87.8
 30
0.0
 11
223.0
 21
-87.8
 31
0.0
  0
LINE
  8
0
  6
CONTINUOUS
 62
       2
  5
10D
 10
39.0
 20
-159.3
 30
0.0
 11
212.0
 21
-159.3
 31
0.0
  0
LINE
  8
0
  6
CONTINUOUS
 62
       7
  5
10E
 10
41.0
 20
-160.94
 30
0.0
 11
210.0
 21
-160.94
 31
0.0
  0
LINE
  8
0
  6
CONTINUOUS
 62
       7
  5
10F
 10
41.0
 20
-157.64
 30
0.0
 11
210.0
 21
-157.64
 31
0.0
  0
LINE
  8
0
  6
CONTINUOUS
 62
       7
  5
110
 10
-52.0
 20
164.8
 30
0.0
 11
-52.0
 21
159.8
 31
0.0
  0
LINE
  8
0
  6
CONTINUOUS
 62
       7
  5
111
 10
222.0
 20
159.8
 30
0.0
 11
222.0
 21
164.8
 31
0.0
  0
LINE
  8
0
  6
CONTINUOUS
 62
       7
  5
112
 10
-40.0
 20
159.8
 30
0.0
 11
86.0
 21
159.8
 31
0.0
  0
LINE
  8
0
  6
CONTINUOUS
 62
       7
  5
113
 10
-52.0
 20
164.8
 30
0.0
 11
86.0
 21
164.8
 31
0.0
  0
LINE
  8
0
  6
CENTER
 62
       2
  5
114
 10
-64.0
 20
-6.0
 30
0.0
 11
-31.68
 21
-6.0
 31
0.0
  0
LINE
  8
0
  6
CONTINUOUS
 62
       7
  5
115
 10
-138.0
 20
16.0
 30
0.0
 11
-153.0
 21
16.0
 31
0.0
  0
LINE
  8
0
  6
CONTINUOUS
 62
       7
  5
116
 10
-154.0
 20
15.0
 30
0.0
 11
-169.0
 21
15.0
 31
0.0
  0
LINE
  8
0
  6
CONTINUOUS
 62
       7
  5
117
 10
-187.0
 20
15.0
 30
0.0
 11
-202.0
 21
15.0
 31
0.0
  0
LINE
  8
0
  6
CONTINUOUS
 62
       7
  5
118
 10
-153.0
 20
16.0
 30
0.0
 11
-154.0
 21
15.0
 31
0.0
  0
LINE
  8
0
  6
CONTINUOUS
 62
       7
  5
119
 10
-186.0
 20
16.0
 30
0.0
 11
-187.0
 21
15.0
 31
0.0
  0
LINE
  8
0
  6
CONTINUOUS
 62
       7
  5
11A
 10
-170.0
 20
16.0
 30
0.0
 11
-169.0
 21
15.0
 31
0.0
  0
LINE
  8
0
  6
CONTINUOUS
 62
       7
  5
11B
 10
-203.0
 20
16.0
 30
0.0
 11
-202.0
 21
15.0
 31
0.0
  0
LINE
  8
0
  6
CONTINUOUS
 62
       7
  5
11C
 10
-220.0
 20
14.0
 30
0.0
 11
-136.0
 21
14.0
 31
0.0
  0
LINE
  8
0
  6
CONTINUOUS
 62
       2
  5
11D
 10
-167.14
 20
0.0
 30
0.0
 11
-148.84
 21
0.0
 31
0.0
  0
LINE
  8
0
  6
CONTINUOUS
 62
       7
  5
11E
 10
-220.0
 20
-17.0
 30
0.0
 11
-136.0
 21
-17.0
 31
0.0
  0
LINE
  8
0
  6
CONTINUOUS
 62
       2
  5
11F
 10
-178.0
 20
4.8
 30
0.0
 11
-178.0
 21
-16.0
 31
0.0
  0
LINE
  8
0
  6
CONTINUOUS
 62
       7
  5
120
 10
-136.0
 20
14.0
 30
0.0
 11
-136.0
 21
-17.0
 31
0.0
  0
LINE
  8
0
  6
CONTINUOUS
 62
       7
  5
121
 10
-220.0
 20
14.0
 30
0.0
 11
-220.0
 21
-17.0
 31
0.0
  0
LINE
  8
0
  6
CONTINUOUS
 62
       2
  5
122
 10
-158.0
 20
9.14
 30
0.0
 11
-158.0
 21
-9.16
 31
0.0
  0
LINE
  8
0
  6
CONTINUOUS
 62
       2
  5
123
 10
-188.84
 20
0.0
 30
0.0
 11
-207.14
 21
0.0
 31
0.0
  0
LINE
  8
0
  6
CONTINUOUS
 62
       2
  5
124
 10
-198.0
 20
9.14
 30
0.0
 11
-198.0
 21
-9.16
 31
0.0
  0
LINE
  8
0
  6
CONTINUOUS
 62
       2
  5
125
 10
-188.08
 20
-6.0
 30
0.0
 11
-167.9
 21
-6.0
 31
0.0
  0
LINE
  8
0
  6
CONTINUOUS
 62
       7
  5
126
 10
-179.72
 20
-3.0
 30
0.0
 11
-176.26
 21
-3.0
 31
0.0
  0
LINE
  8
0
  6
CONTINUOUS
 62
       7
  5
127
 10
-179.72
 20
-9.0
 30
0.0
 11
-176.26
 21
-9.0
 31
0.0
  0
LINE
  8
0
  6
CONTINUOUS
 62
       7
  5
128
 10
-181.46
 20
-6.0
 30
0.0
 11
-179.72
 21
-3.0
 31
0.0
  0
LINE
  8
0
  6
CONTINUOUS
 62
       7
  5
129
 10
-176.26
 20
-9.0
 30
0.0
 11
-174.52
 21
-6.0
 31
0.0
  0
LINE
  8
0
  6
CONTINUOUS
 62
       7
  5
12A
 10
-181.46
 20
-6.0
 30
0.0
 11
-179.72
 21
-9.0
 31
0.0
  0
LINE
  8
0
  6
CONTINUOUS
 62
       7
  5
12B
 10
-176.26
 20
-3.0
 30
0.0
 11
-174.52
 21
-6.0
 31
0.0
  0
LINE
  8
0
  6
CONTINUOUS
 62
       7
  5
12C
 10
-182.04
 20
1.0
 30
0.0
 11
-173.94
 21
1.0
 31
0.0
  0
LINE
  8
0
  6
CONTINUOUS
 62
       7
  5
12D
 10
-182.04
 20
-13.0
 30
0.0
 11
-173.94
 21
-13.0
 31
0.0
  0
LINE
  8
0
  6
CONTINUOUS
 62
       7
  5
12E
 10
-173.94
 20
1.0
 30
0.0
 11
-169.9
 21
-6.0
 31
0.0
  0
LINE
  8
0
  6
CONTINUOUS
 62
       7
  5
12F
 10
-186.08
 20
-6.0
 30
0.0
 11
-182.04
 21
-13.0
 31
0.0
  0
LINE
  8
0
  6
CONTINUOUS
 62
       7
  5
130
 10
-186.08
 20
-6.0
 30
0.0
 11
-182.04
 21
1.0
 31
0.0
  0
LINE
  8
0
  6
CONTINUOUS
 62
       7
  5
131
 10
-173.94
 20
-13.0
 30
0.0
 11
-169.9
 21
-6.0
 31
0.0
  0
LINE
  8
0
  6
CONTINUOUS
 62
       7
  5
132
 10
-218.0
 20
16.0
 30
0.0
 11
-218.0
 21
14.0
 31
0.0
  0
LINE
  8
0
  6
CONTINUOUS
 62
       7
  5
133
 10
-138.0
 20
16.0
 30
0.0
 11
-138.0
 21
14.0
 31
0.0
  0
LINE
  8
0
  6
CONTINUOUS
 62
       7
  5
134
 10
-203.0
 20
16.0
 30
0.0
 11
-218.0
 21
16.0
 31
0.0
  0
LINE
  8
0
  6
CONTINUOUS
 62
       7
  5
135
 10
-170.0
 20
16.0
 30
0.0
 11
-186.0
 21
16.0
 31
0.0
  0
LINE
  8
0
  6
CONTINUOUS
 62
       2
  5
136
 10
-213.0
 20
4.5
 30
0.0
 11
-213.0
 21
-4.5
 31
0.0
  0
LINE
  8
0
  6
CONTINUOUS
 62
       2
  5
137
 10
-143.0
 20
4.5
 30
0.0
 11
-143.0
 21
-4.5
 31
0.0
  0
LINE
  8
0
  6
CONTINUOUS
 62
       2
  5
138
 10
-147.5
 20
0.0
 30
0.0
 11
-138.5
 21
0.0
 31
0.0
  0
LINE
  8
0
  6
CONTINUOUS
 62
       2
  5
139
 10
-208.5
 20
0.0
 30
0.0
 11
-217.48
 21
0.0
 31
0.0
  0
LINE
  8
0
  6
CONTINUOUS
 62
       7
  5
13A
 10
60.5
 20
1.44
 30
0.0
 11
63.0
 21
2.88
 31
0.0
  0
LINE
  8
0
  6
CONTINUOUS
 62
       7
  5
13B
 10
60.5
 20
1.44
 30
0.0
 11
60.5
 21
-1.46
 31
0.0
  0
LINE
  8
0
  6
CONTINUOUS
 62
       7
  5
13C
 10
60.5
 20
-1.46
 30
0.0
 11
63.0
 21
-2.9
 31
0.0
  0
LINE
  8
0
  6
CONTINUOUS
 62
       7
  5
13D
 10
63.0
 20
-2.9
 30
0.0
 11
65.5
 21
-1.46
 31
0.0
  0
LINE
  8
0
  6
CONTINUOUS
 62
       7
  5
13E
 10
65.5
 20
1.44
 30
0.0
 11
65.5
 21
-1.46
 31
0.0
  0
LINE
  8
0
  6
CONTINUOUS
 62
       7
  5
13F
 10
63.0
 20
2.88
 30
0.0
 11
65.5
 21
1.44
 31
0.0
  0
LINE
  8
0
  6
CONTINUOUS
 62
       7
  5
140
 10
188.0
 20
2.88
 30
0.0
 11
190.5
 21
1.44
 31
0.0
  0
LINE
  8
0
  6
CONTINUOUS
 62
       7
  5
141
 10
185.5
 20
1.44
 30
0.0
 11
188.0
 21
2.88
 31
0.0
  0
LINE
  8
0
  6
CONTINUOUS
 62
       7
  5
142
 10
185.5
 20
1.44
 30
0.0
 11
185.5
 21
-1.46
 31
0.0
  0
LINE
  8
0
  6
CONTINUOUS
 62
       7
  5
143
 10
185.5
 20
-1.46
 30
0.0
 11
188.0
 21
-2.9
 31
0.0
  0
LINE
  8
0
  6
CONTINUOUS
 62
       7
  5
144
 10
188.0
 20
-2.9
 30
0.0
 11
190.5
 21
-1.46
 31
0.0
  0
LINE
  8
0
  6
CONTINUOUS
 62
       7
  5
145
 10
190.5
 20
1.44
 30
0.0
 11
190.5
 21
-1.46
 31
0.0
  0
LINE
  8
0
  6
CONTINUOUS
 62
       7
  5
146
 10
208.0
 20
170.8
 30
0.0
 11
208.0
 21
159.8
 31
0.0
  0
LINE
  8
0
  6
CONTINUOUS
 62
       7
  5
147
 10
186.0
 20
170.8
 30
0.0
 11
186.0
 21
159.8
 31
0.0
  0
LINE
  8
0
  6
CONTINUOUS
 62
       7
  5
148
 10
193.5
 20
172.8
 30
0.0
 11
193.5
 21
170.8
 31
0.0
  0
LINE
  8
0
  6
CONTINUOUS
 62
       7
  5
149
 10
192.6
 20
178.0
 30
0.0
 11
192.6
 21
172.8
 31
0.0
  0
LINE
  8
0
  6
CONTINUOUS
 62
       7
  5
14A
 10
189.4
 20
178.0
 30
0.0
 11
189.4
 21
172.8
 31
0.0
  0
LINE
  8
0
  6
CONTINUOUS
 62
       7
  5
14B
 10
188.5
 20
172.8
 30
0.0
 11
188.5
 21
170.8
 31
0.0
  0
LINE
  8
0
  6
CONTINUOUS
 62
       7
  5
14C
 10
193.5
 20
172.8
 30
0.0
 11
188.5
 21
172.8
 31
0.0
  0
LINE
  8
0
  6
CONTINUOUS
 62
       2
  5
14D
 10
191.0
 20
179.96
 30
0.0
 11
191.0
 21
168.74
 31
0.0
  0
LINE
  8
0
  6
CONTINUOUS
 62
       7
  5
14E
 10
208.0
 20
170.8
 30
0.0
 11
186.0
 21
170.8
 31
0.0
  0
LINE
  8
0
  6
CONTINUOUS
 62
       7
  5
14F
 10
208.0
 20
162.8
 30
0.0
 11
186.0
 21
162.8
 31
0.0
  0
LINE
  8
0
  6
CONTINUOUS
 62
       7
  5
150
 10
208.0
 20
159.8
 30
0.0
 11
186.0
 21
159.8
 31
0.0
  0
LINE
  8
0
  6
CONTINUOUS
 62
       7
  5
151
 10
108.0
 20
170.8
 30
0.0
 11
108.0
 21
159.8
 31
0.0
  0
LINE
  8
0
  6
CONTINUOUS
 62
       7
  5
152
 10
86.0
 20
170.8
 30
0.0
 11
86.0
 21
159.8
 31
0.0
  0
LINE
  8
0
  6
CONTINUOUS
 62
       7
  5
153
 10
93.5
 20
172.8
 30
0.0
 11
93.5
 21
170.8
 31
0.0
  0
LINE
  8
0
  6
CONTINUOUS
 62
       7
  5
154
 10
92.6
 20
178.0
 30
0.0
 11
92.6
 21
172.8
 31
0.0
  0
LINE
  8
0
  6
CONTINUOUS
 62
       7
  5
155
 10
89.4
 20
178.0
 30
0.0
 11
89.4
 21
172.8
 31
0.0
  0
LINE
  8
0
  6
CONTINUOUS
 62
       7
  5
156
 10
88.5
 20
172.8
 30
0.0
 11
88.5
 21
170.8
 31
0.0
  0
LINE
  8
0
  6
CONTINUOUS
 62
       7
  5
157
 10
93.5
 20
172.8
 30
0.0
 11
88.5
 21
172.8
 31
0.0
  0
LINE
  8
0
  6
CONTINUOUS
 62
       2
  5
158
 10
91.0
 20
179.96
 30
0.0
 11
91.0
 21
168.74
 31
0.0
  0
LINE
  8
0
  6
CONTINUOUS
 62
       7
  5
159
 10
108.0
 20
170.8
 30
0.0
 11
86.0
 21
170.8
 31
0.0
  0
LINE
  8
0
  6
CONTINUOUS
 62
       7
  5
15A
 10
108.0
 20
162.8
 30
0.0
 11
86.0
 21
162.8
 31
0.0
  0
LINE
  8
0
  6
CONTINUOUS
 62
       7
  5
15B
 10
108.0
 20
159.8
 30
0.0
 11
86.0
 21
159.8
 31
0.0
  0
LINE
  8
0
  6
CONTINUOUS
 62
       7
  5
15C
 10
108.0
 20
159.8
 30
0.0
 11
186.0
 21
159.8
 31
0.0
  0
LINE
  8
0
  6
CONTINUOUS
 62
       7
  5
15D
 10
208.0
 20
159.8
 30
0.0
 11
210.0
 21
159.8
 31
0.0
  0
LINE
  8
0
  6
CONTINUOUS
 62
       7
  5
15E
 10
108.0
 20
164.8
 30
0.0
 11
186.0
 21
164.8
 31
0.0
  0
LINE
  8
0
  6
CONTINUOUS
 62
       7
  5
15F
 10
208.0
 20
164.8
 30
0.0
 11
222.0
 21
164.8
 31
0.0
  0
LINE
  8
0
  6
CONTINUOUS
 62
       7
  5
160
 10
-52.0
 20
-169.8
 30
0.0
 11
-52.0
 21
-164.8
 31
0.0
  0
LINE
  8
0
  6
CONTINUOUS
 62
       7
  5
161
 10
-40.0
 20
-164.8
 30
0.0
 11
210.0
 21
-164.8
 31
0.0
  0
LINE
  8
0
  6
CONTINUOUS
 62
       7
  5
162
 10
-52.0
 20
-169.8
 30
0.0
 11
222.0
 21
-169.8
 31
0.0
  0
LINE
  8
0
  6
CONTINUOUS
 62
       7
  5
163
 10
222.0
 20
-164.8
 30
0.0
 11
222.0
 21
-169.8
 31
0.0
  0
LINE
  8
0
  6
CONTINUOUS
 62
       7
  5
164
 10
108.0
 20
-175.8
 30
0.0
 11
99.66
 21
-175.8
 31
0.0
  0
LINE
  8
0
  6
CONTINUOUS
 62
       7
  5
165
 10
108.0
 20
-175.8
 30
0.0
 11
108.0
 21
-169.8
 31
0.0
  0
LINE
  8
0
  6
CONTINUOUS
 62
       7
  5
166
 10
86.0
 20
-175.8
 30
0.0
 11
86.0
 21
-169.8
 31
0.0
  0
LINE
  8
0
  6
CONTINUOUS
 62
       7
  5
167
 10
108.0
 20
-174.8
 30
0.0
 11
86.0
 21
-174.8
 31
0.0
  0
LINE
  8
0
  6
CONTINUOUS
 62
       7
  5
168
 10
92.5
 20
-174.8
 30
0.0
 11
92.5
 21
-169.8
 31
0.0
  0
LINE
  8
0
  6
CONTINUOUS
 62
       7
  5
169
 10
101.5
 20
-174.8
 30
0.0
 11
101.5
 21
-169.8
 31
0.0
  0
LINE
  8
0
  6
CONTINUOUS
 62
       7
  5
16A
 10
93.5
 20
-177.8
 30
0.0
 11
93.5
 21
-175.8
 31
0.0
  0
LINE
  8
0
  6
CONTINUOUS
 62
       7
  5
16B
 10
92.6
 20
-183.0
 30
0.0
 11
92.6
 21
-177.8
 31
0.0
  0
LINE
  8
0
  6
CONTINUOUS
 62
       7
  5
16C
 10
89.4
 20
-183.0
 30
0.0
 11
89.4
 21
-177.8
 31
0.0
  0
LINE
  8
0
  6
CONTINUOUS
 62
       7
  5
16D
 10
88.5
 20
-177.8
 30
0.0
 11
88.5
 21
-175.8
 31
0.0
  0
LINE
  8
0
  6
CONTINUOUS
 62
       7
  5
16E
 10
93.5
 20
-177.8
 30
0.0
 11
88.5
 21
-177.8
 31
0.0
  0
LINE
  8
0
  6
CONTINUOUS
 62
       2
  5
16F
 10
91.0
 20
-184.96
 30
0.0
 11
91.0
 21
-173.74
 31
0.0
  0
LINE
  8
0
  6
CONTINUOUS
 62
       7
  5
170
 10
100.0
 20
-175.3
 30
0.0
 11
94.0
 21
-175.3
 31
0.0
  0
LINE
  8
0
  6
CONTINUOUS
 62
       7
  5
171
 10
94.0
 20
-175.3
 30
0.0
 11
94.0
 21
-174.8
 31
0.0
  0
LINE
  8
0
  6
CONTINUOUS
 62
       7
  5
172
 10
100.0
 20
-175.3
 30
0.0
 11
100.0
 21
-174.8
 31
0.0
  0
LINE
  8
0
  6
CONTINUOUS
 62
       7
  5
173
 10
99.74
 20
-175.3
 30
0.0
 11
99.72
 21
-175.62
 31
0.0
  0
LINE
  8
0
  6
CONTINUOUS
 62
       7
  5
174
 10
94.24
 20
-175.3
 30
0.0
 11
94.28
 21
-175.62
 31
0.0
  0
LINE
  8
0
  6
CONTINUOUS
 62
       7
  5
175
 10
94.32
 20
-175.8
 30
0.0
 11
86.0
 21
-175.8
 31
0.0
  0
LINE
  8
0
  6
CONTINUOUS
 62
       7
  5
176
 10
208.0
 20
-175.8
 30
0.0
 11
199.66
 21
-175.8
 31
0.0
  0
LINE
  8
0
  6
CONTINUOUS
 62
       7
  5
177
 10
208.0
 20
-175.8
 30
0.0
 11
208.0
 21
-169.8
 31
0.0
  0
LINE
  8
0
  6
CONTINUOUS
 62
       7
  5
178
 10
186.0
 20
-175.8
 30
0.0
 11
186.0
 21
-169.8
 31
0.0
  0
LINE
  8
0
  6
CONTINUOUS
 62
       7
  5
179
 10
208.0
 20
-174.8
 30
0.0
 11
186.0
 21
-174.8
 31
0.0
  0
LINE
  8
0
  6
CONTINUOUS
 62
       7
  5
17A
 10
192.5
 20
-174.8
 30
0.0
 11
192.5
 21
-169.8
 31
0.0
  0
LINE
  8
0
  6
CONTINUOUS
 62
       7
  5
17B
 10
201.5
 20
-174.8
 30
0.0
 11
201.5
 21
-169.8
 31
0.0
  0
LINE
  8
0
  6
CONTINUOUS
 62
       7
  5
17C
 10
193.5
 20
-177.8
 30
0.0
 11
193.5
 21
-175.8
 31
0.0
  0
LINE
  8
0
  6
CONTINUOUS
 62
       7
  5
17D
 10
192.6
 20
-183.0
 30
0.0
 11
192.6
 21
-177.8
 31
0.0
  0
LINE
  8
0
  6
CONTINUOUS
 62
       7
  5
17E
 10
189.4
 20
-183.0
 30
0.0
 11
189.4
 21
-177.8
 31
0.0
  0
LINE
  8
0
  6
CONTINUOUS
 62
       7
  5
17F
 10
188.5
 20
-177.8
 30
0.0
 11
188.5
 21
-175.8
 31
0.0
  0
LINE
  8
0
  6
CONTINUOUS
 62
       7
  5
180
 10
193.5
 20
-177.8
 30
0.0
 11
188.5
 21
-177.8
 31
0.0
  0
LINE
  8
0
  6
CONTINUOUS
 62
       2
  5
181
 10
191.0
 20
-184.96
 30
0.0
 11
191.0
 21
-173.74
 31
0.0
  0
LINE
  8
0
  6
CONTINUOUS
 62
       7
  5
182
 10
200.0
 20
-175.3
 30
0.0
 11
194.0
 21
-175.3
 31
0.0
  0
LINE
  8
0
  6
CONTINUOUS
 62
       7
  5
183
 10
194.0
 20
-175.3
 30
0.0
 11
194.0
 21
-174.8
 31
0.0
  0
LINE
  8
0
  6
CONTINUOUS
 62
       7
  5
184
 10
200.0
 20
-175.3
 30
0.0
 11
200.0
 21
-174.8
 31
0.0
  0
LINE
  8
0
  6
CONTINUOUS
 62
       7
  5
185
 10
199.74
 20
-175.3
 30
0.0
 11
199.72
 21
-175.62
 31
0.0
  0
LINE
  8
0
  6
CONTINUOUS
 62
       7
  5
186
 10
194.24
 20
-175.3
 30
0.0
 11
194.28
 21
-175.62
 31
0.0
  0
LINE
  8
0
  6
CONTINUOUS
 62
       7
  5
187
 10
194.32
 20
-175.8
 30
0.0
 11
186.0
 21
-175.8
 31
0.0
  0
LINE
  8
0
  6
CONTINUOUS
 62
       2
  5
188
 10
-234.48
 20
-5.0
 30
0.0
 11
-217.7
 21
-5.0
 31
0.0
  0
LINE
  8
0
  6
CONTINUOUS
 62
       7
  5
189
 10
-225.0
 20
-9.0
 30
0.0
 11
-220.0
 21
-9.0
 31
0.0
  0
LINE
  8
0
  6
CONTINUOUS
 62
       7
  5
18A
 10
-223.9
 20
-7.9
 30
0.0
 11
-221.1
 21
-7.9
 31
0.0
  0
LINE
  8
0
  6
CONTINUOUS
 62
       7
  5
18B
 10
-223.9
 20
-2.1
 30
0.0
 11
-221.1
 21
-2.1
 31
0.0
  0
LINE
  8
0
  6
CONTINUOUS
 62
       7
  5
18C
 10
-221.1
 20
-2.1
 30
0.0
 11
-221.1
 21
-7.9
 31
0.0
  0
LINE
  8
0
  6
CONTINUOUS
 62
       7
  5
18D
 10
-223.9
 20
-2.1
 30
0.0
 11
-223.9
 21
-3.5
 31
0.0
  0
LINE
  8
0
  6
CONTINUOUS
 62
       7
  5
18E
 10
-225.0
 20
-6.66
 30
0.0
 11
-223.9
 21
-6.66
 31
0.0
  0
LINE
  8
0
  6
CONTINUOUS
 62
       7
  5
18F
 10
-225.0
 20
-3.36
 30
0.0
 11
-223.9
 21
-3.36
 31
0.0
  0
LINE
  8
0
  6
CONTINUOUS
 62
       7
  5
190
 10
-230.0
 20
-9.5
 30
0.0
 11
-225.0
 21
-9.5
 31
0.0
  0
LINE
  8
0
  6
CONTINUOUS
 62
       7
  5
191
 10
-231.0
 20
6.0
 30
0.0
 11
-223.0
 21
6.0
 31
0.0
  0
LINE
  8
0
  6
CONTINUOUS
 62
       7
  5
192
 10
-231.0
 20
-1.0
 30
0.0
 11
-231.0
 21
6.0
 31
0.0
  0
LINE
  8
0
  6
CONTINUOUS
 62
       7
  5
193
 10
-230.0
 20
-9.5
 30
0.0
 11
-230.0
 21
-1.0
 31
0.0
  0
LINE
  8
0
  6
CONTINUOUS
 62
       2
  5
194
 10
-241.26
 20
2.5
 30
0.0
 11
-229.62
 21
2.5
 31
0.0
  0
LINE
  8
0
  6
CONTINUOUS
 62
       7
  5
195
 10
-233.0
 20
5.0
 30
0.0
 11
-231.0
 21
5.0
 31
0.0
  0
LINE
  8
0
  6
CONTINUOUS
 62
       7
  5
196
 10
-233.0
 20
0.0
 30
0.0
 11
-231.0
 21
0.0
 31
0.0
  0
LINE
  8
0
  6
CONTINUOUS
 62
       7
  5
197
 10
-233.0
 20
0.0
 30
0.0
 11
-233.0
 21
5.0
 31
0.0
  0
LINE
  8
0
  6
CONTINUOUS
 62
       7
  5
198
 10
-225.0
 20
-6.5
 30
0.0
 11
-223.0
 21
-6.5
 31
0.0
  0
LINE
  8
0
  6
CONTINUOUS
 62
       7
  5
199
 10
-225.0
 20
-3.5
 30
0.0
 11
-223.0
 21
-3.5
 31
0.0
  0
LINE
  8
0
  6
CONTINUOUS
 62
       7
  5
19A
 10
-225.0
 20
-3.5
 30
0.0
 11
-225.0
 21
-1.0
 31
0.0
  0
LINE
  8
0
  6
CONTINUOUS
 62
       7
  5
19B
 10
-223.0
 20
5.0
 30
0.0
 11
-223.0
 21
6.0
 31
0.0
  0
LINE
  8
0
  6
CONTINUOUS
 62
       7
  5
19C
 10
-223.0
 20
5.0
 30
0.0
 11
-220.8
 21
5.0
 31
0.0
  0
LINE
  8
0
  6
CONTINUOUS
 62
       7
  5
19D
 10
-220.8
 20
5.0
 30
0.0
 11
-220.0
 21
4.2
 31
0.0
  0
LINE
  8
0
  6
CONTINUOUS
 62
       7
  5
19E
 10
-220.8
 20
-1.0
 30
0.0
 11
-220.0
 21
-0.2
 31
0.0
  0
LINE
  8
0
  6
CONTINUOUS
 62
       7
  5
19F
 10
-225.0
 20
-9.5
 30
0.0
 11
-225.0
 21
-6.5
 31
0.0
  0
LINE
  8
0
  6
CONTINUOUS
 62
       7
  5
1A0
 10
-223.0
 20
-6.5
 30
0.0
 11
-223.0
 21
-3.5
 31
0.0
  0
LINE
  8
0
  6
CONTINUOUS
 62
       7
  5
1A1
 10
-238.9
 20
0.9
 30
0.0
 11
-233.0
 21
0.9
 31
0.0
  0
LINE
  8
0
  6
CONTINUOUS
 62
       7
  5
1A2
 10
-238.9
 20
4.1
 30
0.0
 11
-233.0
 21
4.1
 31
0.0
  0
LINE
  8
0
  6
CONTINUOUS
 62
       7
  5
1A3
 10
-230.5
 20
-8.26
 30
0.0
 11
-230.5
 21
-2.26
 31
0.0
  0
LINE
  8
0
  6
CONTINUOUS
 62
       7
  5
1A4
 10
-230.5
 20
-2.26
 30
0.0
 11
-230.0
 21
-2.26
 31
0.0
  0
LINE
  8
0
  6
CONTINUOUS
 62
       7
  5
1A5
 10
-230.5
 20
-8.26
 30
0.0
 11
-230.0
 21
-8.26
 31
0.0
  0
LINE
  8
0
  6
CONTINUOUS
 62
       7
  5
1A6
 10
-230.5
 20
-8.0
 30
0.0
 11
-230.82
 21
-7.98
 31
0.0
  0
LINE
  8
0
  6
CONTINUOUS
 62
       7
  5
1A7
 10
-230.5
 20
-2.5
 30
0.0
 11
-230.82
 21
-2.54
 31
0.0
  0
LINE
  8
0
  6
CONTINUOUS
 62
       7
  5
1A8
 10
-223.9
 20
-6.5
 30
0.0
 11
-223.9
 21
-7.9
 31
0.0
  0
LINE
  8
0
  6
CONTINUOUS
 62
       7
  5
1A9
 10
-221.5
 20
-2.26
 30
0.0
 11
-221.5
 21
-7.76
 31
0.0
  0
LINE
  8
0
  6
CONTINUOUS
 62
       7
  5
1AA
 10
-223.9
 20
-7.76
 30
0.0
 11
-221.5
 21
-7.76
 31
0.0
  0
LINE
  8
0
  6
CONTINUOUS
 62
       7
  5
1AB
 10
-223.9
 20
-2.26
 30
0.0
 11
-221.5
 21
-2.26
 31
0.0
  0
LINE
  8
0
  6
CONTINUOUS
 62
       7
  5
1AC
 10
-221.6
 20
-5.0
 30
0.0
 11
-223.0
 21
-5.0
 31
0.0
  0
LINE
  8
0
  6
CONTINUOUS
 62
       2
  5
1AD
 10
-60.1
 20
-102.8
 30
0.0
 11
229.16
 21
-102.8
 31
0.0
  0
LINE
  8
0
  6
CONTINUOUS
 62
       2
  5
1AE
 10
-59.72
 20
-142.8
 30
0.0
 11
229.54
 21
-142.8
 31
0.0
  0
LINE
  8
0
  6
CONTINUOUS
 62
       7
  5
1AF
 10
41.0
 20
14.5
 30
0.0
 11
210.0
 21
14.5
 31
0.0
  0
LINE
  8
0
  6
CONTINUOUS
 62
       7
  5
1B0
 10
41.0
 20
156.8
 30
0.0
 11
210.0
 21
156.8
 31
0.0
  0
LINE
  8
0
  6
CONTINUOUS
 62
       7
  5
1B1
 10
41.0
 20
78.8
 30
0.0
 11
210.0
 21
78.8
 31
0.0
  0
LINE
  8
0
  6
CONTINUOUS
 62
       2
  5
1B2
 10
-58.2
 20
137.8
 30
0.0
 11
228.96
 21
137.8
 31
0.0
  0
LINE
  8
0
  6
CONTINUOUS
 62
       2
  5
1B3
 10
-57.9
 20
97.8
 30
0.0
 11
228.34
 21
97.8
 31
0.0
  0
LINE
  8
0
  6
CONTINUOUS
 62
       7
  5
1B4
 10
-37.0
 20
123.3
 30
0.0
 11
-37.0
 21
112.3
 31
0.0
  0
LINE
  8
0
  6
CONTINUOUS
 62
       7
  5
1B5
 10
28.0
 20
119.8
 30
0.0
 11
28.0
 21
115.8
 31
0.0
  0
LINE
  8
0
  6
CONTINUOUS
 62
       7
  5
1B6
 10
28.0
 20
115.8
 30
0.0
 11
38.0
 21
115.8
 31
0.0
  0
LINE
  8
0
  6
CONTINUOUS
 62
       7
  5
1B7
 10
28.0
 20
119.8
 30
0.0
 11
38.0
 21
119.8
 31
0.0
  0
LINE
  8
0
  6
CONTINUOUS
 62
       7
  5
1B8
 10
-37.0
 20
-11.5
 30
0.0
 11
-37.0
 21
-6.0
 31
0.0
  0
LINE
  8
0
  6
CONTINUOUS
 62
       7
  5
1B9
 10
-37.0
 20
-117.3
 30
0.0
 11
-37.0
 21
-128.3
 31
0.0
  0
LINE
  8
0
  6
CONTINUOUS
 62
       7
  5
1BA
 10
91.5
 20
9.5
 30
0.0
 11
91.5
 21
-5.74
 31
0.0
  0
LINE
  8
0
  6
CONTINUOUS
 62
       7
  5
1BB
 10
78.5
 20
9.5
 30
0.0
 11
78.5
 21
8.26
 31
0.0
  0
LINE
  8
0
  6
CONTINUOUS
 62
       7
  5
1BC
 10
78.5
 20
-9.5
 30
0.0
 11
87.74
 21
-9.5
 31
0.0
  0
LINE
  8
0
  6
CONTINUOUS
 62
       7
  5
1BD
 10
78.5
 20
9.5
 30
0.0
 11
79.74
 21
9.5
 31
0.0
  0
LINE
  8
0
  6
CONTINUOUS
 62
       7
  5
1BE
 10
78.5
 20
72.3
 30
0.0
 11
91.5
 21
72.3
 31
0.0
  0
LINE
  8
0
  6
CONTINUOUS
 62
       7
  5
1BF
 10
78.5
 20
-77.3
 30
0.0
 11
91.5
 21
-77.3
 31
0.0
  0
LINE
  8
0
  6
CONTINUOUS
 62
       7
  5
1C0
 10
-134.5
 20
9.5
 30
0.0
 11
-134.5
 21
-9.5
 31
0.0
  0
LINE
  8
0
  6
CONTINUOUS
 62
       7
  5
1C1
 10
78.5
 20
72.3
 30
0.0
 11
78.5
 21
73.36
 31
0.0
  0
LINE
  8
0
  6
CONTINUOUS
 62
       7
  5
1C2
 10
91.5
 20
72.3
 30
0.0
 11
91.5
 21
77.8
 31
0.0
  0
LINE
  8
0
  6
CONTINUOUS
 62
       7
  5
1C3
 10
78.5
 20
-77.3
 30
0.0
 11
78.5
 21
-82.8
 31
0.0
  0
LINE
  8
0
  6
CONTINUOUS
 62
       7
  5
1C4
 10
91.5
 20
-77.3
 30
0.0
 11
91.5
 21
-78.36
 31
0.0
  0
LINE
  8
0
  6
CONTINUOUS
 62
       7
  5
1C5
 10
-134.5
 20
9.5
 30
0.0
 11
-135.56
 21
9.5
 31
0.0
  0
LINE
  8
0
  6
CONTINUOUS
 62
       7
  5
1C6
 10
-134.5
 20
-9.5
 30
0.0
 11
-136.0
 21
-9.5
 31
0.0
  0
LINE
  8
0
  6
CONTINUOUS
 62
       7
  5
1C7
 10
78.44
 20
74.8
 30
0.0
 11
84.04
 21
74.8
 31
0.0
  0
LINE
  8
0
  6
CONTINUOUS
 62
       7
  5
1C8
 10
85.94
 20
-79.8
 30
0.0
 11
91.54
 21
-79.8
 31
0.0
  0
LINE
  8
0
  6
CONTINUOUS
 62
       7
  5
1C9
 10
-134.5
 20
4.0
 30
0.0
 11
-135.56
 21
4.0
 31
0.0
  0
LINE
  8
0
  6
CONTINUOUS
 62
       7
  5
1CA
 10
84.0
 20
72.3
 30
0.0
 11
84.0
 21
73.36
 31
0.0
  0
LINE
  8
0
  6
CONTINUOUS
 62
       7
  5
1CB
 10
86.0
 20
-77.3
 30
0.0
 11
86.0
 21
-78.36
 31
0.0
  0
LINE
  8
0
  6
CONTINUOUS
 62
       7
  5
1CC
 10
79.72
 20
7.84
 30
0.0
 11
80.14
 21
8.26
 31
0.0
  0
LINE
  8
0
  6
CONTINUOUS
 62
       7
  5
1CD
 10
81.84
 20
5.72
 30
0.0
 11
82.26
 21
6.14
 31
0.0
  0
LINE
  8
0
  6
CONTINUOUS
 62
       7
  5
1CE
 10
79.72
 20
6.14
 30
0.0
 11
80.14
 21
6.56
 31
0.0
  0
LINE
  8
0
  6
CONTINUOUS
 62
       7
  5
1CF
 10
80.14
 20
5.72
 30
0.0
 11
80.56
 21
6.14
 31
0.0
  0
LINE
  8
0
  6
CONTINUOUS
 62
       7
  5
1D0
 10
79.72
 20
6.14
 30
0.0
 11
80.14
 21
5.72
 31
0.0
  0
LINE
  8
0
  6
CONTINUOUS
 62
       7
  5
1D1
 10
81.84
 20
8.26
 30
0.0
 11
82.26
 21
7.84
 31
0.0
  0
LINE
  8
0
  6
CONTINUOUS
 62
       7
  5
1D2
 10
79.72
 20
7.84
 30
0.0
 11
80.14
 21
7.42
 31
0.0
  0
LINE
  8
0
  6
CONTINUOUS
 62
       7
  5
1D3
 10
80.14
 20
8.26
 30
0.0
 11
80.56
 21
7.84
 31
0.0
  0
LINE
  8
0
  6
CONTINUOUS
 62
       7
  5
1D4
 10
81.42
 20
7.84
 30
0.0
 11
81.84
 21
8.26
 31
0.0
  0
LINE
  8
0
  6
CONTINUOUS
 62
       7
  5
1D5
 10
81.84
 20
7.42
 30
0.0
 11
82.26
 21
7.84
 31
0.0
  0
LINE
  8
0
  6
CONTINUOUS
 62
       7
  5
1D6
 10
81.42
 20
6.14
 30
0.0
 11
81.84
 21
5.72
 31
0.0
  0
LINE
  8
0
  6
CONTINUOUS
 62
       7
  5
1D7
 10
81.84
 20
6.56
 30
0.0
 11
82.26
 21
6.14
 31
0.0
  0
LINE
  8
0
  6
CONTINUOUS
 62
       7
  5
1D8
 10
87.72
 20
-6.16
 30
0.0
 11
88.14
 21
-5.74
 31
0.0
  0
LINE
  8
0
  6
CONTINUOUS
 62
       7
  5
1D9
 10
89.84
 20
-8.28
 30
0.0
 11
90.26
 21
-7.86
 31
0.0
  0
LINE
  8
0
  6
CONTINUOUS
 62
       7
  5
1DA
 10
87.72
 20
-7.86
 30
0.0
 11
88.14
 21
-7.44
 31
0.0
  0
LINE
  8
0
  6
CONTINUOUS
 62
       7
  5
1DB
 10
88.14
 20
-8.28
 30
0.0
 11
88.56
 21
-7.86
 31
0.0
  0
LINE
  8
0
  6
CONTINUOUS
 62
       7
  5
1DC
 10
87.72
 20
-7.86
 30
0.0
 11
88.14
 21
-8.28
 31
0.0
  0
LINE
  8
0
  6
CONTINUOUS
 62
       7
  5
1DD
 10
89.84
 20
-5.74
 30
0.0
 11
90.26
 21
-6.16
 31
0.0
  0
LINE
  8
0
  6
CONTINUOUS
 62
       7
  5
1DE
 10
87.72
 20
-6.16
 30
0.0
 11
88.14
 21
-6.58
 31
0.0
  0
LINE
  8
0
  6
CONTINUOUS
 62
       7
  5
1DF
 10
88.14
 20
-5.74
 30
0.0
 11
88.56
 21
-6.16
 31
0.0
  0
LINE
  8
0
  6
CONTINUOUS
 62
       7
  5
1E0
 10
89.42
 20
-6.16
 30
0.0
 11
89.84
 21
-5.74
 31
0.0
  0
LINE
  8
0
  6
CONTINUOUS
 62
       7
  5
1E1
 10
89.84
 20
-6.58
 30
0.0
 11
90.26
 21
-6.16
 31
0.0
  0
LINE
  8
0
  6
CONTINUOUS
 62
       7
  5
1E2
 10
89.42
 20
-7.86
 30
0.0
 11
89.84
 21
-8.28
 31
0.0
  0
LINE
  8
0
  6
CONTINUOUS
 62
       7
  5
1E3
 10
89.84
 20
-7.44
 30
0.0
 11
90.26
 21
-7.86
 31
0.0
  0
LINE
  8
0
  6
CONTINUOUS
 62
       7
  5
1E4
 10
78.5
 20
5.74
 30
0.0
 11
78.5
 21
-9.5
 31
0.0
  0
LINE
  8
0
  6
CONTINUOUS
 62
       7
  5
1E5
 10
82.26
 20
9.5
 30
0.0
 11
91.5
 21
9.5
 31
0.0
  0
LINE
  8
0
  6
CONTINUOUS
 62
       7
  5
1E6
 10
91.5
 20
-8.26
 30
0.0
 11
91.5
 21
-9.5
 31
0.0
  0
LINE
  8
0
  6
CONTINUOUS
 62
       7
  5
1E7
 10
90.26
 20
-9.5
 30
0.0
 11
91.5
 21
-9.5
 31
0.0
  0
LINE
  8
0
  6
CONTINUOUS
 62
       7
  5
1E8
 10
78.44
 20
73.62
 30
0.0
 11
78.44
 21
74.8
 31
0.0
  0
LINE
  8
0
  6
CONTINUOUS
 62
       7
  5
1E9
 10
84.04
 20
73.62
 30
0.0
 11
84.04
 21
74.8
 31
0.0
  0
LINE
  8
0
  6
CONTINUOUS
 62
       7
  5
1EA
 10
78.5
 20
74.8
 30
0.0
 11
78.5
 21
77.8
 31
0.0
  0
LINE
  8
0
  6
CONTINUOUS
 62
       7
  5
1EB
 10
-135.82
 20
3.94
 30
0.0
 11
-136.0
 21
3.94
 31
0.0
  0
LINE
  8
0
  6
CONTINUOUS
 62
       7
  5
1EC
 10
-135.82
 20
9.54
 30
0.0
 11
-136.0
 21
9.54
 31
0.0
  0
LINE
  8
0
  6
CONTINUOUS
 62
       7
  5
1ED
 10
91.54
 20
-78.62
 30
0.0
 11
91.54
 21
-79.8
 31
0.0
  0
LINE
  8
0
  6
CONTINUOUS
 62
       7
  5
1EE
 10
85.94
 20
-78.62
 30
0.0
 11
85.94
 21
-79.8
 31
0.0
  0
LINE
  8
0
  6
CONTINUOUS
 62
       7
  5
1EF
 10
91.5
 20
-79.8
 30
0.0
 11
91.5
 21
-82.8
 31
0.0
  0
CIRCLE
  8
0
  6
CONTINUOUS
 62
       7
  5
1F0
 10
75.49998169
 20
152.8000061
 30
0.0
 40
1.75000012
  0
CIRCLE
  8
0
  6
CONTINUOUS
 62
       2
  5
1F1
 10
75.49998169
 20
152.8000061
 30
0.0
 40
2.5
  0
CIRCLE
  8
0
  6
CONTINUOUS
 62
       7
  5
1F2
 10
75.49998169
 20
82.79997559
 30
0.0
 40
1.75000012
  0
CIRCLE
  8
0
  6
CONTINUOUS
 62
       2
  5
1F3
 10
75.49998169
 20
82.79997559
 30
0.0
 40
2.5
  0
CIRCLE
  8
0
  6
CONTINUOUS
 62
       7
  5
1F4
 10
160.50001221
 20
117.79997559
 30
0.0
 40
3.29999924
  0
CIRCLE
  8
0
  6
CONTINUOUS
 62
       7
  5
1F5
 10
160.50001221
 20
117.79997559
 30
0.0
 40
5.5
  0
CIRCLE
  8
0
  6
CONTINUOUS
 62
       7
  5
1F6
 10
90.50001221
 20
117.79997559
 30
0.0
 40
3.29999924
  0
CIRCLE
  8
0
  6
CONTINUOUS
 62
       7
  5
1F7
 10
90.50001221
 20
117.79997559
 30
0.0
 40
5.5
  0
CIRCLE
  8
0
  6
CONTINUOUS
 62
       7
  5
1F8
 10
55.49998169
 20
117.79997559
 30
0.0
 40
3.0
  0
CIRCLE
  8
0
  6
CONTINUOUS
 62
       7
  5
1F9
 10
-48.00001831
 20
82.79997559
 30
0.0
 40
2.75
  0
CIRCLE
  8
0
  6
CONTINUOUS
 62
       7
  5
1FA
 10
-48.00001831
 20
82.79997559
 30
0.0
 40
4.75
  0
CIRCLE
  8
0
  6
CONTINUOUS
 62
       7
  5
1FB
 10
-48.00001831
 20
152.8000061
 30
0.0
 40
2.75
  0
CIRCLE
  8
0
  6
CONTINUOUS
 62
       7
  5
1FC
 10
-48.00001831
 20
152.8000061
 30
0.0
 40
4.75
  0
CIRCLE
  8
0
  6
CONTINUOUS
 62
       7
  5
1FD
 10
-45.00001831
 20
97.8000061
 30
0.0
 40
3.0
  0
CIRCLE
  8
0
  6
CONTINUOUS
 62
       2
  5
1FE
 10
-45.00001831
 20
97.8000061
 30
0.0
 40
2.25
  0
CIRCLE
  8
0
  6
CONTINUOUS
 62
       2
  5
1FF
 10
-45.00001831
 20
137.8000061
 30
0.0
 40
2.25
  0
CIRCLE
  8
0
  6
CONTINUOUS
 62
       7
  5
200
 10
-45.00001831
 20
137.8000061
 30
0.0
 40
3.0
  0
CIRCLE
  8
0
  6
CONTINUOUS
 62
       2
  5
201
 10
175.50001221
 20
152.8000061
 30
0.0
 40
2.5
  0
CIRCLE
  8
0
  6
CONTINUOUS
 62
       7
  5
202
 10
175.50001221
 20
152.8000061
 30
0.0
 40
1.75000012
  0
CIRCLE
  8
0
  6
CONTINUOUS
 62
       7
  5
203
 10
175.50001221
 20
82.79997559
 30
0.0
 40
1.75000012
  0
CIRCLE
  8
0
  6
CONTINUOUS
 62
       2
  5
204
 10
175.50001221
 20
82.79997559
 30
0.0
 40
2.5
  0
ARC
  8
0
  6
CONTINUOUS
 62
       7
  5
205
 10
194.5
 20
117.8
 30
0.0
 40
3.0
 50
90.0
 51
270.0
  0
ARC
  8
0
  6
CONTINUOUS
 62
       7
  5
206
 10
196.4999939
 20
117.7999939
 30
0.0
 40
3.0000061
 50
0.00011657
 51
89.99988343
  0
ARC
  8
0
  6
CONTINUOUS
 62
       7
  5
207
 10
196.50001831
 20
117.79998169
 30
0.0
 40
2.99998169
 50
269.99965029
 51
0.00034971
  0
CIRCLE
  8
0
  6
CONTINUOUS
 62
       7
  5
208
 10
218.00001221
 20
152.8000061
 30
0.0
 40
2.75
  0
CIRCLE
  8
0
  6
CONTINUOUS
 62
       7
  5
209
 10
218.00001221
 20
152.8000061
 30
0.0
 40
4.75
  0
CIRCLE
  8
0
  6
CONTINUOUS
 62
       7
  5
20A
 10
218.00001221
 20
82.79997559
 30
0.0
 40
2.75
  0
CIRCLE
  8
0
  6
CONTINUOUS
 62
       7
  5
20B
 10
218.00001221
 20
82.79997559
 30
0.0
 40
4.75
  0
CIRCLE
  8
0
  6
CONTINUOUS
 62
       7
  5
20C
 10
215.00001221
 20
137.8000061
 30
0.0
 40
3.0
  0
CIRCLE
  8
0
  6
CONTINUOUS
 62
       2
  5
20D
 10
215.00001221
 20
137.8000061
 30
0.0
 40
2.25
  0
CIRCLE
  8
0
  6
CONTINUOUS
 62
       2
  5
20E
 10
215.00001221
 20
97.8000061
 30
0.0
 40
2.25
  0
CIRCLE
  8
0
  6
CONTINUOUS
 62
       7
  5
20F
 10
215.00001221
 20
97.8000061
 30
0.0
 40
3.0
  0
CIRCLE
  8
0
  6
CONTINUOUS
 62
       2
  5
210
 10
212.50001221
 20
-5.00000458
 30
0.0
 40
1.5
  0
CIRCLE
  8
0
  6
CONTINUOUS
 62
       7
  5
211
 10
212.50001221
 20
-5.00000458
 30
0.0
 40
0.75
  0
CIRCLE
  8
0
  6
CONTINUOUS
 62
       7
  5
212
 10
-42.50001831
 20
-5.00000458
 30
0.0
 40
0.75
  0
CIRCLE
  8
0
  6
CONTINUOUS
 62
       2
  5
213
 10
-42.50001831
 20
-5.00000458
 30
0.0
 40
1.5
  0
CIRCLE
  8
0
  6
CONTINUOUS
 62
       7
  5
214
 10
188.00001221
 20
-0.00000458
 30
0.0
 40
4.0
  0
CIRCLE
  8
0
  6
CONTINUOUS
 62
       2
  5
215
 10
188.00001221
 20
-0.00000458
 30
0.0
 40
5.25
  0
CIRCLE
  8
0
  6
CONTINUOUS
 62
       7
  5
216
 10
62.99998169
 20
-0.00000458
 30
0.0
 40
4.0
  0
CIRCLE
  8
0
  6
CONTINUOUS
 62
       2
  5
217
 10
62.99998169
 20
-0.00000458
 30
0.0
 40
5.25
  0
CIRCLE
  8
0
  6
CONTINUOUS
 62
       7
  5
218
 10
160.50001221
 20
-122.8
 30
0.0
 40
3.29999924
  0
CIRCLE
  8
0
  6
CONTINUOUS
 62
       7
  5
219
 10
160.50001221
 20
-122.8
 30
0.0
 40
5.5
  0
CIRCLE
  8
0
  6
CONTINUOUS
 62
       7
  5
21A
 10
90.50001221
 20
-122.8
 30
0.0
 40
3.29999924
  0
CIRCLE
  8
0
  6
CONTINUOUS
 62
       7
  5
21B
 10
90.50001221
 20
-122.8
 30
0.0
 40
5.5
  0
CIRCLE
  8
0
  6
CONTINUOUS
 62
       7
  5
21C
 10
218.00001221
 20
-157.80003052
 30
0.0
 40
2.75
  0
CIRCLE
  8
0
  6
CONTINUOUS
 62
       7
  5
21D
 10
217.00001221
 20
-102.8
 30
0.0
 40
3.0
  0
CIRCLE
  8
0
  6
CONTINUOUS
 62
       7
  5
21E
 10
-46.99998779
 20
-102.8
 30
0.0
 40
3.0
  0
CIRCLE
  8
0
  6
CONTINUOUS
 62
       7
  5
21F
 10
-46.99998779
 20
-142.8
 30
0.0
 40
3.0
  0
CIRCLE
  8
0
  6
CONTINUOUS
 62
       7
  5
220
 10
217.00001221
 20
-142.8
 30
0.0
 40
3.0
  0
CIRCLE
  8
0
  6
CONTINUOUS
 62
       7
  5
221
 10
-48.00001831
 20
-87.8
 30
0.0
 40
2.75
  0
CIRCLE
  8
0
  6
CONTINUOUS
 62
       7
  5
222
 10
-48.00001831
 20
-157.80003052
 30
0.0
 40
2.75
  0
CIRCLE
  8
0
  6
CONTINUOUS
 62
       7
  5
223
 10
218.00001221
 20
-87.8
 30
0.0
 40
2.75
  0
CIRCLE
  8
0
  6
CONTINUOUS
 62
       7
  5
224
 10
-197.99998779
 20
-0.00000458
 30
0.0
 40
7.14999962
  0
CIRCLE
  8
0
  6
CONTINUOUS
 62
       7
  5
225
 10
-197.99998779
 20
-0.00000458
 30
0.0
 40
6.0
  0
CIRCLE
  8
0
  6
CONTINUOUS
 62
       2
  5
226
 10
-197.99998779
 20
-0.00000458
 30
0.0
 40
5.0
  0
CIRCLE
  8
0
  6
CONTINUOUS
 62
       7
  5
227
 10
-197.99998779
 20
-0.00000458
 30
0.0
 40
4.0
  0
CIRCLE
  8
0
  6
CONTINUOUS
 62
       7
  5
228
 10
-158.00001831
 20
-0.00000458
 30
0.0
 40
4.0
  0
CIRCLE
  8
0
  6
CONTINUOUS
 62
       2
  5
229
 10
-158.00001831
 20
-0.00000458
 30
0.0
 40
5.0
  0
CIRCLE
  8
0
  6
CONTINUOUS
 62
       7
  5
22A
 10
-158.00001831
 20
-0.00000458
 30
0.0
 40
6.0
  0
CIRCLE
  8
0
  6
CONTINUOUS
 62
       7
  5
22B
 10
-158.00001831
 20
-0.00000458
 30
0.0
 40
7.14999962
  0
CIRCLE
  8
0
  6
CONTINUOUS
 62
       7
  5
22C
 10
-177.99998779
 20
-6.00000458
 30
0.0
 40
6.0
  0
CIRCLE
  8
0
  6
CONTINUOUS
 62
       2
  5
22D
 10
-177.99998779
 20
-6.00000458
 30
0.0
 40
5.0
  0
CIRCLE
  8
0
  6
CONTINUOUS
 62
       7
  5
22E
 10
-177.99998779
 20
-6.00000458
 30
0.0
 40
7.0
  0
CIRCLE
  8
0
  6
CONTINUOUS
 62
       2
  5
22F
 10
-212.99998779
 20
-0.00000458
 30
0.0
 40
2.5
  0
CIRCLE
  8
0
  6
CONTINUOUS
 62
       7
  5
230
 10
-212.99998779
 20
-0.00000458
 30
0.0
 40
1.75
  0
CIRCLE
  8
0
  6
CONTINUOUS
 62
       7
  5
231
 10
-143.00001831
 20
-0.00000458
 30
0.0
 40
1.75
  0
CIRCLE
  8
0
  6
CONTINUOUS
 62
       2
  5
232
 10
-143.00001831
 20
-0.00000458
 30
0.0
 40
2.5
  0
ARC
  8
0
  6
CONTINUOUS
 62
       7
  5
233
 10
196.99
 20
164.79996872
 30
0.0
 40
6.99503532
 50
73.30082938
 51
106.69917062
  0
ARC
  8
0
  6
CONTINUOUS
 62
       7
  5
234
 10
198.72191695
 20
170.54957647
 30
0.0
 40
0.9902702
 50
14.64824085
 51
73.69112818
  0
ARC
  8
0
  6
CONTINUOUS
 62
       7
  5
235
 10
195.26842824
 20
170.53952685
 30
0.0
 40
1.00284571
 50
106.71491135
 51
164.94571962
  0
ARC
  8
0
  6
CONTINUOUS
 62
       7
  5
236
 10
96.99
 20
164.79996872
 30
0.0
 40
6.99503532
 50
73.30082938
 51
106.69917062
  0
ARC
  8
0
  6
CONTINUOUS
 62
       7
  5
237
 10
98.7219013
 20
170.54956127
 30
0.0
 40
0.99028919
 50
14.64886284
 51
73.69050619
  0
ARC
  8
0
  6
CONTINUOUS
 62
       7
  5
238
 10
95.2684124
 20
170.53954224
 30
0.0
 40
1.00282642
 50
106.71429764
 51
164.94633333
  0
ARC
  8
0
  6
CONTINUOUS
 62
       7
  5
239
 10
96.99
 20
-169.79999314
 30
0.0
 40
6.99501193
 50
253.30077192
 51
286.69922808
  0
ARC
  8
0
  6
CONTINUOUS
 62
       7
  5
23A
 10
98.72783595
 20
-175.54277487
 30
0.0
 40
0.99516492
 50
285.87183243
 51
355.54935384
  0
ARC
  8
0
  6
CONTINUOUS
 62
       7
  5
23B
 10
95.27531306
 20
-175.54668279
 30
0.0
 40
0.99800977
 50
184.21293912
 51
252.78836832
  0
ARC
  8
0
  6
CONTINUOUS
 62
       7
  5
23C
 10
196.99
 20
-169.79999314
 30
0.0
 40
6.99501193
 50
253.30077192
 51
286.69922808
  0
ARC
  8
0
  6
CONTINUOUS
 62
       7
  5
23D
 10
198.72785429
 20
-175.54278988
 30
0.0
 40
0.99514547
 50
285.87105286
 51
355.55013341
  0
ARC
  8
0
  6
CONTINUOUS
 62
       7
  5
23E
 10
195.27533176
 20
-175.54666792
 30
0.0
 40
0.99802951
 50
184.21371161
 51
252.78759583
  0
ARC
  8
0
  6
CONTINUOUS
 62
       7
  5
23F
 10
-224.99998096
 20
-5.26
 30
0.0
 40
6.99790363
 50
163.22237791
 51
196.77762209
  0
ARC
  8
0
  6
CONTINUOUS
 62
       7
  5
240
 10
-230.74179375
 20
-6.97854071
 30
0.0
 40
1.0045083
 50
197.46398895
 51
265.53470361
  0
ARC
  8
0
  6
CONTINUOUS
 62
       7
  5
241
 10
-230.75153202
 20
-3.52921689
 30
0.0
 40
0.99158354
 50
93.95937422
 51
163.04193322
  0
CIRCLE
  8
0
  6
CONTINUOUS
 62
       7
  5
242
 10
81.00001221
 20
6.99999542
 30
0.0
 40
2.79999924
  0
ARC
  8
0
  6
CONTINUOUS
 62
       7
  5
243
 10
80.99
 20
8.27284652
 30
0.0
 40
0.61012795
 50
225.18901756
 51
314.81098244
  0
ARC
  8
0
  6
CONTINUOUS
 62
       7
  5
244
 10
79.72715753
 20
6.99
 30
0.0
 40
0.5961031
 50
313.83380518
 51
46.16619482
  0
ARC
  8
0
  6
CONTINUOUS
 62
       7
  5
245
 10
82.27286693
 20
6.99
 30
0.0
 40
0.61014242
 50
135.19036794
 51
224.80963206
  0
ARC
  8
0
  6
CONTINUOUS
 62
       7
  5
246
 10
80.99
 20
5.72714437
 30
0.0
 40
0.59611221
 50
43.83471796
 51
136.16528204
  0
CIRCLE
  8
0
  6
CONTINUOUS
 62
       7
  5
247
 10
89.00001221
 20
-7.00000458
 30
0.0
 40
2.79999924
  0
ARC
  8
0
  6
CONTINUOUS
 62
       7
  5
248
 10
88.99
 20
-5.72715348
 30
0.0
 40
0.61012795
 50
225.18901756
 51
314.81098244
  0
ARC
  8
0
  6
CONTINUOUS
 62
       7
  5
249
 10
87.72715753
 20
-7.01
 30
0.0
 40
0.5961031
 50
313.83380518
 51
46.16619482
  0
ARC
  8
0
  6
CONTINUOUS
 62
       7
  5
24A
 10
90.27286693
 20
-7.01
 30
0.0
 40
0.61014242
 50
135.19036794
 51
224.80963206
  0
ARC
  8
0
  6
CONTINUOUS
 62
       7
  5
24B
 10
88.99
 20
-8.27285563
 30
0.0
 40
0.59611221
 50
43.83471796
 51
136.16528204
  0
ARC
  8
0
  6
CONTINUOUS
 62
       7
  5
24C
 10
81.24
 20
77.39999041
 30
0.0
 40
5.00610791
 50
240.56737761
 51
299.43262239
  0
ARC
  8
0
  6
CONTINUOUS
 62
       7
  5
24D
 10
79.11715689
 20
73.62729887
 30
0.0
 40
0.67719622
 50
180.61754962
 51
240.1407024
  0
ARC
  8
0
  6
CONTINUOUS
 62
       7
  5
24E
 10
83.37763227
 20
73.61862936
 30
0.0
 40
0.66236915
 50
299.12318563
 51
0.11856235
  0
ARC
  8
0
  6
CONTINUOUS
 62
       7
  5
24F
 10
-139.59997207
 20
6.74
 30
0.0
 40
5.00609194
 50
330.56727449
 51
29.43272551
  0
ARC
  8
0
  6
CONTINUOUS
 62
       7
  5
250
 10
-135.82729933
 20
4.61715768
 30
0.0
 40
0.67719702
 50
270.61758802
 51
330.14066401
  0
ARC
  8
0
  6
CONTINUOUS
 62
       7
  5
251
 10
-135.81861779
 20
8.877652
 30
0.0
 40
0.66234945
 50
29.12218183
 51
90.11956615
  0
ARC
  8
0
  6
CONTINUOUS
 62
       7
  5
252
 10
88.74
 20
-82.40001482
 30
0.0
 40
5.00612917
 50
60.56751492
 51
119.43248508
  0
ARC
  8
0
  6
CONTINUOUS
 62
       7
  5
253
 10
90.87765752
 20
-78.61861456
 30
0.0
 40
0.66234393
 50
359.88015286
 51
60.87809916
  0
ARC
  8
0
  6
CONTINUOUS
 62
       7
  5
254
 10
86.61719026
 20
-78.62731843
 30
0.0
 40
0.6772298
 50
119.86092207
 51
179.38082591
  0
CIRCLE
  8
0
  6
CONTINUOUS
 62
       7
  5
255
 10
85.00001221
 20
-0.00000458
 30
0.0
 40
1.75
  0
ARC
  8
0
  6
CONTINUOUS
 62
       7
  5
256
 10
81.00333501
 20
6.99213404
 30
0.0
 40
3.49667384
 50
0.12889007
 51
45.82499894
  0
ARC
  8
0
  6
CONTINUOUS
 62
       7
  5
257
 10
88.99504884
 20
-7.00494783
 30
0.0
 40
3.50036429
 50
44.30548702
 51
225.4630152
  0
ARC
  8
0
  6
CONTINUOUS
 62
       7
  5
258
 10
80.99632185
 20
6.9984833
 30
0.0
 40
3.50367848
 50
224.56245573
 51
0.02480259
  0
POINT
  8
0
  6
CONTINUOUS
 62
       7
  5
259
 10
-48.0
 20
137.8
 30
0.0
  0
LINE
  8
0
  6
CONTINUOUS
 62
       7
  5
25A
 10
-231.0
 20
-1.0
 30
0.0
 11
-220.0
 21
-1.0
 31
0.0
  0
POINT
  8
0
  6
CONTINUOUS
 62
       7
  5
25B
 10
-40.0
 20
0.0
 30
0.0
  0
LINE
  8
0
  6
CONTINUOUS
 62
       7
  5
25C
 10
282.09985352
 20
195.5
 30
0.0
 11
282.09985352
 21
-195.0
 31
0.0
  0
LINE
  8
0
  6
CONTINUOUS
 62
       7
  5
25D
 10
-281.25
 20
195.5
 30
0.0
 11
282.09985352
 21
195.5
 31
0.0
  0
LINE
  8
0
  6
CONTINUOUS
 62
       7
  5
25E
 10
-281.25
 20
195.5
 30
0.0
 11
-281.25
 21
-195.0
 31
0.0
  0
LINE
  8
0
  6
CONTINUOUS
 62
       7
  5
25F
 10
-281.25
 20
-195.0
 30
0.0
 11
282.09985352
 21
-195.0
 31
0.0
  0
TEXT
  8
0
  6
CONTINUOUS
 62
       7
  5
260
 10
-268.34719258
 20
157.3499999
 30
0.0
 40
6.30000019
  1
MODEL:ＳＵＰKS25*75-K-CS3HA2
 41
1.00267379
  7
MX_NOTE_STANDARD
 11
-268.34719258
 21
160.5
 31
0.0
 73
       2
  0
ENDSEC
  0
EOF
