  0
SECTION
  2
HEADER
  9
$ACADVER
  1
AC1002
  9
$INSBASE
 10
0.0
 20
0.0
  9
$EXTMIN
 10
-185.4368
 20
-127.2792
  9
$EXTMAX
 10
185.4368
 20
127.2792
  9
$LIMMIN
 10
0.0
 20
0.0
  9
$LIMMAX
 10
12.0
 20
9.0
  9
$VIEWCTR
 10
14.30458208
 20
0.0
  9
$VIEWSIZE
 40
254.5584
  9
$SNAPMODE
 70
     0
  9
$SNAPUNIT
 10
1.0
 20
1.0
  9
$SNAPBASE
 10
0.0
 20
0.0
  9
$SNAPANG
 50
0.0
  9
$SNAPSTYLE
 70
     0
  9
$SNAPISOPAIR
 70
     0
  9
$GRIDMODE
 70
     0
  9
$GRIDUNIT
 10
0.0
 20
0.0
  9
$ORTHOMODE
 70
     0
  9
$REGENMODE
 70
     1
  9
$FILLMODE
 70
     1
  9
$QTEXTMODE
 70
     0
  9
$DRAGMODE
 70
     2
  9
$LTSCALE
 40
1.0
  9
$OSMODE
 70
     0
  9
$ATTMODE
 70
     1
  9
$TEXTSIZE
 40
0.2
  9
$TRACEWID
 40
0.05
  9
$TEXTSTYLE
  7
AAA
  9
$CLAYER
  8
0
  9
$CELTYPE
  6
BYLAYER
  9
$CECOLOR
 62
   256
  9
$DIMSCALE
 40
1.0
  9
$DIMASZ
 40
0.18
  9
$DIMEXO
 40
0.0625
  9
$DIMDLI
 40
0.38
  9
$DIMRND
 40
0.0
  9
$DIMDLE
 40
0.0
  9
$DIMEXE
 40
0.18
  9
$DIMTP
 40
0.0
  9
$DIMTM
 40
0.0
  9
$DIMTXT
 40
0.18
  9
$DIMCEN
 40
0.09
  9
$DIMTSZ
 40
0.0
  9
$DIMTOL
 70
     0
  9
$DIMLIM
 70
     0
  9
$DIMTIH
 70
     1
  9
$DIMTOH
 70
     1
  9
$DIMSE1
 70
     0
  9
$DIMSE2
 70
     0
  9
$DIMTAD
 70
     0
  9
$DIMZIN
 70
     0
  9
$DIMBLK
  1

  9
$LUNITS
 70
     2
  9
$LUPREC
 70
     4
  9
$AXISMODE
 70
     0
  9
$AXISUNIT
 10
0.0
 20
0.0
  9
$SKETCHINC
 40
0.1
  9
$FILLETRAD
 40
0.0
  9
$AUNITS
 70
     0
  9
$AUPREC
 70
     0
  9
$MENU
  1
ACAD
  9
$ELEVATION
 40
0.0
  9
$THICKNESS
 40
0.0
  9
$VIEWDIR
 10
0.0
 20
0.0
 30
1.0
  9
$LIMCHECK
 70
     0
  9
$BLIPMODE
 70
     1
  9
$CHAMFERA
 40
0.0
  9
$CHAMFERB
 40
0.0
  9
$FASTZOOM
 70
     1
  9
$SKPOLY
 70
     0
  9
$TDCREATE
 40
2447814.5635648642
  9
$TDUPDATE
 40
2447814.5635648642
  9
$TDINDWG
 40
0.0017939815
  9
$TDUSRTIMER
 40
0.0017939815
  9
$USRTIMER
 70
     1
  9
$ANGBASE
 50
0.0
  9
$ANGDIR
 70
     0
  9
$PDMODE
 70
     0
  9
$PDSIZE
 40
0.0
  9
$PLINEWID
 40
0.0
  9
$COORDS
 70
     0
  9
$USERI1
 70
     0
  9
$USERI2
 70
     0
  9
$USERI3
 70
     0
  9
$USERI4
 70
     0
  9
$USERI5
 70
     0
  9
$USERR1
 40
0.0
  9
$USERR2
 40
0.0
  9
$USERR3
 40
0.0
  9
$USERR4
 40
0.0
  9
$USERR5
 40
0.0
  0
ENDSEC
  0
SECTION
  2
TABLES
  0
TABLE
  2
LTYPE
 70
     3
  0
LTYPE
  2
CONTINUOUS
 70
    64
  3
SOLID
 72
    65
 73
     0
 40
0.0
  0
LTYPE
  2
DASHED
 70
    64
  3
DASHED
 72
    65
 73
     2
 40
0.75
 49
0.5
 49
-0.25
  0
LTYPE
  2
CENTER
 70
    64
  3
CENTER
 72
    65
 73
     4
 40
2.0
 49
1.25
 49
-0.25
 49
0.25
 49
-0.25
  0
ENDTAB
  0
TABLE
  2
LAYER
 70
     1
  0
LAYER
  2
0
 70
    64
 62
     7
  6
CONTINUOUS
  0
ENDTAB
  0
TABLE
  2
STYLE
 70
     2
  0
STYLE
  2
AAA
 70
     0
 40
0.0
 41
1.0
 50
0.0
 71
     0
 42
0.2
  3
TXT
  4

  0
STYLE
  2
STANDARD
 70
    64
 40
0.0
 41
1.0
 50
0.0
 71
     0
 42
0.2
  3
TXT
  4
BIGFONT
  0
ENDTAB
  0
TABLE
  2
VIEW
 70
     0
  0
ENDTAB
  0
ENDSEC
  0
SECTION
  2
BLOCKS
  0
ENDSEC
  0
SECTION
  2
ENTITIES
  0
LINE
  8
0
  6
CONTINUOUS
 62
     2
 10
-38.49999
 20
92.0
 11
-35.70096
 21
92.74999
  0
LINE
  8
0
  6
CONTINUOUS
 62
     2
 10
-38.5
 20
84.5
 11
-38.5
 21
94.5
  0
LINE
  8
0
  6
CONTINUOUS
 62
     2
 10
-38.5
 20
92.0
 11
99.5
 21
92.0
  0
LINE
  8
0
  6
CONTINUOUS
 62
     2
 10
99.5
 20
94.5
 11
99.5
 21
84.5
  0
LINE
  8
0
  6
CONTINUOUS
 62
     2
 10
-38.49999
 20
92.00002
 11
-35.70097
 21
91.25002
  0
LINE
  8
0
  6
CONTINUOUS
 62
     2
 10
99.5
 20
91.99999
 11
96.70097
 21
91.24999
  0
LINE
  8
0
  6
CONTINUOUS
 62
     2
 10
99.50002
 20
91.99998
 11
96.70099
 21
92.74998
  0
LINE
  8
0
  6
CONTINUOUS
 62
     2
 10
-1.0
 20
5.5
 11
-1.0
 21
20.0
  0
LINE
  8
0
  6
CONTINUOUS
 62
     2
 10
-1.0
 20
17.5
 11
45.0
 21
17.5
  0
LINE
  8
0
  6
CONTINUOUS
 62
     2
 10
45.0
 20
20.0
 11
45.0
 21
5.5
  0
LINE
  8
0
  6
CONTINUOUS
 62
     2
 10
-0.99999
 20
17.50001
 11
1.79904
 21
18.25001
  0
LINE
  8
0
  6
CONTINUOUS
 62
     2
 10
-1.0
 20
17.50003
 11
1.79903
 21
16.75003
  0
LINE
  8
0
  6
CONTINUOUS
 62
     2
 10
44.99999
 20
17.49999
 11
42.20097
 21
16.74999
  0
LINE
  8
0
  6
CONTINUOUS
 62
     2
 10
45.0
 20
17.49997
 11
42.20097
 21
18.24997
  0
LINE
  8
0
  6
CONTINUOUS
 62
     2
 10
-18.5
 20
-37.5
 11
-18.5
 21
-27.5
  0
LINE
  8
0
  6
CONTINUOUS
 62
     2
 10
-18.5
 20
-30.0
 11
62.5
 21
-30.0
  0
LINE
  8
0
  6
CONTINUOUS
 62
     2
 10
62.5
 20
-27.5
 11
62.5
 21
-37.5
  0
LINE
  8
0
  6
CONTINUOUS
 62
     2
 10
-18.49999
 20
-29.99999
 11
-15.70096
 21
-29.24999
  0
LINE
  8
0
  6
CONTINUOUS
 62
     2
 10
-18.5
 20
-29.99997
 11
-15.70097
 21
-30.74997
  0
LINE
  8
0
  6
CONTINUOUS
 62
     2
 10
62.49999
 20
-30.00001
 11
59.70096
 21
-30.75
  0
LINE
  8
0
  6
CONTINUOUS
 62
     2
 10
62.5
 20
-30.00003
 11
59.70097
 21
-29.25003
  0
LINE
  8
0
  6
CONTINUOUS
 62
     2
 10
-18.5
 20
-82.5
 11
-18.5
 21
-117.5
  0
LINE
  8
0
  6
CONTINUOUS
 62
     2
 10
-10.5
 20
-64.5
 11
-10.5
 21
-117.5
  0
LINE
  8
0
  6
CONTINUOUS
 62
     2
 10
4.5
 20
-67.0
 11
4.5
 21
-107.5
  0
LINE
  8
0
  6
CONTINUOUS
 62
     2
 10
14.5
 20
-64.5
 11
14.5
 21
-97.5
  0
LINE
  8
0
  6
CONTINUOUS
 62
     2
 10
29.5
 20
-64.5
 11
29.5
 21
-97.5
  0
LINE
  8
0
  6
CONTINUOUS
 62
     2
 10
39.5
 20
-67.0
 11
39.5
 21
-107.5
  0
LINE
  8
0
  6
CONTINUOUS
 62
     2
 10
54.5
 20
-64.5
 11
54.5
 21
-117.5
  0
LINE
  8
0
  6
CONTINUOUS
 62
     2
 10
-18.5
 20
-95.0
 11
29.5
 21
-95.0
  0
LINE
  8
0
  6
CONTINUOUS
 62
     2
 10
-18.5
 20
-105.0
 11
39.5
 21
-105.0
  0
LINE
  8
0
  6
CONTINUOUS
 62
     2
 10
-18.5
 20
-115.0
 11
54.5
 21
-115.0
  0
LINE
  8
0
  6
CONTINUOUS
 62
     2
 10
-18.49999
 20
-94.99998
 11
-15.70096
 21
-94.24998
  0
LINE
  8
0
  6
CONTINUOUS
 62
     2
 10
-18.5
 20
-94.99997
 11
-15.70097
 21
-95.74997
  0
LINE
  8
0
  6
CONTINUOUS
 62
     2
 10
-18.49999
 20
-105.0
 11
-15.70096
 21
-104.25
  0
LINE
  8
0
  6
CONTINUOUS
 62
     2
 10
-18.5
 20
-105.0
 11
-15.70097
 21
-105.75
  0
LINE
  8
0
  6
CONTINUOUS
 62
     2
 10
-18.5
 20
-115.0
 11
-15.70096
 21
-114.25
  0
LINE
  8
0
  6
CONTINUOUS
 62
     2
 10
-18.5
 20
-115.0
 11
-15.70097
 21
-115.75
  0
LINE
  8
0
  6
CONTINUOUS
 62
     2
 10
-10.50001
 20
-115.0
 11
-13.29904
 21
-115.75
  0
LINE
  8
0
  6
CONTINUOUS
 62
     2
 10
-10.5
 20
-115.0
 11
-13.29903
 21
-114.25
  0
LINE
  8
0
  6
CONTINUOUS
 62
     2
 10
4.49999
 20
-105.0
 11
1.70096
 21
-105.75
  0
LINE
  8
0
  6
CONTINUOUS
 62
     2
 10
4.5
 20
-105.0
 11
1.70097
 21
-104.25
  0
LINE
  8
0
  6
CONTINUOUS
 62
     2
 10
14.49999
 20
-94.99999
 11
11.70096
 21
-95.74999
  0
LINE
  8
0
  6
CONTINUOUS
 62
     2
 10
14.5
 20
-95.00003
 11
11.70097
 21
-94.25003
  0
LINE
  8
0
  6
CONTINUOUS
 62
     2
 10
29.49999
 20
-95.00001
 11
26.70096
 21
-95.75001
  0
LINE
  8
0
  6
CONTINUOUS
 62
     2
 10
29.5
 20
-95.00003
 11
26.70097
 21
-94.25003
  0
LINE
  8
0
  6
CONTINUOUS
 62
     2
 10
39.49999
 20
-105.0
 11
36.70096
 21
-105.75
  0
LINE
  8
0
  6
CONTINUOUS
 62
     2
 10
39.5
 20
-105.0
 11
36.70098
 21
-104.25
  0
LINE
  8
0
  6
CONTINUOUS
 62
     2
 10
54.49999
 20
-115.0
 11
51.70096
 21
-115.75
  0
LINE
  8
0
  6
CONTINUOUS
 62
     2
 10
54.5
 20
-115.0
 11
51.70097
 21
-114.25
  0
LINE
  8
0
  6
CONTINUOUS
 62
     2
 10
-10.49999
 20
-115.0
 11
-7.70096
 21
-114.25
  0
LINE
  8
0
  6
CONTINUOUS
 62
     2
 10
-10.5
 20
-115.0
 11
-7.70097
 21
-115.75
  0
LINE
  8
0
  6
CONTINUOUS
 62
     2
 10
4.50001
 20
-105.0
 11
7.29904
 21
-104.25
  0
LINE
  8
0
  6
CONTINUOUS
 62
     2
 10
4.5
 20
-105.0
 11
7.29903
 21
-105.75
  0
LINE
  8
0
  6
CONTINUOUS
 62
     2
 10
14.50001
 20
-94.99999
 11
17.29904
 21
-94.24999
  0
LINE
  8
0
  6
CONTINUOUS
 62
     2
 10
14.5
 20
-94.99996
 11
17.29903
 21
-95.74996
  0
LINE
  8
0
  6
CONTINUOUS
 62
     2
 10
-59.38033
 20
33.0
 11
-45.23524
 21
57.5
  0
LINE
  8
0
  6
CONTINUOUS
 62
     2
 10
-82.06091166
 20
33.0
 11
-59.38033
 21
33.0
  0
LINE
  8
0
  6
CONTINUOUS
 62
     2
 10
-45.23525
 20
57.5
 11
-45.98524
 21
54.70097
  0
LINE
  8
0
  6
CONTINUOUS
 62
     2
 10
-45.23522
 20
57.49998
 11
-47.28425
 21
55.45095
  0
LINE
  8
0
  6
CONTINUOUS
 62
     2
 10
46.25
 20
2.16507
 11
55.10363
 21
17.5
  0
LINE
  8
0
  6
CONTINUOUS
 62
     2
 10
76.64223005
 20
17.5
 11
55.10363
 21
17.5
  0
LINE
  8
0
  6
CONTINUOUS
 62
     2
 10
46.25
 20
2.16506
 11
48.29903
 21
4.21409
  0
LINE
  8
0
  6
CONTINUOUS
 62
     2
 10
46.25002
 20
2.16505
 11
47.00002
 21
4.96408
  0
LINE
  8
0
  6
CONTINUOUS
 62
     2
 10
30.5
 20
-61.73205
 11
61.25427
 21
-115.0
  0
LINE
  8
0
  6
CONTINUOUS
 62
     2
 10
61.25427
 20
-115.0
 11
82.99425715
 21
-115.0
  0
LINE
  8
0
  6
CONTINUOUS
 62
     2
 10
30.50001
 20
-61.73206
 11
32.54905
 21
-63.78109
  0
LINE
  8
0
  6
CONTINUOUS
 62
     2
 10
30.50003
 20
-61.73204
 11
31.25003
 21
-64.53108
  0
LINE
  8
0
  6
CONTINUOUS
 62
     7
 10
-121.24337256
 20
-111.5
 11
-116.24337256
 21
-111.5
  0
LINE
  8
0
  6
CONTINUOUS
 62
     7
 10
-116.24341256
 20
-111.5001
 11
-119.04244256
 21
-112.2501
  0
LINE
  8
0
  6
CONTINUOUS
 62
     7
 10
-116.24339256
 20
-111.5001
 11
-119.04242256
 21
-110.7501
  0
LINE
  8
0
  6
CONTINUOUS
 62
     7
 10
135.4118
 20
-118.0758
 11
135.4118
 21
-122.9143
  0
LINE
  8
0
  6
CONTINUOUS
 62
     7
 10
137.6237
 20
-117.5228
 11
137.6237
 21
-124.5732
  0
LINE
  8
0
  6
CONTINUOUS
 62
     7
 10
129.1908
 20
-116.4169
 11
129.1908
 21
-118.0758
  0
LINE
  8
0
  6
CONTINUOUS
 62
     7
 10
129.1908
 20
-118.0758
 11
135.4118
 21
-118.0758
  0
LINE
  8
0
  6
CONTINUOUS
 62
     7
 10
129.1908
 20
-124.5732
 11
137.6237
 21
-124.5732
  0
LINE
  8
0
  6
CONTINUOUS
 62
     7
 10
129.1908
 20
-122.9143
 11
135.4118
 21
-122.9143
  0
LINE
  8
0
  6
CONTINUOUS
 62
     7
 10
129.1908
 20
-116.4169
 11
136.5177
 21
-116.4169
  0
LINE
  8
0
  6
CONTINUOUS
 62
     7
 10
109.1646
 20
-112.9782
 11
185.4368
 21
-112.9782
  0
LINE
  8
0
  6
CONTINUOUS
 62
     7
 10
-109.1646
 20
112.9782
 11
-109.1646
 21
127.2792
  0
LINE
  8
0
  6
CONTINUOUS
 62
     7
 10
-185.4368
 20
112.9782
 11
-109.1646
 21
112.9782
  0
LINE
  8
0
  6
CONTINUOUS
 62
     7
 10
-185.4368
 20
127.2792
 11
185.4368
 21
127.2792
  0
LINE
  8
0
  6
CONTINUOUS
 62
     7
 10
-185.4368
 20
-127.2792
 11
185.4368
 21
-127.2792
  0
LINE
  8
0
  6
CONTINUOUS
 62
     7
 10
185.4368
 20
127.2792
 11
185.4368
 21
-127.2792
  0
LINE
  8
0
  6
CONTINUOUS
 62
     7
 10
-185.4368
 20
-127.2792
 11
-185.4368
 21
127.2792
  0
LINE
  8
0
  6
CONTINUOUS
 62
     7
 10
138.8678
 20
-116.4169
 11
138.8678
 21
-118.0758
  0
LINE
  8
0
  6
CONTINUOUS
 62
     7
 10
146.7477
 20
-118.0758
 11
146.7477
 21
-123.4673
  0
LINE
  8
0
  6
CONTINUOUS
 62
     7
 10
109.1646
 20
-112.9782
 11
109.1646
 21
-127.2792
  0
LINE
  8
0
  6
CONTINUOUS
 62
     7
 10
109.1646
 20
127.2792
 11
109.1646
 21
112.9782
  0
LINE
  8
0
  6
CONTINUOUS
 62
     7
 10
109.1646
 20
112.9782
 11
185.4368
 21
112.9782
  0
LINE
  8
0
  6
CONTINUOUS
 62
     7
 10
146.9689
 20
-116.2925
 11
147.7569
 21
-116.2925
  0
LINE
  8
0
  6
CONTINUOUS
 62
     7
 10
146.9689
 20
-115.1865
 11
147.7569
 21
-115.1865
  0
LINE
  8
0
  6
CONTINUOUS
 62
     7
 10
147.7569
 20
-115.1865
 11
147.7569
 21
-116.2925
  0
LINE
  8
0
  6
CONTINUOUS
 62
     7
 10
146.9689
 20
-115.1865
 11
146.9689
 21
-116.2925
  0
LINE
  8
0
  6
CONTINUOUS
 62
     7
 10
146.5541
 20
-115.1865
 11
146.5541
 21
-116.2925
  0
LINE
  8
0
  6
CONTINUOUS
 62
     7
 10
145.8491
 20
-115.1865
 11
145.8491
 21
-116.2925
  0
LINE
  8
0
  6
CONTINUOUS
 62
     7
 10
145.8491
 20
-116.2925
 11
146.5541
 21
-116.2925
  0
LINE
  8
0
  6
CONTINUOUS
 62
     7
 10
150.7568
 20
-115.1865
 11
152.9686
 21
-115.1865
  0
LINE
  8
0
  6
CONTINUOUS
 62
     7
 10
145.8491
 20
-115.1865
 11
146.5541
 21
-115.1865
  0
LINE
  8
0
  6
CONTINUOUS
 62
     7
 10
141.2497
 20
-115.1865
 11
143.1004
 21
-115.1865
  0
LINE
  8
0
  6
CONTINUOUS
 62
     7
 10
163.7519
 20
-118.2023
 11
164.3649
 21
-117.9585
  0
LINE
  8
0
  6
CONTINUOUS
 62
     7
 10
163.7517
 20
-118.2022
 11
163.7517
 21
-124.5732
  0
LINE
  8
0
  6
CONTINUOUS
 62
     7
 10
161.5397
 20
-124.5732
 11
163.7517
 21
-124.5732
  0
LINE
  8
0
  6
CONTINUOUS
 62
     7
 10
156.9777
 20
-120.8963
 11
161.5397
 21
-119.0819
  0
LINE
  8
0
  6
CONTINUOUS
 62
     7
 10
156.9778
 20
-119.111
 11
163.4032
 21
-116.5556
  0
LINE
  8
0
  6
CONTINUOUS
 62
     7
 10
161.5397
 20
-119.0819
 11
161.5397
 21
-124.5732
  0
LINE
  8
0
  6
CONTINUOUS
 62
     7
 10
163.7517
 20
-115.6842
 11
163.7517
 21
-116.0417
  0
LINE
  8
0
  6
CONTINUOUS
 62
     7
 10
165.4106
 20
-115.6842
 11
165.4106
 21
-116.4169
  0
LINE
  8
0
  6
CONTINUOUS
 62
     7
 10
156.9777
 20
-119.1109
 11
156.9777
 21
-120.8962
  0
LINE
  8
0
  6
CONTINUOUS
 62
     7
 10
163.7517
 20
-115.6842
 11
165.4106
 21
-115.6842
  0
LINE
  8
0
  6
CONTINUOUS
 62
     7
 10
154.1712
 20
-120.0975
 11
155.6481
 21
-119.4088
  0
LINE
  8
0
  6
CONTINUOUS
 62
     7
 10
152.9686
 20
-121.3672
 11
152.9686
 21
-124.5732
  0
LINE
  8
0
  6
CONTINUOUS
 62
     7
 10
150.7568
 20
-121.6895
 11
150.7568
 21
-124.5732
  0
LINE
  8
0
  6
CONTINUOUS
 62
     7
 10
152.9686
 20
-116.4169
 11
155.1806
 21
-116.4169
  0
LINE
  8
0
  6
CONTINUOUS
 62
     7
 10
152.9686
 20
-115.1865
 11
152.9686
 21
-116.4169
  0
LINE
  8
0
  6
CONTINUOUS
 62
     7
 10
150.7568
 20
-115.1865
 11
150.7568
 21
-116.4169
  0
LINE
  8
0
  6
CONTINUOUS
 62
     7
 10
156.2865
 20
-117.5228
 11
156.2865
 21
-118.4064
  0
LINE
  8
0
  6
CONTINUOUS
 62
     7
 10
154.1712
 20
-120.0975
 11
156.2867
 21
-121.084
  0
LINE
  8
0
  6
CONTINUOUS
 62
     7
 10
152.9686
 20
-121.3672
 11
156.2865
 21
-122.9143
  0
LINE
  8
0
  6
CONTINUOUS
 62
     7
 10
148.1301
 20
-121.0839
 11
148.1301
 21
-122.9143
  0
LINE
  8
0
  6
CONTINUOUS
 62
     7
 10
148.1303
 20
-121.084
 11
154.5812
 21
-118.0759
  0
LINE
  8
0
  6
CONTINUOUS
 62
     7
 10
148.1301
 20
-122.9143
 11
150.7568
 21
-121.6895
  0
LINE
  8
0
  6
CONTINUOUS
 62
     7
 10
156.2865
 20
-121.0839
 11
156.2865
 21
-122.9143
  0
LINE
  8
0
  6
CONTINUOUS
 62
     7
 10
148.1301
 20
-116.4169
 11
148.1301
 21
-118.0758
  0
LINE
  8
0
  6
CONTINUOUS
 62
     7
 10
150.7568
 20
-124.5732
 11
152.9686
 21
-124.5732
  0
LINE
  8
0
  6
CONTINUOUS
 62
     7
 10
148.1301
 20
-118.0758
 11
154.581
 21
-118.0758
  0
LINE
  8
0
  6
CONTINUOUS
 62
     7
 10
148.1301
 20
-116.4169
 11
150.7568
 21
-116.4169
  0
LINE
  8
0
  6
CONTINUOUS
 62
     7
 10
142.7707
 20
-116.4168
 11
143.1003
 21
-115.1864
  0
LINE
  8
0
  6
CONTINUOUS
 62
     7
 10
141.0534
 20
-116.4169
 11
141.383
 21
-115.1865
  0
LINE
  8
0
  6
CONTINUOUS
 62
     7
 10
142.7708
 20
-116.4169
 11
145.0888
 21
-116.4169
  0
LINE
  8
0
  6
CONTINUOUS
 62
     7
 10
142.3263
 20
-118.0758
 11
144.5358
 21
-118.0758
  0
LINE
  8
0
  6
CONTINUOUS
 62
     7
 10
143.3214
 20
-124.5732
 11
145.6418
 21
-124.5732
  0
LINE
  8
0
  6
CONTINUOUS
 62
     7
 10
142.8768
 20
-122.9143
 11
143.3214
 21
-124.5732
  0
LINE
  8
0
  6
CONTINUOUS
 62
     7
 10
142.8769
 20
-122.9143
 11
144.5358
 21
-122.9143
  0
LINE
  8
0
  6
CONTINUOUS
 62
     7
 10
140.5854
 20
-124.5733
 11
142.3264
 21
-118.0759
  0
LINE
  8
0
  6
CONTINUOUS
 62
     7
 10
138.8678
 20
-118.0758
 11
140.6088
 21
-118.0758
  0
LINE
  8
0
  6
CONTINUOUS
 62
     7
 10
138.8678
 20
-124.5732
 11
140.6088
 21
-118.0757
  0
LINE
  8
0
  6
CONTINUOUS
 62
     7
 10
138.8678
 20
-124.5732
 11
140.5853
 21
-124.5732
  0
LINE
  8
0
  6
CONTINUOUS
 62
     7
 10
138.8678
 20
-116.4169
 11
141.0533
 21
-116.4169
  0
LINE
  8
0
  6
CONTINUOUS
 62
     7
 10
129.1908
 20
-122.9143
 11
129.1908
 21
-124.5732
  0
LINE
  8
0
  6
CONTINUOUS
 62
     7
 10
144.5358
 20
-118.0758
 11
144.5358
 21
-122.9143
  0
LINE
  8
0
  6
CONTINUOUS
 62
     2
 10
-107.25
 20
1.20104
 11
-107.9999
 21
-1.598
  0
LINE
  8
0
  6
CONTINUOUS
 62
     2
 10
-107.25
 20
1.20102
 11
-109.299
 21
-0.84801
  0
LINE
  8
0
  6
CONTINUOUS
 62
     2
 10
-107.2499
 20
1.20102
 11
-121.5111
 21
-23.5
  0
LINE
  8
0
  6
CONTINUOUS
 62
     2
 10
-97.47158778
 20
-23.5
 11
-121.5111
 21
-23.5
  0
LINE
  8
0
  6
CONTINUOUS
 62
     7
 10
-38.50001
 20
9.5
 11
-28.50001
 21
9.5
  0
LINE
  8
0
  6
CONTINUOUS
 62
     7
 10
-38.50001
 20
9.5
 11
-38.50001
 21
-6.5
  0
LINE
  8
0
  6
CONTINUOUS
 62
     7
 10
-38.50001
 20
-6.5
 11
-28.50001
 21
-6.5
  0
LINE
  8
0
  6
CONTINUOUS
 62
     7
 10
-18.50001
 20
-8.5
 11
62.49999
 21
-8.5
  0
LINE
  8
0
  6
DASHED
 62
     7
 10
-19.00001
 20
3.0
 11
-19.00001
 21
2.0
  0
LINE
  8
0
  6
CONTINUOUS
 62
     7
 10
-28.50001
 20
9.5
 11
-28.50001
 21
-6.5
  0
LINE
  8
0
  6
DASHED
 62
     7
 10
62.99999
 20
3.0
 11
62.99999
 21
2.0
  0
LINE
  8
0
  6
DASHED
 62
     7
 10
62.99995
 20
2.0
 11
62.49995
 21
1.5
  0
LINE
  8
0
  6
CONTINUOUS
 62
     7
 10
62.99991
 20
5.99998
 11
62.49991
 21
6.49998
  0
LINE
  8
0
  6
CONTINUOUS
 62
     7
 10
62.49999
 20
7.5
 11
62.49999
 21
-8.5
  0
LINE
  8
0
  6
CONTINUOUS
 62
     7
 10
-18.50001
 20
7.5
 11
62.49999
 21
7.5
  0
LINE
  8
0
  6
CONTINUOUS
 62
     7
 10
-18.50001
 20
-7.5
 11
62.49999
 21
-7.5
  0
LINE
  8
0
  6
CONTINUOUS
 62
     7
 10
-18.50001
 20
7.5
 11
-18.50001
 21
-8.5
  0
LINE
  8
0
  6
CONTINUOUS
 62
     7
 10
62.99999
 20
6.0
 11
62.99999
 21
3.0
  0
LINE
  8
0
  6
CONTINUOUS
 62
     7
 10
-42.50001
 20
6.0
 11
-42.50001
 21
2.0
  0
LINE
  8
0
  6
CONTINUOUS
 62
     7
 10
-42.00001
 20
8.0
 11
-39.00001
 21
8.0
  0
LINE
  8
0
  6
CONTINUOUS
 62
     7
 10
-42.00001
 20
0.0
 11
-39.00001
 21
0.0
  0
LINE
  8
0
  6
CONTINUOUS
 62
     7
 10
-42.00001
 20
4.0
 11
-39.00001
 21
4.0
  0
LINE
  8
0
  6
DASHED
 62
     7
 10
-23.50001
 20
3.0
 11
-23.50001
 21
2.4
  0
LINE
  8
0
  6
CONTINUOUS
 62
     7
 10
-19.00001
 20
6.0
 11
-18.5
 21
6.5
  0
LINE
  8
0
  6
CONTINUOUS
 62
     7
 10
62.49999
 20
-3.0
 11
89.49999
 21
-3.0
  0
LINE
  8
0
  6
CONTINUOUS
 62
     7
 10
62.49999
 20
3.0
 11
89.49999
 21
3.0
  0
LINE
  8
0
  6
CONTINUOUS
 62
     7
 10
-19.00001
 20
6.0
 11
-19.00001
 21
3.0
  0
LINE
  8
0
  6
CONTINUOUS
 62
     7
 10
-28.50001
 20
-3.0
 11
-18.50001
 21
-3.0
  0
LINE
  8
0
  6
CONTINUOUS
 62
     7
 10
-28.50001
 20
3.0
 11
-18.50001
 21
3.0
  0
LINE
  8
0
  6
CENTER
 62
     2
 10
44.99999
 20
-5.5
 11
44.99999
 21
5.5
  0
LINE
  8
0
  6
CENTER
 62
     2
 10
-35.50001
 20
-2.5
 11
-26.50001
 21
-2.5
  0
LINE
  8
0
  6
CENTER
 62
     2
 10
-31.00001
 20
-7.0
 11
-31.00001
 21
2.0
  0
LINE
  8
0
  6
CENTER
 62
     2
 10
-1.00001
 20
-5.5
 11
-1.00001
 21
5.5
  0
LINE
  8
0
  6
DASHED
 62
     7
 10
-46.00001
 20
5.44338
 11
-45.16668
 21
4.0
  0
LINE
  8
0
  6
DASHED
 62
     7
 10
-48.50001
 20
5.44337
 11
-46.00001
 21
5.44337
  0
LINE
  8
0
  6
DASHED
 62
     7
 10
-48.50001
 20
3.27831
 11
-46.00001
 21
3.27831
  0
LINE
  8
0
  6
DASHED
 62
     7
 10
-48.50001
 20
4.72169
 11
-46.00001
 21
4.72169
  0
LINE
  8
0
  6
DASHED
 62
     7
 10
-46.00001
 20
5.44337
 11
-46.00001
 21
2.55662
  0
LINE
  8
0
  6
DASHED
 62
     7
 10
-48.50001
 20
2.55662
 11
-46.00001
 21
2.55662
  0
LINE
  8
0
  6
DASHED
 62
     7
 10
-24.40001
 20
1.5
 11
-23.50001
 21
2.4
  0
LINE
  8
0
  6
CONTINUOUS
 62
     7
 10
-24.40001
 20
6.5
 11
-24.40001
 21
3.0
  0
LINE
  8
0
  6
DASHED
 62
     7
 10
-24.40001
 20
3.0
 11
-24.40001
 21
1.5
  0
LINE
  8
0
  6
DASHED
 62
     7
 10
-46.00001
 20
2.55662
 11
-45.16668
 21
4.0
  0
LINE
  8
0
  6
CONTINUOUS
 62
     7
 10
-48.00001
 20
6.5
 11
-42.47049
 21
6.5
  0
LINE
  8
0
  6
CONTINUOUS
 62
     7
 10
-48.25115
 20
6.065
 11
-42.49951
 21
6.065
  0
LINE
  8
0
  6
CONTINUOUS
 62
     7
 10
-48.50001
 20
5.63397
 11
-48.50001
 21
2.36603
  0
LINE
  8
0
  6
CONTINUOUS
 62
     7
 10
-48.25115
 20
1.935
 11
-42.49951
 21
1.935
  0
LINE
  8
0
  6
CONTINUOUS
 62
     7
 10
-48.00001
 20
1.5
 11
-42.47049
 21
1.5
  0
LINE
  8
0
  6
CONTINUOUS
 62
     7
 10
-24.40001
 20
6.5
 11
-28.50001
 21
6.5
  0
LINE
  8
0
  6
CONTINUOUS
 62
     7
 10
-23.96501
 20
6.065
 11
-28.50001
 21
6.065
  0
LINE
  8
0
  6
CONTINUOUS
 62
     7
 10
-23.50001
 20
5.6
 11
-23.50001
 21
3.0
  0
LINE
  8
0
  6
DASHED
 62
     7
 10
-23.96501
 20
1.935
 11
-28.50001
 21
1.935
  0
LINE
  8
0
  6
DASHED
 62
     7
 10
-24.40001
 20
1.5
 11
-28.50001
 21
1.5
  0
LINE
  8
0
  6
CONTINUOUS
 62
     7
 10
-48.00001
 20
6.5
 11
-48.00001
 21
1.5
  0
LINE
  8
0
  6
CONTINUOUS
 62
     7
 10
-24.40001
 20
6.5
 11
-23.50001
 21
5.6
  0
LINE
  8
0
  6
CONTINUOUS
 62
     7
 10
-48.5
 20
2.36603
 11
-48.0
 21
1.5
  0
LINE
  8
0
  6
CONTINUOUS
 62
     7
 10
-48.5
 20
5.63397
 11
-48.0
 21
6.5
  0
LINE
  8
0
  6
CONTINUOUS
 62
     7
 10
103.5
 20
6.0
 11
103.5
 21
2.0
  0
LINE
  8
0
  6
CONTINUOUS
 62
     7
 10
103.0
 20
8.0
 11
99.99999
 21
8.0
  0
LINE
  8
0
  6
CONTINUOUS
 62
     7
 10
103.0
 20
0.0
 11
99.99999
 21
0.0
  0
LINE
  8
0
  6
CONTINUOUS
 62
     7
 10
103.0
 20
4.0
 11
99.99999
 21
4.0
  0
LINE
  8
0
  6
CENTER
 62
     2
 10
112.5
 20
4.0
 11
81.49999
 21
4.0
  0
LINE
  8
0
  6
CONTINUOUS
 62
     7
 10
99.49999
 20
9.5
 11
89.49999
 21
9.5
  0
LINE
  8
0
  6
CONTINUOUS
 62
     7
 10
99.49999
 20
-6.5
 11
89.49999
 21
-6.5
  0
LINE
  8
0
  6
CONTINUOUS
 62
     7
 10
99.49999
 20
9.5
 11
99.49999
 21
-6.5
  0
LINE
  8
0
  6
CONTINUOUS
 62
     7
 10
89.49999
 20
9.5
 11
89.49999
 21
-6.5
  0
LINE
  8
0
  6
DASHED
 62
     7
 10
84.49999
 20
3.0
 11
84.49999
 21
2.4
  0
LINE
  8
0
  6
CONTINUOUS
 62
     7
 10
109.0
 20
6.5
 11
103.4705
 21
6.5
  0
LINE
  8
0
  6
CONTINUOUS
 62
     7
 10
109.2511
 20
6.065
 11
103.4995
 21
6.065
  0
LINE
  8
0
  6
DASHED
 62
     7
 10
85.39999
 20
3.0
 11
85.39999
 21
1.5
  0
LINE
  8
0
  6
DASHED
 62
     7
 10
109.5
 20
5.44337
 11
107.0
 21
5.44337
  0
LINE
  8
0
  6
DASHED
 62
     7
 10
109.5
 20
3.27831
 11
107.0
 21
3.27831
  0
LINE
  8
0
  6
DASHED
 62
     7
 10
109.5
 20
4.72169
 11
107.0
 21
4.72169
  0
LINE
  8
0
  6
DASHED
 62
     7
 10
107.0
 20
5.44337
 11
107.0
 21
2.55662
  0
LINE
  8
0
  6
DASHED
 62
     7
 10
109.5
 20
2.55662
 11
107.0
 21
2.55662
  0
LINE
  8
0
  6
DASHED
 62
     7
 10
85.39996
 20
1.49999
 11
84.49995
 21
2.39999
  0
LINE
  8
0
  6
CONTINUOUS
 62
     7
 10
85.39999
 20
6.5
 11
85.39999
 21
3.0
  0
LINE
  8
0
  6
DASHED
 62
     7
 10
107.0
 20
5.44338
 11
106.1667
 21
4.0
  0
LINE
  8
0
  6
DASHED
 62
     7
 10
107.0
 20
2.55662
 11
106.1667
 21
4.0
  0
LINE
  8
0
  6
CENTER
 62
     2
 10
96.49999
 20
-2.5
 11
87.49999
 21
-2.5
  0
LINE
  8
0
  6
CENTER
 62
     2
 10
91.99999
 20
-7.0
 11
91.99999
 21
2.0
  0
LINE
  8
0
  6
CONTINUOUS
 62
     7
 10
109.5
 20
5.63397
 11
109.5
 21
2.36603
  0
LINE
  8
0
  6
CONTINUOUS
 62
     7
 10
109.2511
 20
1.935
 11
103.4995
 21
1.935
  0
LINE
  8
0
  6
CONTINUOUS
 62
     7
 10
109.0
 20
1.5
 11
103.4705
 21
1.5
  0
LINE
  8
0
  6
CONTINUOUS
 62
     7
 10
85.39999
 20
6.5
 11
89.49999
 21
6.5
  0
LINE
  8
0
  6
CONTINUOUS
 62
     7
 10
84.96499
 20
6.065
 11
89.49999
 21
6.065
  0
LINE
  8
0
  6
CONTINUOUS
 62
     7
 10
84.49999
 20
5.6
 11
84.49999
 21
3.0
  0
LINE
  8
0
  6
DASHED
 62
     7
 10
84.96499
 20
1.935
 11
89.49999
 21
1.935
  0
LINE
  8
0
  6
DASHED
 62
     7
 10
85.39999
 20
1.5
 11
89.49999
 21
1.5
  0
LINE
  8
0
  6
CONTINUOUS
 62
     7
 10
109.0
 20
6.5
 11
109.0
 21
1.5
  0
LINE
  8
0
  6
CONTINUOUS
 62
     7
 10
85.39996
 20
6.5
 11
84.49995
 21
5.6
  0
LINE
  8
0
  6
CONTINUOUS
 62
     7
 10
109.5
 20
2.36602
 11
109.0
 21
1.5
  0
LINE
  8
0
  6
CONTINUOUS
 62
     7
 10
109.5
 20
5.63398
 11
109.0
 21
6.5
  0
LINE
  8
0
  6
CENTER
 62
     2
 10
-51.50001
 20
4.0
 11
-20.50001
 21
4.0
  0
LINE
  8
0
  6
CENTER
 62
     2
 10
-41.50001
 20
0.0
 11
102.5
 21
0.0
  0
LINE
  8
0
  6
DASHED
 62
     7
 10
-19.0
 20
2.0
 11
-18.5
 21
1.5
  0
LINE
  8
0
  6
CONTINUOUS
 62
     7
 10
-48.5
 20
61.63398
 11
-48.00001
 21
62.50001
  0
LINE
  8
0
  6
CONTINUOUS
 62
     7
 10
-48.25116
 20
57.93502
 11
-42.49951
 21
57.93502
  0
LINE
  8
0
  6
CONTINUOUS
 62
     7
 10
-48.5
 20
58.36604
 11
-48.0
 21
57.50001
  0
LINE
  8
0
  6
CONTINUOUS
 62
     7
 10
-48.00001
 20
57.50002
 11
-42.47049
 21
57.50002
  0
LINE
  8
0
  6
DASHED
 62
     7
 10
-48.50001
 20
58.75002
 11
-46.00001
 21
58.75002
  0
LINE
  8
0
  6
DASHED
 62
     7
 10
-46.00001
 20
61.25002
 11
-46.00001
 21
58.75002
  0
LINE
  8
0
  6
DASHED
 62
     7
 10
-46.00003
 20
58.75004
 11
-45.27835
 21
60.00003
  0
LINE
  8
0
  6
DASHED
 62
     7
 10
-46.00002
 20
61.25003
 11
-45.27833
 21
60.00003
  0
LINE
  8
0
  6
CONTINUOUS
 62
     7
 10
-18.50001
 20
78.15002
 11
62.49999
 21
78.15002
  0
LINE
  8
0
  6
CONTINUOUS
 62
     7
 10
-18.50001
 20
74.85001
 11
62.49999
 21
74.85001
  0
LINE
  8
0
  6
CONTINUOUS
 62
     7
 10
-18.50001
 20
40.00002
 11
62.49999
 21
40.00002
  0
LINE
  8
0
  6
CONTINUOUS
 62
     7
 10
-28.50001
 20
54.00002
 11
-18.50001
 21
54.00002
  0
LINE
  8
0
  6
CONTINUOUS
 62
     7
 10
-28.50001
 20
48.00002
 11
-18.50001
 21
48.00002
  0
LINE
  8
0
  6
CENTER
 62
     2
 10
-41.50001
 20
51.00002
 11
102.5
 21
51.00002
  0
LINE
  8
0
  6
CONTINUOUS
 62
     7
 10
62.49999
 20
54.00002
 11
89.49999
 21
54.00002
  0
LINE
  8
0
  6
CONTINUOUS
 62
     7
 10
62.49999
 20
48.00002
 11
89.49999
 21
48.00002
  0
LINE
  8
0
  6
CONTINUOUS
 62
     7
 10
63.00001
 20
62.00002
 11
63.00001
 21
58.00002
  0
LINE
  8
0
  6
CONTINUOUS
 62
     7
 10
62.99997
 20
62.0
 11
62.49997
 21
62.49998
  0
LINE
  8
0
  6
CONTINUOUS
 62
     7
 10
63.0
 20
58.00003
 11
62.49998
 21
57.50002
  0
LINE
  8
0
  6
CENTER
 62
     2
 10
-33.50001
 20
46.50002
 11
-33.50001
 21
55.50002
  0
LINE
  8
0
  6
CENTER
 62
     2
 10
-33.50001
 20
64.50002
 11
-33.50001
 21
73.50002
  0
LINE
  8
0
  6
DASHED
 62
     7
 10
-48.50001
 20
60.00002
 11
-46.00001
 21
60.00002
  0
LINE
  8
0
  6
CONTINUOUS
 62
     7
 10
-48.50001
 20
61.63399
 11
-48.50001
 21
58.36604
  0
LINE
  8
0
  6
CONTINUOUS
 62
     7
 10
-48.00001
 20
62.50002
 11
-48.00001
 21
57.50002
  0
LINE
  8
0
  6
CONTINUOUS
 62
     7
 10
-42.50001
 20
63.46412
 11
-42.50001
 21
56.53591
  0
LINE
  8
0
  6
CONTINUOUS
 62
     7
 10
-19.00001
 20
62.00001
 11
-19.00001
 21
58.00002
  0
LINE
  8
0
  6
CONTINUOUS
 62
     7
 10
-19.00001
 20
62.00002
 11
-18.5
 21
62.50001
  0
LINE
  8
0
  6
CENTER
 62
     2
 10
4.49999
 20
53.00002
 11
4.49999
 21
67.00002
  0
LINE
  8
0
  6
CENTER
 62
     2
 10
39.49999
 20
53.00002
 11
39.49999
 21
67.00002
  0
LINE
  8
0
  6
CENTER
 62
     2
 10
-39.00001
 20
76.00002
 11
-30.00001
 21
76.00002
  0
LINE
  8
0
  6
CENTER
 62
     2
 10
-34.50001
 20
80.50002
 11
-34.50001
 21
71.50002
  0
LINE
  8
0
  6
CENTER
 62
     2
 10
-34.50001
 20
48.50002
 11
-34.50001
 21
39.50002
  0
LINE
  8
0
  6
CENTER
 62
     2
 10
-39.00001
 20
44.00002
 11
-30.00001
 21
44.00002
  0
LINE
  8
0
  6
CONTINUOUS
 62
     7
 10
-19.00001
 20
58.00001
 11
-18.50001
 21
57.50001
  0
LINE
  8
0
  6
CONTINUOUS
 62
     7
 10
-28.50001
 20
66.00002
 11
-18.50001
 21
66.00002
  0
LINE
  8
0
  6
CONTINUOUS
 62
     7
 10
-28.50001
 20
72.00002
 11
-18.50001
 21
72.00002
  0
LINE
  8
0
  6
CONTINUOUS
 62
     7
 10
62.49999
 20
72.00002
 11
89.49999
 21
72.00002
  0
LINE
  8
0
  6
CONTINUOUS
 62
     7
 10
62.49999
 20
66.00002
 11
89.49999
 21
66.00002
  0
LINE
  8
0
  6
CENTER
 62
     2
 10
-51.50001
 20
60.00002
 11
112.5
 21
60.00002
  0
LINE
  8
0
  6
CONTINUOUS
 62
     7
 10
-38.50001
 20
82.00002
 11
-38.50001
 21
38.00002
  0
LINE
  8
0
  6
CONTINUOUS
 62
     7
 10
-28.50001
 20
82.00002
 11
-28.50001
 21
38.00002
  0
LINE
  8
0
  6
CONTINUOUS
 62
     7
 10
-18.50001
 20
80.00002
 11
-18.50001
 21
40.00002
  0
LINE
  8
0
  6
CONTINUOUS
 62
     7
 10
62.49999
 20
80.00002
 11
62.49999
 21
40.00002
  0
LINE
  8
0
  6
CONTINUOUS
 62
     7
 10
-38.50001
 20
38.00002
 11
-28.50001
 21
38.00002
  0
LINE
  8
0
  6
CONTINUOUS
 62
     7
 10
-38.50001
 20
82.00002
 11
-28.50001
 21
82.00002
  0
LINE
  8
0
  6
CONTINUOUS
 62
     7
 10
-42.00001
 20
64.61881
 11
-39.0
 21
64.61881
  0
LINE
  8
0
  6
CONTINUOUS
 62
     7
 10
-42.00002
 20
62.30942
 11
-39.00001
 21
62.30942
  0
LINE
  8
0
  6
CONTINUOUS
 62
     7
 10
-42.00001
 20
57.69061
 11
-39.00001
 21
57.69061
  0
LINE
  8
0
  6
CONTINUOUS
 62
     7
 10
-42.00001
 20
55.38121
 11
-39.00001
 21
55.38121
  0
LINE
  8
0
  6
CENTER
 62
     2
 10
-41.50001
 20
69.00002
 11
102.5
 21
69.00002
  0
LINE
  8
0
  6
CONTINUOUS
 62
     7
 10
-18.50001
 20
80.00002
 11
62.49999
 21
80.00002
  0
LINE
  8
0
  6
CONTINUOUS
 62
     7
 10
84.96499
 20
57.93502
 11
89.49999
 21
57.93502
  0
LINE
  8
0
  6
CONTINUOUS
 62
     7
 10
85.4
 20
57.50002
 11
89.49999
 21
57.50002
  0
LINE
  8
0
  6
CONTINUOUS
 62
     7
 10
85.39998
 20
57.50001
 11
84.49998
 21
58.40001
  0
LINE
  8
0
  6
CONTINUOUS
 62
     7
 10
84.49999
 20
61.60002
 11
84.49999
 21
58.40002
  0
LINE
  8
0
  6
CONTINUOUS
 62
     7
 10
85.39997
 20
62.5
 11
84.49998
 21
61.6
  0
LINE
  8
0
  6
CONTINUOUS
 62
     7
 10
85.4
 20
62.50002
 11
85.4
 21
57.50002
  0
LINE
  8
0
  6
CONTINUOUS
 62
     7
 10
85.4
 20
62.50002
 11
89.49999
 21
62.50002
  0
LINE
  8
0
  6
CONTINUOUS
 62
     7
 10
84.96499
 20
62.06501
 11
89.49999
 21
62.06501
  0
LINE
  8
0
  6
CONTINUOUS
 62
     7
 10
109.0
 20
62.50002
 11
103.4705
 21
62.50002
  0
LINE
  8
0
  6
CONTINUOUS
 62
     7
 10
109.2511
 20
62.06501
 11
103.4995
 21
62.06501
  0
LINE
  8
0
  6
DASHED
 62
     7
 10
109.5
 20
61.25002
 11
107.0
 21
61.25002
  0
LINE
  8
0
  6
DASHED
 62
     7
 10
107.0
 20
61.25002
 11
106.2783
 21
60.00002
  0
LINE
  8
0
  6
DASHED
 62
     7
 10
107.0
 20
58.75003
 11
106.2783
 21
60.00003
  0
LINE
  8
0
  6
DASHED
 62
     7
 10
107.0
 20
61.25002
 11
107.0
 21
58.75002
  0
LINE
  8
0
  6
DASHED
 62
     7
 10
109.5
 20
58.75002
 11
107.0
 21
58.75002
  0
LINE
  8
0
  6
CONTINUOUS
 62
     7
 10
109.0
 20
57.50002
 11
103.4705
 21
57.50002
  0
LINE
  8
0
  6
CONTINUOUS
 62
     7
 10
109.5
 20
58.36603
 11
109.0
 21
57.5
  0
LINE
  8
0
  6
CONTINUOUS
 62
     7
 10
109.2511
 20
57.93502
 11
103.4995
 21
57.93502
  0
LINE
  8
0
  6
CONTINUOUS
 62
     7
 10
109.5
 20
61.63399
 11
109.0
 21
62.50002
  0
LINE
  8
0
  6
CONTINUOUS
 62
     7
 10
109.0
 20
62.50002
 11
109.0
 21
57.50002
  0
LINE
  8
0
  6
CONTINUOUS
 62
     7
 10
109.5
 20
61.63399
 11
109.5
 21
58.36604
  0
LINE
  8
0
  6
DASHED
 62
     7
 10
109.5
 20
60.00002
 11
107.0
 21
60.00002
  0
LINE
  8
0
  6
CENTER
 62
     2
 10
99.99999
 20
44.00002
 11
90.99999
 21
44.00002
  0
LINE
  8
0
  6
CENTER
 62
     2
 10
95.49999
 20
48.50002
 11
95.49999
 21
39.50002
  0
LINE
  8
0
  6
CENTER
 62
     2
 10
95.49999
 20
80.50002
 11
95.49999
 21
71.50002
  0
LINE
  8
0
  6
CENTER
 62
     2
 10
99.99999
 20
76.00002
 11
90.99999
 21
76.00002
  0
LINE
  8
0
  6
CENTER
 62
     2
 10
94.49999
 20
64.50002
 11
94.49999
 21
73.50002
  0
LINE
  8
0
  6
CENTER
 62
     2
 10
94.49999
 20
46.50002
 11
94.49999
 21
55.50002
  0
LINE
  8
0
  6
CONTINUOUS
 62
     7
 10
103.0
 20
55.38121
 11
99.99999
 21
55.38121
  0
LINE
  8
0
  6
CONTINUOUS
 62
     7
 10
103.0
 20
57.69061
 11
99.99999
 21
57.69061
  0
LINE
  8
0
  6
CONTINUOUS
 62
     7
 10
103.0
 20
62.30942
 11
99.99999
 21
62.30942
  0
LINE
  8
0
  6
CONTINUOUS
 62
     7
 10
103.0
 20
64.61881
 11
99.99998
 21
64.61881
  0
LINE
  8
0
  6
CONTINUOUS
 62
     7
 10
99.49999
 20
82.00002
 11
89.49999
 21
82.00002
  0
LINE
  8
0
  6
CONTINUOUS
 62
     7
 10
99.49999
 20
38.00002
 11
89.49999
 21
38.00002
  0
LINE
  8
0
  6
CONTINUOUS
 62
     7
 10
89.49999
 20
82.00002
 11
89.49999
 21
38.00002
  0
LINE
  8
0
  6
CONTINUOUS
 62
     7
 10
99.49999
 20
82.00002
 11
99.49999
 21
38.00002
  0
LINE
  8
0
  6
CONTINUOUS
 62
     7
 10
103.5
 20
63.46412
 11
103.5
 21
56.53591
  0
LINE
  8
0
  6
CONTINUOUS
 62
     7
 10
-23.96501
 20
57.93502
 11
-28.50001
 21
57.93502
  0
LINE
  8
0
  6
CONTINUOUS
 62
     7
 10
-24.40001
 20
57.50002
 11
-28.50001
 21
57.50002
  0
LINE
  8
0
  6
CONTINUOUS
 62
     7
 10
-24.40001
 20
57.50001
 11
-23.50001
 21
58.40001
  0
LINE
  8
0
  6
CONTINUOUS
 62
     7
 10
-23.50001
 20
61.60002
 11
-23.50001
 21
58.40002
  0
LINE
  8
0
  6
CONTINUOUS
 62
     7
 10
-24.40001
 20
62.5
 11
-23.50001
 21
61.60001
  0
LINE
  8
0
  6
CONTINUOUS
 62
     7
 10
-24.40001
 20
62.50002
 11
-24.40001
 21
57.50002
  0
LINE
  8
0
  6
CONTINUOUS
 62
     7
 10
-24.40001
 20
62.50002
 11
-28.50001
 21
62.50002
  0
LINE
  8
0
  6
CONTINUOUS
 62
     7
 10
-23.96501
 20
62.06501
 11
-28.50001
 21
62.06501
  0
LINE
  8
0
  6
CONTINUOUS
 62
     7
 10
-48.00001
 20
62.50002
 11
-42.47049
 21
62.50002
  0
LINE
  8
0
  6
CONTINUOUS
 62
     7
 10
-48.25115
 20
62.06501
 11
-42.49951
 21
62.06501
  0
LINE
  8
0
  6
DASHED
 62
     7
 10
-48.50001
 20
61.25002
 11
-46.00001
 21
61.25002
  0
LINE
  8
0
  6
CONTINUOUS
 62
     7
 10
99.49998
 20
-81.99997
 11
99.49998
 21
-37.99997
  0
LINE
  8
0
  6
CENTER
 62
     2
 10
-40.50001
 20
-75.99997
 11
-28.50001
 21
-75.99997
  0
LINE
  8
0
  6
CENTER
 62
     2
 10
-34.50001
 20
-81.99997
 11
-34.50001
 21
-69.99997
  0
LINE
  8
0
  6
CONTINUOUS
 62
     7
 10
-48.00001
 20
-57.49997
 11
-42.4705
 21
-57.49997
  0
LINE
  8
0
  6
CONTINUOUS
 62
     7
 10
-48.25116
 20
-57.93497
 11
-42.49952
 21
-57.93497
  0
LINE
  8
0
  6
CONTINUOUS
 62
     7
 10
-48.50001
 20
-58.366
 11
-48.50001
 21
-61.63395
  0
LINE
  8
0
  6
CONTINUOUS
 62
     7
 10
-48.25116
 20
-62.06497
 11
-42.49952
 21
-62.06497
  0
LINE
  8
0
  6
CONTINUOUS
 62
     7
 10
-48.00001
 20
-62.49997
 11
-42.4705
 21
-62.49997
  0
LINE
  8
0
  6
CONTINUOUS
 62
     7
 10
-24.40001
 20
-57.49997
 11
-28.50001
 21
-57.49997
  0
LINE
  8
0
  6
CONTINUOUS
 62
     7
 10
-23.96501
 20
-57.93497
 11
-28.50001
 21
-57.93497
  0
LINE
  8
0
  6
CONTINUOUS
 62
     7
 10
-23.50001
 20
-58.39997
 11
-23.50001
 21
-61.59997
  0
LINE
  8
0
  6
CONTINUOUS
 62
     7
 10
-23.96501
 20
-62.06497
 11
-28.50001
 21
-62.06497
  0
LINE
  8
0
  6
CONTINUOUS
 62
     7
 10
-24.40001
 20
-62.49997
 11
-28.50001
 21
-62.49997
  0
LINE
  8
0
  6
CONTINUOUS
 62
     7
 10
-42.50001
 20
-63.46408
 11
-42.50001
 21
-56.53587
  0
LINE
  8
0
  6
CONTINUOUS
 62
     7
 10
-19.00001
 20
-61.99997
 11
-19.00001
 21
-57.99997
  0
LINE
  8
0
  6
CONTINUOUS
 62
     7
 10
-19.00001
 20
-61.99995
 11
-18.5
 21
-62.49995
  0
LINE
  8
0
  6
CONTINUOUS
 62
     7
 10
-19.00001
 20
-57.99996
 11
-18.5
 21
-57.49997
  0
LINE
  8
0
  6
CONTINUOUS
 62
     7
 10
-28.50001
 20
-65.99997
 11
-18.50001
 21
-65.99997
  0
LINE
  8
0
  6
CONTINUOUS
 62
     7
 10
-28.50001
 20
-71.99997
 11
-18.50001
 21
-71.99997
  0
LINE
  8
0
  6
CONTINUOUS
 62
     7
 10
62.49999
 20
-71.99997
 11
89.49998
 21
-71.99997
  0
LINE
  8
0
  6
CONTINUOUS
 62
     7
 10
62.49999
 20
-65.99997
 11
89.49998
 21
-65.99997
  0
LINE
  8
0
  6
CENTER
 62
     2
 10
-51.50001
 20
-59.99997
 11
112.5
 21
-59.99997
  0
LINE
  8
0
  6
CONTINUOUS
 62
     7
 10
-38.50001
 20
-81.99997
 11
-38.50001
 21
-37.99997
  0
LINE
  8
0
  6
CONTINUOUS
 62
     7
 10
-28.50001
 20
-81.99997
 11
-28.50001
 21
-37.99997
  0
LINE
  8
0
  6
CONTINUOUS
 62
     7
 10
-18.50001
 20
-79.99997
 11
-18.50001
 21
-39.99997
  0
LINE
  8
0
  6
CONTINUOUS
 62
     7
 10
62.49999
 20
-79.99997
 11
62.49999
 21
-39.99997
  0
LINE
  8
0
  6
CONTINUOUS
 62
     7
 10
-38.50001
 20
-37.99997
 11
-28.50001
 21
-37.99997
  0
LINE
  8
0
  6
CONTINUOUS
 62
     7
 10
-38.50001
 20
-81.99997
 11
-28.50001
 21
-81.99997
  0
LINE
  8
0
  6
CONTINUOUS
 62
     7
 10
-42.00001
 20
-64.61877
 11
-39.0
 21
-64.61877
  0
LINE
  8
0
  6
CONTINUOUS
 62
     7
 10
-42.00002
 20
-62.30938
 11
-39.00001
 21
-62.30938
  0
LINE
  8
0
  6
CONTINUOUS
 62
     7
 10
-42.00002
 20
-57.69057
 11
-39.00001
 21
-57.69057
  0
LINE
  8
0
  6
CONTINUOUS
 62
     7
 10
-42.00001
 20
-55.38116
 11
-39.00001
 21
-55.38116
  0
LINE
  8
0
  6
CENTER
 62
     2
 10
-41.50001
 20
-68.99997
 11
102.5
 21
-68.99997
  0
LINE
  8
0
  6
CONTINUOUS
 62
     7
 10
-18.50001
 20
-79.99997
 11
62.49999
 21
-79.99997
  0
LINE
  8
0
  6
CONTINUOUS
 62
     7
 10
-18.50001
 20
-39.99997
 11
62.49999
 21
-39.99997
  0
LINE
  8
0
  6
CONTINUOUS
 62
     7
 10
-28.50001
 20
-53.99997
 11
-18.50001
 21
-53.99997
  0
LINE
  8
0
  6
CONTINUOUS
 62
     7
 10
-28.50001
 20
-47.99997
 11
-18.50001
 21
-47.99997
  0
LINE
  8
0
  6
CENTER
 62
     2
 10
-41.50001
 20
-50.99997
 11
102.5
 21
-50.99997
  0
LINE
  8
0
  6
CONTINUOUS
 62
     7
 10
62.49999
 20
-53.99997
 11
89.49998
 21
-53.99997
  0
LINE
  8
0
  6
CONTINUOUS
 62
     7
 10
62.49999
 20
-47.99997
 11
89.49998
 21
-47.99997
  0
LINE
  8
0
  6
CONTINUOUS
 62
     7
 10
63.0
 20
-61.99998
 11
63.0
 21
-57.99998
  0
LINE
  8
0
  6
CONTINUOUS
 62
     7
 10
62.99991
 20
-61.99994
 11
62.49993
 21
-62.49993
  0
LINE
  8
0
  6
CONTINUOUS
 62
     7
 10
63.0
 20
-57.99996
 11
62.49997
 21
-57.49996
  0
LINE
  8
0
  6
CONTINUOUS
 62
     7
 10
-18.50001
 20
-40.99997
 11
62.49999
 21
-40.99997
  0
LINE
  8
0
  6
CONTINUOUS
 62
     7
 10
-18.50001
 20
-46.99997
 11
62.49999
 21
-46.99997
  0
LINE
  8
0
  6
CONTINUOUS
 62
     7
 10
-18.50001
 20
-47.99997
 11
62.49999
 21
-47.99997
  0
LINE
  8
0
  6
CONTINUOUS
 62
     7
 10
-18.50001
 20
-54.99997
 11
62.49999
 21
-54.99997
  0
LINE
  8
0
  6
CONTINUOUS
 62
     7
 10
-18.50001
 20
-55.99997
 11
62.49999
 21
-55.99997
  0
LINE
  8
0
  6
CONTINUOUS
 62
     7
 10
-18.50001
 20
-63.99997
 11
62.49999
 21
-63.99997
  0
LINE
  8
0
  6
CONTINUOUS
 62
     7
 10
-18.50001
 20
-64.99997
 11
62.49999
 21
-64.99997
  0
LINE
  8
0
  6
CONTINUOUS
 62
     7
 10
-18.50001
 20
-71.99997
 11
62.49999
 21
-71.99997
  0
LINE
  8
0
  6
CONTINUOUS
 62
     7
 10
-18.50001
 20
-72.99997
 11
62.49999
 21
-72.99997
  0
LINE
  8
0
  6
CONTINUOUS
 62
     7
 10
-18.50001
 20
-78.99997
 11
62.49999
 21
-78.99997
  0
LINE
  8
0
  6
CENTER
 62
     2
 10
-34.50001
 20
-49.99997
 11
-34.50001
 21
-37.99997
  0
LINE
  8
0
  6
CENTER
 62
     2
 10
-40.50001
 20
-43.99997
 11
-28.50001
 21
-43.99997
  0
LINE
  8
0
  6
CENTER
 62
     2
 10
54.49999
 20
-64.49997
 11
54.49999
 21
-55.49997
  0
LINE
  8
0
  6
CENTER
 62
     2
 10
-9.50001
 20
-64.49997
 11
-9.50001
 21
-55.49997
  0
LINE
  8
0
  6
CENTER
 62
     2
 10
4.49999
 20
-66.99997
 11
4.49999
 21
-52.99997
  0
LINE
  8
0
  6
CENTER
 62
     2
 10
14.49999
 20
-64.49997
 11
14.49999
 21
-55.49997
  0
LINE
  8
0
  6
CENTER
 62
     2
 10
39.49998
 20
-66.99997
 11
39.49998
 21
-52.99997
  0
LINE
  8
0
  6
CENTER
 62
     2
 10
29.49998
 20
-64.49997
 11
29.49998
 21
-55.49997
  0
LINE
  8
0
  6
CONTINUOUS
 62
     7
 10
-9.50001
 20
-61.99997
 11
-11.50001
 21
-61.99997
  0
LINE
  8
0
  6
CONTINUOUS
 62
     7
 10
-9.50001
 20
-57.99997
 11
-11.50001
 21
-57.99997
  0
LINE
  8
0
  6
CONTINUOUS
 62
     7
 10
-48.5
 20
-58.36599
 11
-48.0
 21
-57.49996
  0
LINE
  8
0
  6
CONTINUOUS
 62
     7
 10
-48.5
 20
-61.63395
 11
-48.0
 21
-62.49997
  0
LINE
  8
0
  6
CONTINUOUS
 62
     7
 10
-48.00001
 20
-57.49997
 11
-48.00001
 21
-62.49997
  0
LINE
  8
0
  6
CONTINUOUS
 62
     7
 10
-24.40001
 20
-57.49998
 11
-23.50001
 21
-58.39997
  0
LINE
  8
0
  6
CONTINUOUS
 62
     7
 10
-24.40001
 20
-62.49998
 11
-23.50001
 21
-61.59998
  0
LINE
  8
0
  6
CONTINUOUS
 62
     7
 10
-24.40001
 20
-57.49997
 11
-24.40001
 21
-62.49997
  0
LINE
  8
0
  6
DASHED
 62
     7
 10
-46.00003
 20
-58.74999
 11
-45.27835
 21
-59.99999
  0
LINE
  8
0
  6
DASHED
 62
     7
 10
-46.00001
 20
-58.74997
 11
-46.00001
 21
-61.24997
  0
LINE
  8
0
  6
DASHED
 62
     7
 10
-46.00004
 20
-61.24999
 11
-45.27835
 21
-59.99998
  0
LINE
  8
0
  6
DASHED
 62
     7
 10
-48.50001
 20
-61.24997
 11
-46.00001
 21
-61.24997
  0
LINE
  8
0
  6
DASHED
 62
     7
 10
-48.50001
 20
-58.74997
 11
-46.00001
 21
-58.74997
  0
LINE
  8
0
  6
CENTER
 62
     2
 10
101.5
 20
-75.99997
 11
89.49998
 21
-75.99997
  0
LINE
  8
0
  6
CENTER
 62
     2
 10
95.49998
 20
-81.99997
 11
95.49998
 21
-69.99997
  0
LINE
  8
0
  6
CONTINUOUS
 62
     7
 10
109.0
 20
-57.49997
 11
103.4705
 21
-57.49997
  0
LINE
  8
0
  6
CONTINUOUS
 62
     7
 10
109.2511
 20
-57.93497
 11
103.4995
 21
-57.93497
  0
LINE
  8
0
  6
CONTINUOUS
 62
     7
 10
109.5
 20
-58.366
 11
109.5
 21
-61.63395
  0
LINE
  8
0
  6
CONTINUOUS
 62
     7
 10
109.2511
 20
-62.06497
 11
103.4995
 21
-62.06497
  0
LINE
  8
0
  6
CONTINUOUS
 62
     7
 10
109.0
 20
-62.49997
 11
103.4705
 21
-62.49997
  0
LINE
  8
0
  6
CONTINUOUS
 62
     7
 10
85.39999
 20
-57.49997
 11
89.49998
 21
-57.49997
  0
LINE
  8
0
  6
CONTINUOUS
 62
     7
 10
84.96498
 20
-57.93497
 11
89.49998
 21
-57.93497
  0
LINE
  8
0
  6
CONTINUOUS
 62
     7
 10
84.49998
 20
-58.39997
 11
84.49998
 21
-61.59997
  0
LINE
  8
0
  6
CONTINUOUS
 62
     7
 10
84.96498
 20
-62.06497
 11
89.49998
 21
-62.06497
  0
LINE
  8
0
  6
CONTINUOUS
 62
     7
 10
85.39999
 20
-62.49997
 11
89.49998
 21
-62.49997
  0
LINE
  8
0
  6
CONTINUOUS
 62
     7
 10
103.5
 20
-63.46408
 11
103.5
 21
-56.53587
  0
LINE
  8
0
  6
CONTINUOUS
 62
     7
 10
89.49998
 20
-81.99997
 11
89.49998
 21
-37.99997
  0
LINE
  8
0
  6
CONTINUOUS
 62
     7
 10
99.49998
 20
-37.99997
 11
89.49998
 21
-37.99997
  0
LINE
  8
0
  6
CONTINUOUS
 62
     7
 10
99.49998
 20
-81.99997
 11
89.49998
 21
-81.99997
  0
LINE
  8
0
  6
CONTINUOUS
 62
     7
 10
103.0
 20
-64.61877
 11
99.99997
 21
-64.61877
  0
LINE
  8
0
  6
CONTINUOUS
 62
     7
 10
103.0
 20
-62.30938
 11
99.99998
 21
-62.30938
  0
LINE
  8
0
  6
CONTINUOUS
 62
     7
 10
103.0
 20
-57.69057
 11
99.99998
 21
-57.69057
  0
LINE
  8
0
  6
CONTINUOUS
 62
     7
 10
103.0
 20
-55.38116
 11
99.99998
 21
-55.38116
  0
LINE
  8
0
  6
CENTER
 62
     2
 10
95.49998
 20
-49.99997
 11
95.49998
 21
-37.99997
  0
LINE
  8
0
  6
CENTER
 62
     2
 10
101.5
 20
-43.99997
 11
89.49998
 21
-43.99997
  0
LINE
  8
0
  6
CONTINUOUS
 62
     7
 10
109.5
 20
-58.366
 11
109.0
 21
-57.49997
  0
LINE
  8
0
  6
CONTINUOUS
 62
     7
 10
109.5
 20
-61.63394
 11
109.0
 21
-62.49997
  0
LINE
  8
0
  6
CONTINUOUS
 62
     7
 10
109.0
 20
-57.49997
 11
109.0
 21
-62.49997
  0
LINE
  8
0
  6
CONTINUOUS
 62
     7
 10
85.40001
 20
-57.49997
 11
84.5
 21
-58.39997
  0
LINE
  8
0
  6
CONTINUOUS
 62
     7
 10
85.4
 20
-62.49997
 11
84.49998
 21
-61.59998
  0
LINE
  8
0
  6
CONTINUOUS
 62
     7
 10
85.39999
 20
-57.49997
 11
85.39999
 21
-62.49997
  0
LINE
  8
0
  6
DASHED
 62
     7
 10
107.0
 20
-58.74999
 11
106.2783
 21
-59.99999
  0
LINE
  8
0
  6
DASHED
 62
     7
 10
107.0
 20
-58.74997
 11
107.0
 21
-61.24997
  0
LINE
  8
0
  6
DASHED
 62
     7
 10
107.0
 20
-61.24999
 11
106.2783
 21
-59.99999
  0
LINE
  8
0
  6
DASHED
 62
     7
 10
109.5
 20
-61.24997
 11
107.0
 21
-61.24997
  0
LINE
  8
0
  6
DASHED
 62
     7
 10
109.5
 20
-58.74997
 11
107.0
 21
-58.74997
  0
LINE
  8
0
  6
CENTER
 62
     2
 10
-10.50001
 20
-64.49997
 11
-10.50001
 21
-55.49997
  0
LINE
  8
0
  6
CENTER
 62
     2
 10
-11.50001
 20
-64.49997
 11
-11.50001
 21
-55.49997
  0
LINE
  8
0
  6
CENTER
 62
     2
 10
-90.5
 20
-9.49997
 11
-90.5
 21
12.50003
  0
LINE
  8
0
  6
CONTINUOUS
 62
     7
 10
-112.5
 20
-6.49997
 11
-112.5
 21
9.50003
  0
LINE
  8
0
  6
CENTER
 62
     2
 10
-106.5
 20
-1.99997
 11
-106.5
 21
7.00003
  0
LINE
  8
0
  6
CENTER
 62
     2
 10
-85.0
 20
4.00003
 11
-96.0
 21
4.00003
  0
LINE
  8
0
  6
CONTINUOUS
 62
     7
 10
-88.1906
 20
8.00003
 11
-92.8094
 21
8.00003
  0
LINE
  8
0
  6
CONTINUOUS
 62
     7
 10
-68.5
 20
-6.49997
 11
-112.5
 21
-6.49997
  0
LINE
  8
0
  6
CENTER
 62
     2
 10
-70.0
 20
2.50003
 11
-79.0
 21
2.50003
  0
LINE
  8
0
  6
CONTINUOUS
 62
     7
 10
-68.5
 20
-6.49997
 11
-68.5
 21
9.50003
  0
LINE
  8
0
  6
CENTER
 62
     2
 10
-74.5
 20
-1.99997
 11
-74.5
 21
7.00003
  0
LINE
  8
0
  6
CENTER
 62
     2
 10
-102.0
 20
2.50003
 11
-111.0
 21
2.50003
  0
LINE
  8
0
  6
CONTINUOUS
 62
     7
 10
-88.19058
 20
8.00003
 11
-85.88118
 21
4.00003
  0
LINE
  8
0
  6
CONTINUOUS
 62
     7
 10
-112.5
 20
9.50003
 11
-68.5
 21
9.50003
  0
LINE
  8
0
  6
CONTINUOUS
 62
     7
 10
-95.11878
 20
4.00002
 11
-92.80938
 21
8.00002
  0
LINE
  8
0
  6
CONTINUOUS
 62
     7
 10
-92.80942
 20
0.00003
 11
-95.11881
 21
4.00002
  0
LINE
  8
0
  6
CONTINUOUS
 62
     7
 10
-88.1906
 20
0.00003
 11
-92.8094
 21
0.00003
  0
LINE
  8
0
  6
CONTINUOUS
 62
     7
 10
-85.8812
 20
4.00003
 11
-88.1906
 21
0.00002
  0
LINE
  8
0
  6
CONTINUOUS
 62
     7
 10
-109.5
 20
-8.49997
 11
-103.5
 21
-8.49997
  0
LINE
  8
0
  6
CONTINUOUS
 62
     7
 10
-70.5
 20
-6.49997
 11
-70.5
 21
-7.49997
  0
LINE
  8
0
  6
CONTINUOUS
 62
     7
 10
-110.5
 20
-6.49997
 11
-110.5
 21
-7.49997
  0
LINE
  8
0
  6
CONTINUOUS
 62
     7
 10
-109.5
 20
-8.49997
 11
-110.5
 21
-7.49997
  0
LINE
  8
0
  6
CONTINUOUS
 62
     7
 10
-70.49999
 20
-7.49997
 11
-71.5
 21
-8.49997
  0
LINE
  8
0
  6
CONTINUOUS
 62
     7
 10
-102.5
 20
-7.49997
 11
-95.5
 21
-7.49997
  0
LINE
  8
0
  6
CONTINUOUS
 62
     7
 10
-94.5
 20
-8.49997
 11
-86.5
 21
-8.49997
  0
LINE
  8
0
  6
CONTINUOUS
 62
     7
 10
-85.5
 20
-7.49997
 11
-78.5
 21
-7.49997
  0
LINE
  8
0
  6
CONTINUOUS
 62
     7
 10
-77.5
 20
-8.49997
 11
-71.5
 21
-8.49997
  0
LINE
  8
0
  6
CONTINUOUS
 62
     7
 10
-103.5
 20
-8.49997
 11
-102.5
 21
-7.49997
  0
LINE
  8
0
  6
CONTINUOUS
 62
     7
 10
-94.49997
 20
-8.49997
 11
-95.49997
 21
-7.49996
  0
LINE
  8
0
  6
CONTINUOUS
 62
     7
 10
-85.49998
 20
-7.49997
 11
-86.49998
 21
-8.49997
  0
LINE
  8
0
  6
CONTINUOUS
 62
     7
 10
-77.49998
 20
-8.49997
 11
-78.49998
 21
-7.49997
  0
LINE
  8
0
  6
CONTINUOUS
 62
     7
 10
-82.82748
 20
2.69037
 11
-82.51138
 21
3.87008
  0
LINE
  8
0
  6
CONTINUOUS
 62
     7
 10
-80.17252
 20
2.69035
 11
-80.48862
 21
3.87006
  0
LINE
  8
0
  6
CONTINUOUS
 62
     7
 10
-100.8275
 20
2.69035
 11
-100.5114
 21
3.87007
  0
LINE
  8
0
  6
CONTINUOUS
 62
     7
 10
-98.17252
 20
2.69036
 11
-98.48863
 21
3.87008
  0
LINE
  8
0
  6
CONTINUOUS
 62
     7
 10
-89.25
 20
4.72171
 11
-89.25
 21
3.27833
  0
LINE
  8
0
  6
CONTINUOUS
 62
     7
 10
-90.50003
 20
5.4434
 11
-89.25003
 21
4.72171
  0
LINE
  8
0
  6
CONTINUOUS
 62
     7
 10
-91.75004
 20
4.72171
 11
-90.50004
 21
5.4434
  0
LINE
  8
0
  6
CONTINUOUS
 62
     7
 10
-91.75
 20
3.27833
 11
-91.75
 21
4.72171
  0
LINE
  8
0
  6
CONTINUOUS
 62
     7
 10
-90.50003
 20
2.55665
 11
-91.75003
 21
3.27834
  0
LINE
  8
0
  6
CONTINUOUS
 62
     7
 10
-89.25004
 20
3.27834
 11
-90.50004
 21
2.55665
  0
ARC
  8
0
  6
CONTINUOUS
 62
     7
 10
136.5177
 20
-117.5228
 40
1.10594
 50
0.0
 51
89.99999
  0
ARC
  8
0
  6
CONTINUOUS
 62
     7
 10
145.6418
 20
-123.4673
 40
1.10595
 50
270.0
 51
0.0
  0
ARC
  8
0
  6
CONTINUOUS
 62
     7
 10
145.0888
 20
-118.0758
 40
1.65892
 50
0.0
 51
89.99999
  0
ARC
  8
0
  6
CONTINUOUS
 62
     7
 10
155.1806
 20
-117.5228
 40
1.10594
 50
0.0
 51
89.99999
  0
ARC
  8
0
  6
CONTINUOUS
 62
     7
 10
155.1806
 20
-118.4064
 40
1.10595
 50
295.0
 51
0.0
  0
ARC
  8
0
  6
CONTINUOUS
 62
     7
 10
163.7517
 20
-116.4169
 40
1.65892
 50
291.6884
 51
0.0
  0
ARC
  8
0
  6
CONTINUOUS
 62
     7
 10
163.1987
 20
-116.0417
 40
0.55297
 50
291.689
 51
0.0
  0
CIRCLE
  8
0
  6
CONTINUOUS
 62
     7
 10
-1.00001
 20
0.0
 40
2.5
  0
CIRCLE
  8
0
  6
CONTINUOUS
 62
     7
 10
-31.00001
 20
-2.5
 40
1.5
  0
CIRCLE
  8
0
  6
CONTINUOUS
 62
     7
 10
44.99999
 20
0.0
 40
2.5
  0
ARC
  8
0
  6
CONTINUOUS
 62
     7
 10
103.75
 20
6.0
 40
4.25
 50
151.9275
 51
208.0724
  0
CIRCLE
  8
0
  6
CONTINUOUS
 62
     7
 10
91.99999
 20
-2.5
 40
1.23
  0
ARC
  8
0
  6
CONTINUOUS
 62
     7
 10
99.24999
 20
6.0
 40
4.25
 50
331.9275
 51
28.07245
  0
ARC
  8
0
  6
CONTINUOUS
 62
     7
 10
99.24999
 20
2.0
 40
4.25
 50
331.9275
 51
28.07245
  0
ARC
  8
0
  6
CONTINUOUS
 62
     7
 10
103.75
 20
2.0
 40
4.25
 50
151.9275
 51
208.0724
  0
CIRCLE
  8
0
  6
CONTINUOUS
 62
     7
 10
44.99999
 20
0.0
 40
2.08
  0
CIRCLE
  8
0
  6
CONTINUOUS
 62
     7
 10
-31.00001
 20
-2.5
 40
1.23
  0
CIRCLE
  8
0
  6
CONTINUOUS
 62
     7
 10
91.99999
 20
-2.5
 40
1.5
  0
ARC
  8
0
  6
CONTINUOUS
 62
     7
 10
-42.75001
 20
6.0
 40
4.25
 50
331.9275
 51
28.07245
  0
ARC
  8
0
  6
CONTINUOUS
 62
     7
 10
-42.75001
 20
2.0
 40
4.25
 50
331.9275
 51
28.07245
  0
ARC
  8
0
  6
CONTINUOUS
 62
     7
 10
-38.25001
 20
2.0
 40
4.25
 50
151.9275
 51
208.0724
  0
ARC
  8
0
  6
CONTINUOUS
 62
     7
 10
-38.25001
 20
6.0
 40
4.25
 50
151.9275
 51
208.0724
  0
CIRCLE
  8
0
  6
CONTINUOUS
 62
     7
 10
-1.00001
 20
0.0
 40
2.08
  0
CIRCLE
  8
0
  6
CONTINUOUS
 62
     7
 10
95.49999
 20
44.00002
 40
1.65
  0
CIRCLE
  8
0
  6
CONTINUOUS
 62
     7
 10
95.49999
 20
76.00002
 40
1.65
  0
CIRCLE
  8
0
  6
CONTINUOUS
 62
     7
 10
-34.50001
 20
44.00002
 40
1.65
  0
CIRCLE
  8
0
  6
CONTINUOUS
 62
     7
 10
4.49999
 20
60.00002
 40
2.25
  0
CIRCLE
  8
0
  6
CONTINUOUS
 62
     7
 10
4.49999
 20
60.00002
 40
4.0
  0
CIRCLE
  8
0
  6
CONTINUOUS
 62
     7
 10
39.49999
 20
60.00002
 40
4.0
  0
CIRCLE
  8
0
  6
CONTINUOUS
 62
     7
 10
39.49999
 20
60.00002
 40
2.25
  0
CIRCLE
  8
0
  6
CONTINUOUS
 62
     7
 10
-33.50001
 20
51.00002
 40
2.0
  0
CIRCLE
  8
0
  6
CONTINUOUS
 62
     7
 10
-33.50001
 20
69.00002
 40
2.0
  0
ARC
  8
0
  6
CONTINUOUS
 62
     7
 10
-40.08335
 20
63.46412
 40
1.58334
 50
313.1737
 51
46.8263
  0
ARC
  8
0
  6
CONTINUOUS
 62
     7
 10
-40.91667
 20
63.46412
 40
1.58334
 50
133.1734
 51
226.8261
  0
ARC
  8
0
  6
CONTINUOUS
 62
     7
 10
-40.08335
 20
56.53591
 40
1.58334
 50
313.1735
 51
46.82619
  0
ARC
  8
0
  6
CONTINUOUS
 62
     7
 10
-44.08336
 20
60.00002
 40
5.58335
 50
335.5674
 51
24.43263
  0
ARC
  8
0
  6
CONTINUOUS
 62
     7
 10
-40.91667
 20
56.53591
 40
1.58334
 50
133.1738
 51
226.8264
  0
ARC
  8
0
  6
CONTINUOUS
 62
     7
 10
-36.91666
 20
60.00002
 40
5.58335
 50
155.5673
 51
204.4326
  0
ARC
  8
0
  6
CONTINUOUS
 62
     7
 10
101.0833
 20
63.46412
 40
1.58334
 50
133.1736
 51
226.8262
  0
CIRCLE
  8
0
  6
CONTINUOUS
 62
     7
 10
94.49999
 20
51.00002
 40
2.0
  0
ARC
  8
0
  6
CONTINUOUS
 62
     7
 10
101.9166
 20
63.46412
 40
1.58334
 50
313.1738
 51
46.82659
  0
ARC
  8
0
  6
CONTINUOUS
 62
     7
 10
101.9166
 20
56.53591
 40
1.58334
 50
313.1735
 51
46.82619
  0
ARC
  8
0
  6
CONTINUOUS
 62
     7
 10
97.91665
 20
60.00002
 40
5.58335
 50
335.5674
 51
24.43263
  0
CIRCLE
  8
0
  6
CONTINUOUS
 62
     7
 10
94.49999
 20
69.00002
 40
2.0
  0
CIRCLE
  8
0
  6
CONTINUOUS
 62
     7
 10
-34.50001
 20
76.00002
 40
1.65
  0
ARC
  8
0
  6
CONTINUOUS
 62
     7
 10
105.0834
 20
60.00002
 40
5.58335
 50
155.5674
 51
204.4326
  0
ARC
  8
0
  6
CONTINUOUS
 62
     7
 10
101.0833
 20
56.53591
 40
1.58334
 50
133.1738
 51
226.8265
  0
CIRCLE
  8
0
  6
CONTINUOUS
 62
     7
 10
39.49998
 20
-59.99997
 40
2.25
  0
CIRCLE
  8
0
  6
CONTINUOUS
 62
     7
 10
14.49999
 20
-59.99997
 40
2.0
  0
CIRCLE
  8
0
  6
CONTINUOUS
 62
     7
 10
29.49998
 20
-59.99997
 40
2.0
  0
ARC
  8
0
  6
CONTINUOUS
 62
     7
 10
101.9166
 20
-63.46408
 40
1.58334
 50
313.1735
 51
46.82619
  0
CIRCLE
  8
0
  6
CONTINUOUS
 62
     7
 10
95.49998
 20
-75.99997
 40
3.15
  0
CIRCLE
  8
0
  6
CONTINUOUS
 62
     7
 10
4.49999
 20
-59.99997
 40
4.0
  0
CIRCLE
  8
0
  6
CONTINUOUS
 62
     7
 10
4.49999
 20
-59.99997
 40
2.25
  0
CIRCLE
  8
0
  6
CONTINUOUS
 62
     7
 10
95.49998
 20
-75.99997
 40
1.65
  0
CIRCLE
  8
0
  6
CONTINUOUS
 62
     7
 10
95.49998
 20
-43.99997
 40
3.15
  0
ARC
  8
0
  6
CONTINUOUS
 62
     7
 10
101.9166
 20
-56.53587
 40
1.58334
 50
313.1738
 51
46.82649
  0
ARC
  8
0
  6
CONTINUOUS
 62
     7
 10
105.0833
 20
-59.99997
 40
5.58335
 50
155.5674
 51
204.4326
  0
ARC
  8
0
  6
CONTINUOUS
 62
     7
 10
97.91664
 20
-59.99997
 40
5.58335
 50
335.5674
 51
24.43263
  0
ARC
  8
0
  6
CONTINUOUS
 62
     7
 10
101.0833
 20
-56.53587
 40
1.58334
 50
133.1735
 51
226.8262
  0
CIRCLE
  8
0
  6
CONTINUOUS
 62
     7
 10
14.49999
 20
-59.99997
 40
1.62
  0
CIRCLE
  8
0
  6
CONTINUOUS
 62
     7
 10
29.49998
 20
-59.99997
 40
1.62
  0
CIRCLE
  8
0
  6
CONTINUOUS
 62
     7
 10
39.49998
 20
-59.99997
 40
4.0
  0
CIRCLE
  8
0
  6
CONTINUOUS
 62
     7
 10
95.49998
 20
-43.99997
 40
1.65
  0
ARC
  8
0
  6
CONTINUOUS
 62
     7
 10
101.0833
 20
-63.46408
 40
1.58334
 50
133.1738
 51
226.8265
  0
ARC
  8
0
  6
CONTINUOUS
 62
     7
 10
-36.91666
 20
-59.99997
 40
5.58335
 50
155.5673
 51
204.4326
  0
ARC
  8
0
  6
CONTINUOUS
 62
     7
 10
-40.91667
 20
-56.53587
 40
1.58334
 50
133.1735
 51
226.8261
  0
ARC
  8
0
  6
CONTINUOUS
 62
     7
 10
-44.08336
 20
-59.99997
 40
5.58335
 50
335.5673
 51
24.4326
  0
ARC
  8
0
  6
CONTINUOUS
 62
     7
 10
-40.08335
 20
-56.53587
 40
1.58334
 50
313.1737
 51
46.82639
  0
ARC
  8
0
  6
CONTINUOUS
 62
     7
 10
-40.91667
 20
-63.46408
 40
1.58334
 50
133.1738
 51
226.8264
  0
ARC
  8
0
  6
CONTINUOUS
 62
     7
 10
-40.08335
 20
-63.46408
 40
1.58334
 50
313.1735
 51
46.82619
  0
CIRCLE
  8
0
  6
CONTINUOUS
 62
     7
 10
-34.50001
 20
-75.99997
 40
1.65
  0
CIRCLE
  8
0
  6
CONTINUOUS
 62
     7
 10
-34.50001
 20
-75.99997
 40
3.15
  0
CIRCLE
  8
0
  6
CONTINUOUS
 62
     7
 10
-34.50001
 20
-43.99997
 40
3.15
  0
CIRCLE
  8
0
  6
CONTINUOUS
 62
     7
 10
-34.50001
 20
-43.99997
 40
1.65
  0
ARC
  8
0
  6
CONTINUOUS
 62
     7
 10
-11.50001
 20
-59.99997
 40
2.0
 50
89.99998
 51
270.0
  0
ARC
  8
0
  6
CONTINUOUS
 62
     7
 10
-9.50001
 20
-59.99997
 40
2.0
 50
270.0
 51
89.99998
  0
CIRCLE
  8
0
  6
CONTINUOUS
 62
     7
 10
54.49999
 20
-59.99997
 40
2.0
  0
ARC
  8
0
  6
CONTINUOUS
 62
     7
 10
-81.5
 20
0.00003
 40
4.0
 50
104.6457
 51
75.35413
  0
CIRCLE
  8
0
  6
CONTINUOUS
 62
     7
 10
-81.5
 20
0.00003
 40
1.5
  0
CIRCLE
  8
0
  6
CONTINUOUS
 62
     7
 10
-90.5
 20
4.00003
 40
4.0
  0
CIRCLE
  8
0
  6
CONTINUOUS
 62
     7
 10
-99.5
 20
0.00003
 40
4.5
  0
ARC
  8
0
  6
CONTINUOUS
 62
     7
 10
-99.5
 20
0.00003
 40
4.0
 50
104.6457
 51
75.35414
  0
CIRCLE
  8
0
  6
CONTINUOUS
 62
     7
 10
-90.5
 20
4.00003
 40
1.63397
  0
CIRCLE
  8
0
  6
CONTINUOUS
 62
     7
 10
-99.5
 20
0.00003
 40
1.5
  0
CIRCLE
  8
0
  6
CONTINUOUS
 62
     7
 10
-99.5
 20
0.00003
 40
3.0
  0
CIRCLE
  8
0
  6
CONTINUOUS
 62
     7
 10
-106.5
 20
2.50003
 40
1.5
  0
CIRCLE
  8
0
  6
CONTINUOUS
 62
     7
 10
-106.5
 20
2.50003
 40
1.23
  0
CIRCLE
  8
0
  6
CONTINUOUS
 62
     7
 10
-90.5
 20
4.00003
 40
2.5
  0
CIRCLE
  8
0
  6
CONTINUOUS
 62
     7
 10
-90.5
 20
4.00003
 40
2.065
  0
CIRCLE
  8
0
  6
CONTINUOUS
 62
     7
 10
-81.5
 20
0.00003
 40
3.0
  0
CIRCLE
  8
0
  6
CONTINUOUS
 62
     7
 10
-74.5
 20
2.50003
 40
1.5
  0
CIRCLE
  8
0
  6
CONTINUOUS
 62
     7
 10
-74.5
 20
2.50003
 40
1.23
  0
CIRCLE
  8
0
  6
CONTINUOUS
 62
     7
 10
-81.5
 20
0.00003
 40
4.5
  0
TEXT
  8
0
  6
CONTINUOUS
 62
     7
 10
-162.1176
 20
90.25626
 40
5.0
  1
MODEL : SUT 10*ST(25)
 41
0.8
  7
STANDARD
  0
TEXT
  8
0
  6
CONTINUOUS
 62
     7
 10
15.335
 20
93.855
 40
3.5
  1
88+(ST*2)
 41
0.8
  7
STANDARD
  0
TEXT
  8
0
  6
CONTINUOUS
 62
     7
 10
13.835
 20
19.355
 40
3.5
  1
21+ST
 41
0.8
  7
STANDARD
  0
TEXT
  8
0
  6
CONTINUOUS
 62
     7
 10
13.835
 20
-28.145
 40
3.5
  1
56+ST
 41
0.8
  7
STANDARD
  0
TEXT
  8
0
  6
CONTINUOUS
 62
     7
 10
20.835
 20
-113.145
 40
3.5
  1
A
 41
0.8
  7
STANDARD
  0
TEXT
  8
0
  6
CONTINUOUS
 62
     7
 10
-15.665
 20
-113.145
 40
3.5
  1
B
 41
0.8
  7
STANDARD
  0
TEXT
  8
0
  6
CONTINUOUS
 62
     7
 10
20.835
 20
-93.145
 40
3.5
  1
C
 41
0.8
  7
STANDARD
  0
TEXT
  8
0
  6
CONTINUOUS
 62
     7
 10
-3.165
 20
-93.145
 40
3.5
  1
D
 41
0.8
  7
STANDARD
  0
TEXT
  8
0
  6
CONTINUOUS
 62
     7
 10
20.835
 20
-103.145
 40
3.5
  1
E
 41
0.8
  7
STANDARD
  0
TEXT
  8
0
  6
CONTINUOUS
 62
     7
 10
-8.165
 20
-103.145
 40
3.5
  1
F
 41
0.8
  7
STANDARD
  0
TEXT
  8
0
  6
CONTINUOUS
 62
     7
 10
-81.74998194
 20
34.855
 40
3.5
  1
2-M5*0.8
 41
0.8
  7
STANDARD
  0
TEXT
  8
0
  6
CONTINUOUS
 62
     7
 10
55.87613
 20
19.355
 40
3.5
  1
2-M5*0.8
 41
0.8
  7
STANDARD
  0
TEXT
  8
0
  6
CONTINUOUS
 62
     7
 10
62.17927
 20
-113.145
 40
3.5
  1
2-M4*0.7
 41
0.8
  7
STANDARD
  0
TEXT
  8
0
  6
CONTINUOUS
 62
     7
 10
-166.5118
 20
-113.145
 40
3.5
  1
NOTE : A ,B ,C ,D ,E ,F
 41
0.8
  7
STANDARD
  0
TEXT
  8
0
  6
CONTINUOUS
 62
     7
 10
-112.31837256
 20
-113.145
 40
3.5
  1
CATALOG
 41
0.8
  7
STANDARD
  0
TEXT
  8
0
  6
CONTINUOUS
 62
     7
 10
114.5484
 20
118.1547
 40
4.2
  1
DATE : JAN ,1988
 41
0.8
  7
STANDARD
  0
TEXT
  8
0
  6
CONTINUOUS
 62
     7
 10
-171.465
 20
117.7787
 40
5.0
  1
SLIDE UNIT
 41
0.8
  7
STANDARD
  0
TEXT
  8
0
  6
CONTINUOUS
 62
     7
 10
-117.5861
 20
-21.645
 40
3.5
  1
4-M3*0.5
 41
0.8
  7
STANDARD
  0
CIRCLE
  8
0
  6
CONTINUOUS
 62
     7
 10
-18.5
 20
60.0
 40
0.5
  0
CIRCLE
  8
0
  6
CONTINUOUS
 62
     7
 10
62.5
 20
60.0
 40
0.5
  0
ENDSEC
  0
EOF
