  0
SECTION
  2
HEADER
  9
$ACADVER
  1
AC1002
  9
$INSBASE
 10
0.0
 20
0.0
  9
$EXTMIN
 10
-262.2472
 20
-180.0
  9
$EXTMAX
 10
262.2472
 20
180.0
  9
$LIMMIN
 10
0.0
 20
0.0
  9
$LIMMAX
 10
12.0
 20
9.0
  9
$VIEWCTR
 10
20.22981726
 20
0.0
  9
$VIEWSIZE
 40
360.0
  9
$SNAPMODE
 70
     0
  9
$SNAPUNIT
 10
1.0
 20
1.0
  9
$SNAPBASE
 10
0.0
 20
0.0
  9
$SNAPANG
 50
0.0
  9
$SNAPSTYLE
 70
     0
  9
$SNAPISOPAIR
 70
     0
  9
$GRIDMODE
 70
     0
  9
$GRIDUNIT
 10
0.0
 20
0.0
  9
$ORTHOMODE
 70
     1
  9
$REGENMODE
 70
     1
  9
$FILLMODE
 70
     1
  9
$QTEXTMODE
 70
     0
  9
$DRAGMODE
 70
     2
  9
$LTSCALE
 40
1.0
  9
$OSMODE
 70
     0
  9
$ATTMODE
 70
     1
  9
$TEXTSIZE
 40
0.2
  9
$TRACEWID
 40
0.05
  9
$TEXTSTYLE
  7
AAA
  9
$CLAYER
  8
0
  9
$CELTYPE
  6
BYLAYER
  9
$CECOLOR
 62
   256
  9
$DIMSCALE
 40
1.0
  9
$DIMASZ
 40
0.18
  9
$DIMEXO
 40
0.0625
  9
$DIMDLI
 40
0.38
  9
$DIMRND
 40
0.0
  9
$DIMDLE
 40
0.0
  9
$DIMEXE
 40
0.18
  9
$DIMTP
 40
0.0
  9
$DIMTM
 40
0.0
  9
$DIMTXT
 40
0.18
  9
$DIMCEN
 40
0.09
  9
$DIMTSZ
 40
0.0
  9
$DIMTOL
 70
     0
  9
$DIMLIM
 70
     0
  9
$DIMTIH
 70
     1
  9
$DIMTOH
 70
     1
  9
$DIMSE1
 70
     0
  9
$DIMSE2
 70
     0
  9
$DIMTAD
 70
     0
  9
$DIMZIN
 70
     0
  9
$DIMBLK
  1

  9
$LUNITS
 70
     2
  9
$LUPREC
 70
     4
  9
$AXISMODE
 70
     0
  9
$AXISUNIT
 10
0.0
 20
0.0
  9
$SKETCHINC
 40
0.1
  9
$FILLETRAD
 40
0.0
  9
$AUNITS
 70
     0
  9
$AUPREC
 70
     0
  9
$MENU
  1
ACAD
  9
$ELEVATION
 40
0.0
  9
$THICKNESS
 40
0.0
  9
$VIEWDIR
 10
0.0
 20
0.0
 30
1.0
  9
$LIMCHECK
 70
     0
  9
$BLIPMODE
 70
     1
  9
$CHAMFERA
 40
0.0
  9
$CHAMFERB
 40
0.0
  9
$FASTZOOM
 70
     1
  9
$SKPOLY
 70
     0
  9
$TDCREATE
 40
2447814.6307755124
  9
$TDUPDATE
 40
2447814.6307755124
  9
$TDINDWG
 40
0.0016087963
  9
$TDUSRTIMER
 40
0.0016087963
  9
$USRTIMER
 70
     1
  9
$ANGBASE
 50
0.0
  9
$ANGDIR
 70
     0
  9
$PDMODE
 70
     0
  9
$PDSIZE
 40
0.0
  9
$PLINEWID
 40
0.0
  9
$COORDS
 70
     0
  9
$USERI1
 70
     0
  9
$USERI2
 70
     0
  9
$USERI3
 70
     0
  9
$USERI4
 70
     0
  9
$USERI5
 70
     0
  9
$USERR1
 40
0.0
  9
$USERR2
 40
0.0
  9
$USERR3
 40
0.0
  9
$USERR4
 40
0.0
  9
$USERR5
 40
0.0
  0
ENDSEC
  0
SECTION
  2
TABLES
  0
TABLE
  2
LTYPE
 70
     3
  0
LTYPE
  2
CONTINUOUS
 70
    64
  3
SOLID
 72
    65
 73
     0
 40
0.0
  0
LTYPE
  2
DASHED
 70
    64
  3
DASHED
 72
    65
 73
     2
 40
0.75
 49
0.5
 49
-0.25
  0
LTYPE
  2
CENTER
 70
    64
  3
CENTER
 72
    65
 73
     4
 40
2.0
 49
1.25
 49
-0.25
 49
0.25
 49
-0.25
  0
ENDTAB
  0
TABLE
  2
LAYER
 70
     1
  0
LAYER
  2
0
 70
    64
 62
     7
  6
CONTINUOUS
  0
ENDTAB
  0
TABLE
  2
STYLE
 70
     2
  0
STYLE
  2
AAA
 70
     0
 40
0.0
 41
1.0
 50
0.0
 71
     0
 42
0.2
  3
TXT
  4

  0
STYLE
  2
STANDARD
 70
    64
 40
0.0
 41
1.0
 50
0.0
 71
     0
 42
0.2
  3
TXT
  4
BIGFONT
  0
ENDTAB
  0
TABLE
  2
VIEW
 70
     0
  0
ENDTAB
  0
ENDSEC
  0
SECTION
  2
BLOCKS
  0
ENDSEC
  0
SECTION
  2
ENTITIES
  0
LINE
  8
0
  6
CONTINUOUS
 62
     2
 10
-77.23042
 20
130.1076
 11
-73.272
 21
131.1683
  0
LINE
  8
0
  6
CONTINUOUS
 62
     2
 10
-77.23045
 20
119.501
 11
-77.23045
 21
133.6432
  0
LINE
  8
0
  6
CONTINUOUS
 62
     2
 10
-77.23045
 20
130.1076
 11
169.7695
 21
130.1076
  0
LINE
  8
0
  6
CONTINUOUS
 62
     2
 10
169.7695
 20
133.6432
 11
169.7695
 21
119.501
  0
LINE
  8
0
  6
CONTINUOUS
 62
     2
 10
-77.23044
 20
130.1077
 11
-73.27202
 21
129.047
  0
LINE
  8
0
  6
CONTINUOUS
 62
     2
 10
169.7695
 20
130.1076
 11
165.8111
 21
129.047
  0
LINE
  8
0
  6
CONTINUOUS
 62
     2
 10
169.7696
 20
130.1076
 11
165.8111
 21
131.1683
  0
LINE
  8
0
  6
CONTINUOUS
 62
     2
 10
-26.23046
 20
5.5
 11
-26.23046
 21
28.28427
  0
LINE
  8
0
  6
CONTINUOUS
 62
     2
 10
-26.23046
 20
24.74874
 11
71.76955
 21
24.74874
  0
LINE
  8
0
  6
CONTINUOUS
 62
     2
 10
71.76955
 20
28.28427
 11
71.76955
 21
5.5
  0
LINE
  8
0
  6
CONTINUOUS
 62
     2
 10
-26.23044
 20
24.74874
 11
-22.27202
 21
25.8094
  0
LINE
  8
0
  6
CONTINUOUS
 62
     2
 10
-26.23046
 20
24.74877
 11
-22.27203
 21
23.68811
  0
LINE
  8
0
  6
CONTINUOUS
 62
     2
 10
71.76955
 20
24.74873
 11
67.81113
 21
23.68807
  0
LINE
  8
0
  6
CONTINUOUS
 62
     2
 10
71.76955
 20
24.74869
 11
67.81113
 21
25.80935
  0
LINE
  8
0
  6
CONTINUOUS
 62
     2
 10
-45.23046
 20
-53.033
 11
-45.23046
 21
-38.89087
  0
LINE
  8
0
  6
CONTINUOUS
 62
     2
 10
-45.23046
 20
-42.4264
 11
90.76955
 21
-42.4264
  0
LINE
  8
0
  6
CONTINUOUS
 62
     2
 10
90.76955
 20
-38.89087
 11
90.76955
 21
-53.033
  0
LINE
  8
0
  6
CONTINUOUS
 62
     2
 10
-45.23045
 20
-42.42639
 11
-41.27202
 21
-41.36573
  0
LINE
  8
0
  6
CONTINUOUS
 62
     2
 10
-45.23046
 20
-42.42637
 11
-41.27204
 21
-43.48703
  0
LINE
  8
0
  6
CONTINUOUS
 62
     2
 10
90.76955
 20
-42.42642
 11
86.81113
 21
-43.48708
  0
LINE
  8
0
  6
CONTINUOUS
 62
     2
 10
90.76958
 20
-42.42646
 11
86.81115
 21
-41.3658
  0
LINE
  8
0
  6
CONTINUOUS
 62
     2
 10
-45.23046
 20
-116.6726
 11
-45.23046
 21
-166.1701
  0
LINE
  8
0
  6
CONTINUOUS
 62
     2
 10
-29.73046
 20
-90.35281
 11
-29.73046
 21
-166.1701
  0
LINE
  8
0
  6
CONTINUOUS
 62
     2
 10
-14.73046
 20
-90.35281
 11
-14.73046
 21
-152.0279
  0
LINE
  8
0
  6
CONTINUOUS
 62
     2
 10
0.26954
 20
-92.60281
 11
0.26954
 21
-137.8858
  0
LINE
  8
0
  6
CONTINUOUS
 62
     2
 10
45.26955
 20
-92.60281
 11
45.26955
 21
-137.8858
  0
LINE
  8
0
  6
CONTINUOUS
 62
     2
 10
60.26955
 20
-90.35281
 11
60.26955
 21
-152.0279
  0
LINE
  8
0
  6
CONTINUOUS
 62
     2
 10
75.26955
 20
-90.35281
 11
75.26955
 21
-166.1701
  0
LINE
  8
0
  6
CONTINUOUS
 62
     2
 10
-45.23046
 20
-134.3503
 11
45.26955
 21
-134.3503
  0
LINE
  8
0
  6
CONTINUOUS
 62
     2
 10
-45.23046
 20
-148.4924
 11
60.26955
 21
-148.4924
  0
LINE
  8
0
  6
CONTINUOUS
 62
     2
 10
-45.23046
 20
-162.6345
 11
75.26955
 21
-162.6345
  0
LINE
  8
0
  6
CONTINUOUS
 62
     2
 10
-45.23043
 20
-134.3502
 11
-41.27201
 21
-133.2896
  0
LINE
  8
0
  6
CONTINUOUS
 62
     2
 10
-45.23045
 20
-134.3502
 11
-41.27202
 21
-135.4108
  0
LINE
  8
0
  6
CONTINUOUS
 62
     2
 10
-45.23044
 20
-148.4923
 11
-41.27201
 21
-147.4317
  0
LINE
  8
0
  6
CONTINUOUS
 62
     2
 10
-45.23045
 20
-148.4923
 11
-41.27202
 21
-149.553
  0
LINE
  8
0
  6
CONTINUOUS
 62
     2
 10
-45.23045
 20
-162.6344
 11
-41.27202
 21
-161.5738
  0
LINE
  8
0
  6
CONTINUOUS
 62
     2
 10
-45.23045
 20
-162.6345
 11
-41.27202
 21
-163.6951
  0
LINE
  8
0
  6
CONTINUOUS
 62
     2
 10
-29.73046
 20
-162.6345
 11
-33.68889
 21
-163.6952
  0
LINE
  8
0
  6
CONTINUOUS
 62
     2
 10
-29.73046
 20
-162.6346
 11
-33.68888
 21
-161.5739
  0
LINE
  8
0
  6
CONTINUOUS
 62
     2
 10
-14.73047
 20
-148.4924
 11
-18.68889
 21
-149.5531
  0
LINE
  8
0
  6
CONTINUOUS
 62
     2
 10
-14.73046
 20
-148.4924
 11
-18.68888
 21
-147.4317
  0
LINE
  8
0
  6
CONTINUOUS
 62
     2
 10
0.26952
 20
-134.3502
 11
-3.6889
 21
-135.4109
  0
LINE
  8
0
  6
CONTINUOUS
 62
     2
 10
0.26954
 20
-134.3503
 11
-3.68889
 21
-133.2896
  0
LINE
  8
0
  6
CONTINUOUS
 62
     2
 10
45.26954
 20
-134.3503
 11
41.31112
 21
-135.411
  0
LINE
  8
0
  6
CONTINUOUS
 62
     2
 10
45.26953
 20
-134.3503
 11
41.31112
 21
-133.2896
  0
LINE
  8
0
  6
CONTINUOUS
 62
     2
 10
60.26954
 20
-148.4924
 11
56.31112
 21
-149.5531
  0
LINE
  8
0
  6
CONTINUOUS
 62
     2
 10
60.26956
 20
-148.4925
 11
56.31114
 21
-147.4319
  0
LINE
  8
0
  6
CONTINUOUS
 62
     2
 10
75.26951
 20
-162.6345
 11
71.31108
 21
-163.6951
  0
LINE
  8
0
  6
CONTINUOUS
 62
     2
 10
75.26955
 20
-162.6346
 11
71.31112
 21
-161.5739
  0
LINE
  8
0
  6
CONTINUOUS
 62
     2
 10
-29.73045
 20
-162.6345
 11
-25.77202
 21
-161.5739
  0
LINE
  8
0
  6
CONTINUOUS
 62
     2
 10
-29.73045
 20
-162.6344
 11
-25.77202
 21
-163.6951
  0
LINE
  8
0
  6
CONTINUOUS
 62
     2
 10
-14.73044
 20
-148.4924
 11
-10.77202
 21
-147.4317
  0
LINE
  8
0
  6
CONTINUOUS
 62
     2
 10
-14.73046
 20
-148.4923
 11
-10.77203
 21
-149.553
  0
LINE
  8
0
  6
CONTINUOUS
 62
     2
 10
0.26955
 20
-134.3503
 11
4.22798
 21
-133.2896
  0
LINE
  8
0
  6
CONTINUOUS
 62
     2
 10
0.26954
 20
-134.3502
 11
4.22797
 21
-135.4108
  0
LINE
  8
0
  6
CONTINUOUS
 62
     2
 10
-103.3346
 20
45.20458
 11
-83.33045
 21
79.85281
  0
LINE
  8
0
  6
CONTINUOUS
 62
     2
 10
-130.79357248
 20
45.20457
 11
-103.3346
 21
45.20457
  0
LINE
  8
0
  6
CONTINUOUS
 62
     2
 10
-83.33047
 20
79.85283
 11
-84.39114
 21
75.8944
  0
LINE
  8
0
  6
CONTINUOUS
 62
     2
 10
-83.33043
 20
79.85281
 11
-86.2282
 21
76.95504
  0
LINE
  8
0
  6
CONTINUOUS
 62
     2
 10
73.01955
 20
2.16506
 11
86.05825
 21
24.74874
  0
LINE
  8
0
  6
CONTINUOUS
 62
     2
 10
86.05824
 20
24.74874
 11
117.37170307
 21
24.74874
  0
LINE
  8
0
  6
CONTINUOUS
 62
     2
 10
73.01957
 20
2.16506
 11
75.91734
 21
5.06283
  0
LINE
  8
0
  6
CONTINUOUS
 62
     2
 10
73.01961
 20
2.16504
 11
74.08027
 21
6.12347
  0
LINE
  8
0
  6
CONTINUOUS
 62
     2
 10
61.51954
 20
-87.01786
 11
97.0119
 21
-148.4924
  0
LINE
  8
0
  6
CONTINUOUS
 62
     2
 10
97.0119
 20
-148.4924
 11
127.63074142
 21
-148.4924
  0
LINE
  8
0
  6
CONTINUOUS
 62
     2
 10
61.51955
 20
-87.01788
 11
64.41734
 21
-89.91565
  0
LINE
  8
0
  6
CONTINUOUS
 62
     2
 10
61.5196
 20
-87.01785
 11
62.58025
 21
-90.97631
  0
LINE
  8
0
  6
CONTINUOUS
 62
     7
 10
-173.39515907
 20
-157.6848
 11
-166.32405907
 21
-157.6848
  0
LINE
  8
0
  6
CONTINUOUS
 62
     7
 10
-166.32415907
 20
-157.6849
 11
-170.28255907
 21
-158.7455
  0
LINE
  8
0
  6
CONTINUOUS
 62
     7
 10
-166.32405907
 20
-157.6849
 11
-170.28255907
 21
-156.6242
  0
LINE
  8
0
  6
CONTINUOUS
 62
     7
 10
191.5011
 20
-166.9844
 11
191.5011
 21
-173.8271
  0
LINE
  8
0
  6
CONTINUOUS
 62
     7
 10
194.6292
 20
-166.2024
 11
194.6292
 21
-176.1731
  0
LINE
  8
0
  6
CONTINUOUS
 62
     7
 10
182.7034
 20
-164.6383
 11
182.7034
 21
-166.9844
  0
LINE
  8
0
  6
CONTINUOUS
 62
     7
 10
182.7034
 20
-166.9844
 11
191.5011
 21
-166.9844
  0
LINE
  8
0
  6
CONTINUOUS
 62
     7
 10
182.7034
 20
-176.1731
 11
194.6292
 21
-176.1731
  0
LINE
  8
0
  6
CONTINUOUS
 62
     7
 10
182.7034
 20
-173.8271
 11
191.5011
 21
-173.8271
  0
LINE
  8
0
  6
CONTINUOUS
 62
     7
 10
182.7034
 20
-164.6383
 11
193.0652
 21
-164.6383
  0
LINE
  8
0
  6
CONTINUOUS
 62
     7
 10
154.382
 20
-159.7753
 11
262.2472
 21
-159.7753
  0
LINE
  8
0
  6
CONTINUOUS
 62
     7
 10
-154.382
 20
159.7753
 11
-154.382
 21
180.0
  0
LINE
  8
0
  6
CONTINUOUS
 62
     7
 10
-262.2472
 20
159.7753
 11
-154.382
 21
159.7753
  0
LINE
  8
0
  6
CONTINUOUS
 62
     7
 10
-262.2472
 20
180.0
 11
262.2472
 21
180.0
  0
LINE
  8
0
  6
CONTINUOUS
 62
     7
 10
-262.2472
 20
-180.0
 11
262.2472
 21
-180.0
  0
LINE
  8
0
  6
CONTINUOUS
 62
     7
 10
262.2472
 20
180.0
 11
262.2472
 21
-180.0
  0
LINE
  8
0
  6
CONTINUOUS
 62
     7
 10
-262.2472
 20
-180.0
 11
-262.2472
 21
180.0
  0
LINE
  8
0
  6
CONTINUOUS
 62
     7
 10
196.3887
 20
-164.6383
 11
196.3887
 21
-166.9844
  0
LINE
  8
0
  6
CONTINUOUS
 62
     7
 10
207.5326
 20
-166.9844
 11
207.5326
 21
-174.6091
  0
LINE
  8
0
  6
CONTINUOUS
 62
     7
 10
154.382
 20
-159.7753
 11
154.382
 21
-180.0
  0
LINE
  8
0
  6
CONTINUOUS
 62
     7
 10
154.382
 20
180.0
 11
154.382
 21
159.7753
  0
LINE
  8
0
  6
CONTINUOUS
 62
     7
 10
154.382
 20
159.7753
 11
262.2472
 21
159.7753
  0
LINE
  8
0
  6
CONTINUOUS
 62
     7
 10
207.8454
 20
-164.4624
 11
208.9598
 21
-164.4624
  0
LINE
  8
0
  6
CONTINUOUS
 62
     7
 10
207.8454
 20
-162.8983
 11
208.9598
 21
-162.8983
  0
LINE
  8
0
  6
CONTINUOUS
 62
     7
 10
208.9598
 20
-162.8983
 11
208.9598
 21
-164.4624
  0
LINE
  8
0
  6
CONTINUOUS
 62
     7
 10
207.8454
 20
-162.8983
 11
207.8454
 21
-164.4624
  0
LINE
  8
0
  6
CONTINUOUS
 62
     7
 10
207.2588
 20
-162.8983
 11
207.2588
 21
-164.4624
  0
LINE
  8
0
  6
CONTINUOUS
 62
     7
 10
206.2618
 20
-162.8983
 11
206.2618
 21
-164.4624
  0
LINE
  8
0
  6
CONTINUOUS
 62
     7
 10
206.2618
 20
-164.4624
 11
207.2588
 21
-164.4624
  0
LINE
  8
0
  6
CONTINUOUS
 62
     7
 10
213.2023
 20
-162.8983
 11
216.3303
 21
-162.8983
  0
LINE
  8
0
  6
CONTINUOUS
 62
     7
 10
206.2618
 20
-162.8983
 11
207.2588
 21
-162.8983
  0
LINE
  8
0
  6
CONTINUOUS
 62
     7
 10
199.7572
 20
-162.8983
 11
202.3746
 21
-162.8983
  0
LINE
  8
0
  6
CONTINUOUS
 62
     7
 10
231.5801
 20
-167.1633
 11
232.4471
 21
-166.8185
  0
LINE
  8
0
  6
CONTINUOUS
 62
     7
 10
231.5798
 20
-167.1631
 11
231.5798
 21
-176.1731
  0
LINE
  8
0
  6
CONTINUOUS
 62
     7
 10
228.4517
 20
-176.1731
 11
231.5798
 21
-176.1731
  0
LINE
  8
0
  6
CONTINUOUS
 62
     7
 10
222.0
 20
-170.9732
 11
228.4517
 21
-168.4072
  0
LINE
  8
0
  6
CONTINUOUS
 62
     7
 10
222.0002
 20
-168.4484
 11
231.0869
 21
-164.8345
  0
LINE
  8
0
  6
CONTINUOUS
 62
     7
 10
228.4517
 20
-168.4072
 11
228.4517
 21
-176.1731
  0
LINE
  8
0
  6
CONTINUOUS
 62
     7
 10
231.5798
 20
-163.6022
 11
231.5798
 21
-164.1077
  0
LINE
  8
0
  6
CONTINUOUS
 62
     7
 10
233.9258
 20
-163.6022
 11
233.9258
 21
-164.6383
  0
LINE
  8
0
  6
CONTINUOUS
 62
     7
 10
222.0
 20
-168.4483
 11
222.0
 21
-170.9731
  0
LINE
  8
0
  6
CONTINUOUS
 62
     7
 10
231.5798
 20
-163.6022
 11
233.9258
 21
-163.6022
  0
LINE
  8
0
  6
CONTINUOUS
 62
     7
 10
218.0309
 20
-169.8435
 11
220.1196
 21
-168.8696
  0
LINE
  8
0
  6
CONTINUOUS
 62
     7
 10
216.3303
 20
-171.6391
 11
216.3303
 21
-176.1731
  0
LINE
  8
0
  6
CONTINUOUS
 62
     7
 10
213.2023
 20
-172.095
 11
213.2023
 21
-176.1731
  0
LINE
  8
0
  6
CONTINUOUS
 62
     7
 10
216.3303
 20
-164.6383
 11
219.4584
 21
-164.6383
  0
LINE
  8
0
  6
CONTINUOUS
 62
     7
 10
216.3303
 20
-162.8983
 11
216.3303
 21
-164.6383
  0
LINE
  8
0
  6
CONTINUOUS
 62
     7
 10
213.2023
 20
-162.8983
 11
213.2023
 21
-164.6383
  0
LINE
  8
0
  6
CONTINUOUS
 62
     7
 10
221.0225
 20
-166.2024
 11
221.0225
 21
-167.4519
  0
LINE
  8
0
  6
CONTINUOUS
 62
     7
 10
218.031
 20
-169.8436
 11
221.0228
 21
-171.2387
  0
LINE
  8
0
  6
CONTINUOUS
 62
     7
 10
216.3303
 20
-171.6391
 11
221.0225
 21
-173.8271
  0
LINE
  8
0
  6
CONTINUOUS
 62
     7
 10
209.4876
 20
-171.2385
 11
209.4876
 21
-173.8271
  0
LINE
  8
0
  6
CONTINUOUS
 62
     7
 10
209.4879
 20
-171.2387
 11
218.6108
 21
-166.9845
  0
LINE
  8
0
  6
CONTINUOUS
 62
     7
 10
209.4875
 20
-173.827
 11
213.2022
 21
-172.0949
  0
LINE
  8
0
  6
CONTINUOUS
 62
     7
 10
221.0225
 20
-171.2385
 11
221.0225
 21
-173.8271
  0
LINE
  8
0
  6
CONTINUOUS
 62
     7
 10
209.4876
 20
-164.6383
 11
209.4876
 21
-166.9844
  0
LINE
  8
0
  6
CONTINUOUS
 62
     7
 10
213.2023
 20
-176.1731
 11
216.3303
 21
-176.1731
  0
LINE
  8
0
  6
CONTINUOUS
 62
     7
 10
209.4876
 20
-166.9844
 11
218.6106
 21
-166.9844
  0
LINE
  8
0
  6
CONTINUOUS
 62
     7
 10
209.4876
 20
-164.6383
 11
213.2023
 21
-164.6383
  0
LINE
  8
0
  6
CONTINUOUS
 62
     7
 10
201.9082
 20
-164.6382
 11
202.3744
 21
-162.8982
  0
LINE
  8
0
  6
CONTINUOUS
 62
     7
 10
199.4795
 20
-164.6383
 11
199.9458
 21
-162.8983
  0
LINE
  8
0
  6
CONTINUOUS
 62
     7
 10
201.9084
 20
-164.6383
 11
205.1865
 21
-164.6383
  0
LINE
  8
0
  6
CONTINUOUS
 62
     7
 10
201.2797
 20
-166.9844
 11
204.4045
 21
-166.9844
  0
LINE
  8
0
  6
CONTINUOUS
 62
     7
 10
202.6871
 20
-176.1731
 11
205.9686
 21
-176.1731
  0
LINE
  8
0
  6
CONTINUOUS
 62
     7
 10
202.0583
 20
-173.8271
 11
202.687
 21
-176.1731
  0
LINE
  8
0
  6
CONTINUOUS
 62
     7
 10
202.0584
 20
-173.8271
 11
204.4045
 21
-173.8271
  0
LINE
  8
0
  6
CONTINUOUS
 62
     7
 10
198.8177
 20
-176.1733
 11
201.2799
 21
-166.9845
  0
LINE
  8
0
  6
CONTINUOUS
 62
     7
 10
196.3887
 20
-166.9844
 11
198.8509
 21
-166.9844
  0
LINE
  8
0
  6
CONTINUOUS
 62
     7
 10
196.3887
 20
-176.173
 11
198.8509
 21
-166.9843
  0
LINE
  8
0
  6
CONTINUOUS
 62
     7
 10
196.3887
 20
-176.1731
 11
198.8176
 21
-176.1731
  0
LINE
  8
0
  6
CONTINUOUS
 62
     7
 10
196.3887
 20
-164.6383
 11
199.4795
 21
-164.6383
  0
LINE
  8
0
  6
CONTINUOUS
 62
     7
 10
182.7034
 20
-173.8271
 11
182.7034
 21
-176.1731
  0
LINE
  8
0
  6
CONTINUOUS
 62
     7
 10
204.4045
 20
-166.9844
 11
204.4045
 21
-173.8271
  0
LINE
  8
0
  6
CONTINUOUS
 62
     2
 10
-175.7696
 20
2.76796
 11
-176.8302
 21
-1.19048
  0
LINE
  8
0
  6
CONTINUOUS
 62
     2
 10
-175.7696
 20
2.76794
 11
-178.6674
 21
-0.12983
  0
LINE
  8
0
  6
CONTINUOUS
 62
     2
 10
-175.7695
 20
2.76793
 11
-195.9378
 21
-32.16457
  0
LINE
  8
0
  6
CONTINUOUS
 62
     2
 10
-161.57068753
 20
-32.16459
 11
-195.9379
 21
-32.16459
  0
LINE
  8
0
  6
CENTER
 62
     2
 10
71.76955
 20
-5.5
 11
71.76955
 21
5.5
  0
LINE
  8
0
  6
CONTINUOUS
 62
     7
 10
-77.23045
 20
12.5
 11
-65.23045
 21
12.5
  0
LINE
  8
0
  6
CONTINUOUS
 62
     7
 10
-77.23045
 20
-9.5
 11
-65.23045
 21
-9.5
  0
LINE
  8
0
  6
CENTER
 62
     2
 10
-80.23045
 20
0.0
 11
172.7695
 21
0.0
  0
LINE
  8
0
  6
CENTER
 62
     2
 10
151.7695
 20
3.0
 11
182.7695
 21
3.0
  0
LINE
  8
0
  6
CENTER
 62
     2
 10
155.7695
 20
0.5
 11
164.7695
 21
0.5
  0
LINE
  8
0
  6
CENTER
 62
     2
 10
160.2695
 20
-4.0
 11
160.2695
 21
5.0
  0
LINE
  8
0
  6
CONTINUOUS
 62
     7
 10
169.7695
 20
12.5
 11
169.7695
 21
-9.5
  0
LINE
  8
0
  6
CONTINUOUS
 62
     7
 10
169.7695
 20
12.5
 11
157.7695
 21
12.5
  0
LINE
  8
0
  6
CONTINUOUS
 62
     7
 10
169.7695
 20
-9.5
 11
157.7695
 21
-9.5
  0
LINE
  8
0
  6
CONTINUOUS
 62
     7
 10
157.7695
 20
12.5
 11
157.7695
 21
-9.5
  0
LINE
  8
0
  6
CONTINUOUS
 62
     7
 10
172.2695
 20
9.0
 11
170.2695
 21
9.0
  0
LINE
  8
0
  6
CONTINUOUS
 62
     7
 10
172.2695
 20
-3.0
 11
170.2695
 21
-3.0
  0
LINE
  8
0
  6
CONTINUOUS
 62
     7
 10
172.2695
 20
3.0
 11
170.2695
 21
3.0
  0
LINE
  8
0
  6
CONTINUOUS
 62
     7
 10
172.7695
 20
6.0
 11
172.7695
 21
0.0
  0
LINE
  8
0
  6
CONTINUOUS
 62
     7
 10
179.7695
 20
6.61436
 11
179.7695
 21
-0.61435
  0
LINE
  8
0
  6
CONTINUOUS
 62
     7
 10
154.7695
 20
7.5
 11
154.7695
 21
4.0
  0
LINE
  8
0
  6
CONTINUOUS
 62
     7
 10
179.5469
 20
7.0
 11
172.7153
 21
7.0
  0
LINE
  8
0
  6
CONTINUOUS
 62
     7
 10
178.9696
 20
8.0
 11
172.5507
 21
8.0
  0
LINE
  8
0
  6
CONTINUOUS
 62
     7
 10
155.2695
 20
7.99999
 11
154.7695
 21
7.49999
  0
LINE
  8
0
  6
CONTINUOUS
 62
     7
 10
179.7695
 20
6.61435
 11
178.9695
 21
7.99997
  0
LINE
  8
0
  6
CONTINUOUS
 62
     7
 10
157.7695
 20
7.0
 11
154.7695
 21
7.0
  0
LINE
  8
0
  6
CONTINUOUS
 62
     7
 10
157.7695
 20
8.0
 11
155.2695
 21
8.0
  0
LINE
  8
0
  6
CONTINUOUS
 62
     7
 10
179.5469
 20
-1.0
 11
172.7153
 21
-1.0
  0
LINE
  8
0
  6
CONTINUOUS
 62
     7
 10
179.7696
 20
-0.61436
 11
178.9696
 21
-2.0
  0
LINE
  8
0
  6
CONTINUOUS
 62
     7
 10
178.9696
 20
-2.0
 11
172.5507
 21
-2.0
  0
LINE
  8
0
  6
DASHED
 62
     7
 10
157.7695
 20
-1.0
 11
154.7695
 21
-1.0
  0
LINE
  8
0
  6
DASHED
 62
     7
 10
157.7695
 20
-2.0
 11
155.2695
 21
-2.0
  0
LINE
  8
0
  6
DASHED
 62
     7
 10
155.2695
 20
-2.0
 11
154.7695
 21
-1.5
  0
LINE
  8
0
  6
CONTINUOUS
 62
     7
 10
178.9696
 20
8.0
 11
178.9696
 21
-2.0
  0
LINE
  8
0
  6
CONTINUOUS
 62
     7
 10
155.2695
 20
8.0
 11
155.2695
 21
4.0
  0
LINE
  8
0
  6
DASHED
 62
     7
 10
179.7695
 20
5.88675
 11
175.7695
 21
5.88675
  0
LINE
  8
0
  6
DASHED
 62
     7
 10
179.7695
 20
4.44337
 11
175.7695
 21
4.44337
  0
LINE
  8
0
  6
DASHED
 62
     7
 10
175.7696
 20
5.88674
 11
174.1029
 21
2.99999
  0
LINE
  8
0
  6
DASHED
 62
     7
 10
175.7695
 20
5.88675
 11
175.7695
 21
0.11325
  0
LINE
  8
0
  6
DASHED
 62
     7
 10
179.7695
 20
1.55662
 11
175.7695
 21
1.55662
  0
LINE
  8
0
  6
DASHED
 62
     7
 10
179.7695
 20
0.11325
 11
175.7695
 21
0.11325
  0
LINE
  8
0
  6
DASHED
 62
     7
 10
175.7696
 20
0.11324
 11
174.1029
 21
2.99999
  0
LINE
  8
0
  6
CONTINUOUS
 62
     7
 10
-45.23046
 20
-11.5
 11
-45.23046
 21
10.5
  0
LINE
  8
0
  6
CONTINUOUS
 62
     7
 10
-45.23046
 20
10.5
 11
90.76955
 21
10.5
  0
LINE
  8
0
  6
CONTINUOUS
 62
     7
 10
90.76955
 20
10.5
 11
90.76955
 21
-11.5
  0
LINE
  8
0
  6
CONTINUOUS
 62
     7
 10
90.76955
 20
-11.5
 11
-45.23046
 21
-11.5
  0
LINE
  8
0
  6
CONTINUOUS
 62
     7
 10
90.76955
 20
-10.5
 11
-45.23046
 21
-10.5
  0
LINE
  8
0
  6
CONTINUOUS
 62
     7
 10
-65.23045
 20
4.0
 11
-45.23046
 21
4.0
  0
LINE
  8
0
  6
CONTINUOUS
 62
     7
 10
90.76955
 20
4.0
 11
157.7695
 21
4.0
  0
LINE
  8
0
  6
CONTINUOUS
 62
     7
 10
-65.23045
 20
-4.0
 11
-45.23046
 21
-4.0
  0
LINE
  8
0
  6
CONTINUOUS
 62
     7
 10
90.76955
 20
-4.0
 11
157.7695
 21
-4.0
  0
LINE
  8
0
  6
DASHED
 62
     7
 10
154.7695
 20
4.0
 11
154.7695
 21
-1.5
  0
LINE
  8
0
  6
DASHED
 62
     7
 10
155.2695
 20
4.0
 11
155.2695
 21
-2.0
  0
LINE
  8
0
  6
CENTER
 62
     2
 10
-67.73045
 20
-4.0
 11
-67.73045
 21
5.0
  0
LINE
  8
0
  6
CENTER
 62
     2
 10
-63.23046
 20
0.5
 11
-72.23045
 21
0.5
  0
LINE
  8
0
  6
CENTER
 62
     2
 10
-26.23046
 20
-5.5
 11
-26.23046
 21
5.5
  0
LINE
  8
0
  6
CONTINUOUS
 62
     7
 10
-48.23046
 20
6.0
 11
-48.23046
 21
4.0
  0
LINE
  8
0
  6
CONTINUOUS
 62
     7
 10
-87.23045
 20
6.61436
 11
-87.23045
 21
-0.61435
  0
LINE
  8
0
  6
CONTINUOUS
 62
     7
 10
-62.23046
 20
7.5
 11
-62.23046
 21
4.0
  0
LINE
  8
0
  6
CONTINUOUS
 62
     7
 10
-87.0078
 20
7.0
 11
-80.17624
 21
7.0
  0
LINE
  8
0
  6
CONTINUOUS
 62
     7
 10
-77.23045
 20
12.5
 11
-77.23045
 21
-9.5
  0
LINE
  8
0
  6
CONTINUOUS
 62
     7
 10
-65.23045
 20
12.5
 11
-65.23045
 21
-9.5
  0
LINE
  8
0
  6
CONTINUOUS
 62
     7
 10
-86.43045
 20
8.0
 11
-80.01166
 21
8.0
  0
LINE
  8
0
  6
CONTINUOUS
 62
     7
 10
-62.73044
 20
8.0
 11
-62.23045
 21
7.5
  0
LINE
  8
0
  6
CONTINUOUS
 62
     7
 10
-87.23046
 20
6.61436
 11
-86.43045
 21
8.0
  0
LINE
  8
0
  6
CONTINUOUS
 62
     7
 10
-65.23045
 20
7.0
 11
-62.23046
 21
7.0
  0
LINE
  8
0
  6
CONTINUOUS
 62
     7
 10
-65.23045
 20
8.0
 11
-62.73046
 21
8.0
  0
LINE
  8
0
  6
CONTINUOUS
 62
     7
 10
-87.0078
 20
-1.0
 11
-80.17624
 21
-1.0
  0
LINE
  8
0
  6
CONTINUOUS
 62
     7
 10
-79.73045
 20
3.0
 11
-77.73045
 21
3.0
  0
LINE
  8
0
  6
CONTINUOUS
 62
     7
 10
-87.23043
 20
-0.61436
 11
-86.43043
 21
-2.0
  0
LINE
  8
0
  6
CONTINUOUS
 62
     7
 10
-86.43045
 20
-2.0
 11
-80.01166
 21
-2.0
  0
LINE
  8
0
  6
DASHED
 62
     7
 10
-65.23045
 20
-1.0
 11
-62.23046
 21
-1.0
  0
LINE
  8
0
  6
DASHED
 62
     7
 10
-65.23045
 20
-2.0
 11
-62.73046
 21
-2.0
  0
LINE
  8
0
  6
DASHED
 62
     7
 10
-62.73045
 20
-2.0
 11
-62.23045
 21
-1.5
  0
LINE
  8
0
  6
DASHED
 62
     7
 10
-47.73046
 20
-3.0
 11
-45.23046
 21
-3.0
  0
LINE
  8
0
  6
DASHED
 62
     7
 10
-47.73046
 20
3.0
 11
-45.23046
 21
3.0
  0
LINE
  8
0
  6
DASHED
 62
     7
 10
-62.73046
 20
4.0
 11
-62.73046
 21
-2.0
  0
LINE
  8
0
  6
DASHED
 62
     7
 10
-62.23046
 20
4.0
 11
-62.23046
 21
-1.50001
  0
LINE
  8
0
  6
CONTINUOUS
 62
     7
 10
-86.43045
 20
8.0
 11
-86.43045
 21
-2.0
  0
LINE
  8
0
  6
CONTINUOUS
 62
     7
 10
-62.73046
 20
8.0
 11
-62.73046
 21
4.0
  0
LINE
  8
0
  6
DASHED
 62
     7
 10
-83.23045
 20
0.11324
 11
-81.56378
 21
3.0
  0
LINE
  8
0
  6
CENTER
 62
     2
 10
-59.23046
 20
3.0
 11
-90.23045
 21
3.0
  0
LINE
  8
0
  6
DASHED
 62
     7
 10
-87.23045
 20
5.88675
 11
-83.23045
 21
5.88675
  0
LINE
  8
0
  6
DASHED
 62
     7
 10
-87.23045
 20
4.44337
 11
-83.23045
 21
4.44337
  0
LINE
  8
0
  6
DASHED
 62
     7
 10
-83.23047
 20
5.88675
 11
-81.5638
 21
2.99999
  0
LINE
  8
0
  6
DASHED
 62
     7
 10
-83.23045
 20
5.88675
 11
-83.23045
 21
0.11325
  0
LINE
  8
0
  6
DASHED
 62
     7
 10
-87.23045
 20
1.55662
 11
-83.23045
 21
1.55662
  0
LINE
  8
0
  6
DASHED
 62
     7
 10
-87.23045
 20
0.11325
 11
-83.23045
 21
0.11325
  0
LINE
  8
0
  6
CONTINUOUS
 62
     7
 10
-79.73045
 20
9.0
 11
-77.73045
 21
9.0
  0
LINE
  8
0
  6
CONTINUOUS
 62
     7
 10
-80.23045
 20
6.0
 11
-80.23045
 21
0.0
  0
LINE
  8
0
  6
CONTINUOUS
 62
     7
 10
-79.73045
 20
-3.0
 11
-77.73045
 21
-3.0
  0
LINE
  8
0
  6
CONTINUOUS
 62
     7
 10
-47.73046
 20
9.0
 11
-45.23046
 21
9.0
  0
LINE
  8
0
  6
DASHED
 62
     7
 10
93.26955
 20
0.0
 11
90.76955
 21
0.0
  0
LINE
  8
0
  6
DASHED
 62
     7
 10
-48.23046
 20
4.0
 11
-48.23046
 21
0.0
  0
LINE
  8
0
  6
CENTER
 62
     2
 10
-51.23046
 20
3.0
 11
-42.23046
 21
3.0
  0
LINE
  8
0
  6
CENTER
 62
     2
 10
96.76955
 20
3.0
 11
87.76955
 21
3.0
  0
LINE
  8
0
  6
CONTINUOUS
 62
     7
 10
93.76955
 20
6.0
 11
93.76955
 21
4.0
  0
LINE
  8
0
  6
DASHED
 62
     7
 10
93.26955
 20
-3.0
 11
90.76955
 21
-3.0
  0
LINE
  8
0
  6
DASHED
 62
     7
 10
93.26955
 20
3.0
 11
90.76955
 21
3.0
  0
LINE
  8
0
  6
CONTINUOUS
 62
     7
 10
93.26955
 20
9.0
 11
90.76955
 21
9.0
  0
LINE
  8
0
  6
DASHED
 62
     7
 10
93.76955
 20
4.0
 11
93.76955
 21
0.0
  0
LINE
  8
0
  6
CENTER
 62
     2
 10
-71.23047
 20
105.3528
 11
-71.23047
 21
94.35283
  0
LINE
  8
0
  6
CONTINUOUS
 62
     7
 10
-77.23047
 20
113.8528
 11
-77.23047
 21
55.85283
  0
LINE
  8
0
  6
CONTINUOUS
 62
     7
 10
-65.23047
 20
113.8528
 11
-65.23047
 21
55.85283
  0
LINE
  8
0
  6
CONTINUOUS
 62
     7
 10
-80.23047
 20
90.04899
 11
-80.23047
 21
79.85283
  0
LINE
  8
0
  6
CONTINUOUS
 62
     7
 10
-87.23047
 20
88.46719
 11
-87.23047
 21
81.23848
  0
LINE
  8
0
  6
CONTINUOUS
 62
     7
 10
-62.23047
 20
89.35283
 11
-62.23047
 21
80.35283
  0
LINE
  8
0
  6
CONTINUOUS
 62
     7
 10
-87.00781
 20
88.85283
 11
-80.23047
 21
88.85283
  0
LINE
  8
0
  6
CONTINUOUS
 62
     7
 10
-86.43047
 20
89.85283
 11
-80.23047
 21
89.85283
  0
LINE
  8
0
  6
CONTINUOUS
 62
     7
 10
-62.73045
 20
89.85279
 11
-62.23046
 21
89.35279
  0
LINE
  8
0
  6
CONTINUOUS
 62
     7
 10
-87.23045
 20
88.4672
 11
-86.43047
 21
89.85284
  0
LINE
  8
0
  6
CONTINUOUS
 62
     7
 10
-65.23047
 20
88.85283
 11
-62.23047
 21
88.85283
  0
LINE
  8
0
  6
CONTINUOUS
 62
     7
 10
-65.23047
 20
89.85283
 11
-62.73047
 21
89.85283
  0
LINE
  8
0
  6
CONTINUOUS
 62
     7
 10
-87.00781
 20
80.85283
 11
-80.23047
 21
80.85283
  0
LINE
  8
0
  6
CONTINUOUS
 62
     7
 10
-87.23045
 20
81.23847
 11
-86.43044
 21
79.85283
  0
LINE
  8
0
  6
CONTINUOUS
 62
     7
 10
-86.43047
 20
79.85283
 11
-80.23047
 21
79.85283
  0
LINE
  8
0
  6
CONTINUOUS
 62
     7
 10
-65.23047
 20
80.85283
 11
-62.23047
 21
80.85283
  0
LINE
  8
0
  6
CONTINUOUS
 62
     7
 10
-65.23047
 20
79.85283
 11
-62.73047
 21
79.85283
  0
LINE
  8
0
  6
CONTINUOUS
 62
     7
 10
-62.73045
 20
79.8528
 11
-62.23046
 21
80.3528
  0
LINE
  8
0
  6
CONTINUOUS
 62
     7
 10
-86.43047
 20
89.85283
 11
-86.43047
 21
79.85283
  0
LINE
  8
0
  6
CONTINUOUS
 62
     7
 10
-62.73047
 20
89.85283
 11
-62.73047
 21
79.85283
  0
LINE
  8
0
  6
DASHED
 62
     7
 10
-87.23047
 20
84.85283
 11
-83.23047
 21
84.85283
  0
LINE
  8
0
  6
DASHED
 62
     7
 10
-83.23048
 20
87.35281
 11
-81.78709
 21
84.85281
  0
LINE
  8
0
  6
DASHED
 62
     7
 10
-83.23047
 20
87.35283
 11
-83.23047
 21
82.35283
  0
LINE
  8
0
  6
CONTINUOUS
 62
     7
 10
-77.23047
 20
113.8528
 11
-65.23047
 21
113.8528
  0
LINE
  8
0
  6
CONTINUOUS
 62
     7
 10
-77.23047
 20
55.85283
 11
-65.23047
 21
55.85283
  0
LINE
  8
0
  6
CONTINUOUS
 62
     7
 10
-79.73047
 20
91.78104
 11
-77.73047
 21
91.78104
  0
LINE
  8
0
  6
CONTINUOUS
 62
     7
 10
-79.73047
 20
88.31693
 11
-77.73047
 21
88.31693
  0
LINE
  8
0
  6
CONTINUOUS
 62
     7
 10
-79.73047
 20
81.38873
 11
-77.73047
 21
81.38873
  0
LINE
  8
0
  6
CONTINUOUS
 62
     7
 10
-79.73047
 20
77.92461
 11
-77.73047
 21
77.92461
  0
LINE
  8
0
  6
DASHED
 62
     7
 10
-87.23047
 20
87.35283
 11
-83.23047
 21
87.35283
  0
LINE
  8
0
  6
DASHED
 62
     7
 10
-87.23047
 20
82.35283
 11
-83.23047
 21
82.35283
  0
LINE
  8
0
  6
DASHED
 62
     7
 10
-83.23051
 20
82.35287
 11
-81.78714
 21
84.85287
  0
LINE
  8
0
  6
CENTER
 62
     2
 10
182.7695
 20
84.85283
 11
-90.23047
 21
84.85283
  0
LINE
  8
0
  6
CENTER
 62
     2
 10
172.7695
 20
99.85283
 11
-80.23047
 21
99.85283
  0
LINE
  8
0
  6
CENTER
 62
     2
 10
-72.23047
 20
114.1028
 11
-72.23047
 21
103.6028
  0
LINE
  8
0
  6
CENTER
 62
     2
 10
-66.98047
 20
108.8528
 11
-77.48047
 21
108.8528
  0
LINE
  8
0
  6
CENTER
 62
     2
 10
172.7695
 20
69.85283
 11
-80.23047
 21
69.85283
  0
LINE
  8
0
  6
CENTER
 62
     2
 10
-71.23047
 20
64.35283
 11
-71.23047
 21
75.35283
  0
LINE
  8
0
  6
CENTER
 62
     2
 10
-66.98047
 20
60.85283
 11
-77.48047
 21
60.85283
  0
LINE
  8
0
  6
CENTER
 62
     2
 10
-72.23047
 20
55.60283
 11
-72.23047
 21
66.10283
  0
LINE
  8
0
  6
CENTER
 62
     2
 10
163.7695
 20
105.3528
 11
163.7695
 21
94.35283
  0
LINE
  8
0
  6
CONTINUOUS
 62
     7
 10
169.7695
 20
113.8528
 11
169.7695
 21
55.85283
  0
LINE
  8
0
  6
CONTINUOUS
 62
     7
 10
157.7695
 20
113.8528
 11
157.7695
 21
55.85283
  0
LINE
  8
0
  6
CONTINUOUS
 62
     7
 10
172.7695
 20
90.04899
 11
172.7695
 21
79.85283
  0
LINE
  8
0
  6
CONTINUOUS
 62
     7
 10
179.7695
 20
88.46719
 11
179.7695
 21
81.23848
  0
LINE
  8
0
  6
CONTINUOUS
 62
     7
 10
154.7695
 20
89.35283
 11
154.7695
 21
80.35283
  0
LINE
  8
0
  6
CONTINUOUS
 62
     7
 10
179.5469
 20
88.85283
 11
172.7695
 21
88.85283
  0
LINE
  8
0
  6
CONTINUOUS
 62
     7
 10
178.9695
 20
89.85283
 11
172.7695
 21
89.85283
  0
LINE
  8
0
  6
CONTINUOUS
 62
     7
 10
155.2694
 20
89.85275
 11
154.7695
 21
89.3528
  0
LINE
  8
0
  6
CONTINUOUS
 62
     7
 10
179.7695
 20
88.46718
 11
178.9694
 21
89.85281
  0
LINE
  8
0
  6
CONTINUOUS
 62
     7
 10
157.7695
 20
88.85283
 11
154.7695
 21
88.85283
  0
LINE
  8
0
  6
CONTINUOUS
 62
     7
 10
157.7695
 20
89.85283
 11
155.2695
 21
89.85283
  0
LINE
  8
0
  6
CONTINUOUS
 62
     7
 10
179.5469
 20
80.85283
 11
172.7695
 21
80.85283
  0
LINE
  8
0
  6
CONTINUOUS
 62
     7
 10
179.7696
 20
81.23848
 11
178.9695
 21
79.85284
  0
LINE
  8
0
  6
CONTINUOUS
 62
     7
 10
178.9695
 20
79.85283
 11
172.7695
 21
79.85283
  0
LINE
  8
0
  6
CONTINUOUS
 62
     7
 10
157.7695
 20
80.85283
 11
154.7695
 21
80.85283
  0
LINE
  8
0
  6
CONTINUOUS
 62
     7
 10
157.7695
 20
79.85283
 11
155.2695
 21
79.85283
  0
LINE
  8
0
  6
CONTINUOUS
 62
     7
 10
155.2694
 20
79.85281
 11
154.7694
 21
80.35281
  0
LINE
  8
0
  6
CONTINUOUS
 62
     7
 10
178.9695
 20
89.85283
 11
178.9695
 21
79.85283
  0
LINE
  8
0
  6
CONTINUOUS
 62
     7
 10
155.2695
 20
89.85283
 11
155.2695
 21
79.85283
  0
LINE
  8
0
  6
DASHED
 62
     7
 10
179.7695
 20
84.85283
 11
175.7695
 21
84.85283
  0
LINE
  8
0
  6
DASHED
 62
     7
 10
175.7696
 20
87.35284
 11
174.3262
 21
84.85284
  0
LINE
  8
0
  6
DASHED
 62
     7
 10
175.7695
 20
87.35283
 11
175.7695
 21
82.35283
  0
LINE
  8
0
  6
CONTINUOUS
 62
     7
 10
169.7695
 20
113.8528
 11
157.7695
 21
113.8528
  0
LINE
  8
0
  6
CONTINUOUS
 62
     7
 10
169.7695
 20
55.85283
 11
157.7695
 21
55.85283
  0
LINE
  8
0
  6
CONTINUOUS
 62
     7
 10
172.2695
 20
91.78104
 11
170.2695
 21
91.78104
  0
LINE
  8
0
  6
CONTINUOUS
 62
     7
 10
172.2695
 20
88.31693
 11
170.2695
 21
88.31693
  0
LINE
  8
0
  6
CONTINUOUS
 62
     7
 10
172.2695
 20
81.38873
 11
170.2695
 21
81.38873
  0
LINE
  8
0
  6
CONTINUOUS
 62
     7
 10
172.2695
 20
77.92461
 11
170.2695
 21
77.92461
  0
LINE
  8
0
  6
DASHED
 62
     7
 10
179.7695
 20
87.35283
 11
175.7695
 21
87.35283
  0
LINE
  8
0
  6
DASHED
 62
     7
 10
179.7695
 20
82.35283
 11
175.7695
 21
82.35283
  0
LINE
  8
0
  6
DASHED
 62
     7
 10
175.7695
 20
82.35284
 11
174.3261
 21
84.85286
  0
LINE
  8
0
  6
CENTER
 62
     2
 10
164.7695
 20
114.1028
 11
164.7695
 21
103.6028
  0
LINE
  8
0
  6
CENTER
 62
     2
 10
159.5195
 20
108.8528
 11
170.0195
 21
108.8528
  0
LINE
  8
0
  6
CENTER
 62
     2
 10
163.7695
 20
64.35283
 11
163.7695
 21
75.35283
  0
LINE
  8
0
  6
CENTER
 62
     2
 10
159.5195
 20
60.85283
 11
170.0195
 21
60.85283
  0
LINE
  8
0
  6
CENTER
 62
     2
 10
164.7695
 20
55.60283
 11
164.7695
 21
66.10283
  0
LINE
  8
0
  6
CONTINUOUS
 62
     7
 10
-45.23047
 20
57.85283
 11
-45.23047
 21
111.8528
  0
LINE
  8
0
  6
CONTINUOUS
 62
     7
 10
-45.23047
 20
111.8528
 11
90.76953
 21
111.8528
  0
LINE
  8
0
  6
CONTINUOUS
 62
     7
 10
90.76953
 20
111.8528
 11
90.76953
 21
57.85283
  0
LINE
  8
0
  6
CONTINUOUS
 62
     7
 10
90.76953
 20
57.85283
 11
-45.23047
 21
57.85283
  0
LINE
  8
0
  6
CONTINUOUS
 62
     7
 10
-48.23047
 20
90.85283
 11
-48.23047
 21
78.85283
  0
LINE
  8
0
  6
CONTINUOUS
 62
     7
 10
-48.23048
 20
90.85282
 11
-47.6946
 21
91.78102
  0
LINE
  8
0
  6
CONTINUOUS
 62
     7
 10
-47.69458
 20
91.78103
 11
-45.23047
 21
91.78103
  0
LINE
  8
0
  6
CONTINUOUS
 62
     7
 10
-47.69458
 20
88.31693
 11
-45.23047
 21
88.31693
  0
LINE
  8
0
  6
CONTINUOUS
 62
     7
 10
-47.69458
 20
81.38873
 11
-45.23047
 21
81.38873
  0
LINE
  8
0
  6
CONTINUOUS
 62
     7
 10
-47.69458
 20
77.92463
 11
-45.23047
 21
77.92463
  0
LINE
  8
0
  6
CONTINUOUS
 62
     7
 10
-48.23048
 20
78.85282
 11
-47.69459
 21
77.92464
  0
LINE
  8
0
  6
CONTINUOUS
 62
     7
 10
-65.23047
 20
103.8528
 11
-45.23047
 21
103.8528
  0
LINE
  8
0
  6
CONTINUOUS
 62
     7
 10
90.76953
 20
103.8528
 11
157.7695
 21
103.8528
  0
LINE
  8
0
  6
CONTINUOUS
 62
     7
 10
-65.23047
 20
95.85283
 11
-45.23047
 21
95.85283
  0
LINE
  8
0
  6
CONTINUOUS
 62
     7
 10
90.76953
 20
95.85283
 11
157.7695
 21
95.85283
  0
LINE
  8
0
  6
CONTINUOUS
 62
     7
 10
-65.23047
 20
73.85283
 11
-45.23047
 21
73.85283
  0
LINE
  8
0
  6
CONTINUOUS
 62
     7
 10
-65.23047
 20
65.85283
 11
-45.23047
 21
65.85283
  0
LINE
  8
0
  6
CONTINUOUS
 62
     7
 10
90.76953
 20
73.85283
 11
157.7695
 21
73.85283
  0
LINE
  8
0
  6
CONTINUOUS
 62
     7
 10
90.76953
 20
65.85283
 11
157.7695
 21
65.85283
  0
LINE
  8
0
  6
CENTER
 62
     2
 10
0.26953
 20
92.60283
 11
0.26953
 21
77.10283
  0
LINE
  8
0
  6
CENTER
 62
     2
 10
45.26953
 20
92.60283
 11
45.26953
 21
77.10283
  0
LINE
  8
0
  6
CONTINUOUS
 62
     7
 10
93.76953
 20
90.85283
 11
93.76953
 21
78.85283
  0
LINE
  8
0
  6
CONTINUOUS
 62
     7
 10
93.76954
 20
90.85281
 11
93.23363
 21
91.78101
  0
LINE
  8
0
  6
CONTINUOUS
 62
     7
 10
93.23364
 20
91.78103
 11
90.76953
 21
91.78103
  0
LINE
  8
0
  6
CONTINUOUS
 62
     7
 10
93.23364
 20
88.31693
 11
90.76953
 21
88.31693
  0
LINE
  8
0
  6
CONTINUOUS
 62
     7
 10
93.23364
 20
81.38873
 11
90.76953
 21
81.38873
  0
LINE
  8
0
  6
CONTINUOUS
 62
     7
 10
93.23364
 20
77.92463
 11
90.76953
 21
77.92463
  0
LINE
  8
0
  6
CONTINUOUS
 62
     7
 10
93.76954
 20
78.85281
 11
93.23363
 21
77.92461
  0
LINE
  8
0
  6
CONTINUOUS
 62
     7
 10
-45.23047
 20
110.0028
 11
90.76953
 21
110.0028
  0
LINE
  8
0
  6
CONTINUOUS
 62
     7
 10
-45.23047
 20
106.7028
 11
90.76953
 21
106.7028
  0
LINE
  8
0
  6
CONTINUOUS
 62
     7
 10
-77.23045
 20
-113.8528
 11
-77.23045
 21
-55.8528
  0
LINE
  8
0
  6
CONTINUOUS
 62
     7
 10
-65.23045
 20
-113.8528
 11
-65.23045
 21
-55.8528
  0
LINE
  8
0
  6
CONTINUOUS
 62
     7
 10
-80.23045
 20
-90.04896
 11
-80.23045
 21
-79.8528
  0
LINE
  8
0
  6
CONTINUOUS
 62
     7
 10
-87.23045
 20
-88.46716
 11
-87.23045
 21
-81.23845
  0
LINE
  8
0
  6
CONTINUOUS
 62
     7
 10
-62.23045
 20
-89.3528
 11
-62.23045
 21
-80.3528
  0
LINE
  8
0
  6
CONTINUOUS
 62
     7
 10
-87.0078
 20
-88.8528
 11
-80.23045
 21
-88.8528
  0
LINE
  8
0
  6
CONTINUOUS
 62
     7
 10
-86.43045
 20
-89.8528
 11
-80.23045
 21
-89.8528
  0
LINE
  8
0
  6
CONTINUOUS
 62
     7
 10
-62.73044
 20
-89.85276
 11
-62.23045
 21
-89.35275
  0
LINE
  8
0
  6
CONTINUOUS
 62
     7
 10
-87.23044
 20
-88.46717
 11
-86.43045
 21
-89.85281
  0
LINE
  8
0
  6
CONTINUOUS
 62
     7
 10
-65.23045
 20
-88.8528
 11
-62.23045
 21
-88.8528
  0
LINE
  8
0
  6
CONTINUOUS
 62
     7
 10
-65.23045
 20
-89.8528
 11
-62.73045
 21
-89.8528
  0
LINE
  8
0
  6
CONTINUOUS
 62
     7
 10
-87.0078
 20
-80.8528
 11
-80.23045
 21
-80.8528
  0
LINE
  8
0
  6
CONTINUOUS
 62
     7
 10
-87.23041
 20
-81.23842
 11
-86.4304
 21
-79.85278
  0
LINE
  8
0
  6
CONTINUOUS
 62
     7
 10
-86.43045
 20
-79.8528
 11
-80.23045
 21
-79.8528
  0
LINE
  8
0
  6
CONTINUOUS
 62
     7
 10
-65.23045
 20
-80.8528
 11
-62.23045
 21
-80.8528
  0
LINE
  8
0
  6
CONTINUOUS
 62
     7
 10
-65.23045
 20
-79.8528
 11
-62.73045
 21
-79.8528
  0
LINE
  8
0
  6
CONTINUOUS
 62
     7
 10
-62.73044
 20
-79.85276
 11
-62.23045
 21
-80.35276
  0
LINE
  8
0
  6
CONTINUOUS
 62
     7
 10
-86.43045
 20
-89.8528
 11
-86.43045
 21
-79.8528
  0
LINE
  8
0
  6
CONTINUOUS
 62
     7
 10
-62.73045
 20
-89.8528
 11
-62.73045
 21
-79.8528
  0
LINE
  8
0
  6
DASHED
 62
     7
 10
-87.23045
 20
-84.8528
 11
-83.23045
 21
-84.8528
  0
LINE
  8
0
  6
DASHED
 62
     7
 10
-83.23047
 20
-87.35282
 11
-81.7871
 21
-84.85283
  0
LINE
  8
0
  6
DASHED
 62
     7
 10
-83.23045
 20
-87.3528
 11
-83.23045
 21
-82.3528
  0
LINE
  8
0
  6
CONTINUOUS
 62
     7
 10
-77.23045
 20
-113.8528
 11
-65.23045
 21
-113.8528
  0
LINE
  8
0
  6
CONTINUOUS
 62
     7
 10
-77.23045
 20
-55.8528
 11
-65.23045
 21
-55.8528
  0
LINE
  8
0
  6
CONTINUOUS
 62
     7
 10
-79.73045
 20
-91.78101
 11
-77.73045
 21
-91.78101
  0
LINE
  8
0
  6
CONTINUOUS
 62
     7
 10
-79.73045
 20
-88.3169
 11
-77.73045
 21
-88.3169
  0
LINE
  8
0
  6
CONTINUOUS
 62
     7
 10
-79.73045
 20
-81.38869
 11
-77.73045
 21
-81.38869
  0
LINE
  8
0
  6
CONTINUOUS
 62
     7
 10
-79.73045
 20
-77.92458
 11
-77.73045
 21
-77.92458
  0
LINE
  8
0
  6
DASHED
 62
     7
 10
-87.23045
 20
-87.3528
 11
-83.23045
 21
-87.3528
  0
LINE
  8
0
  6
DASHED
 62
     7
 10
-87.23045
 20
-82.3528
 11
-83.23045
 21
-82.3528
  0
LINE
  8
0
  6
DASHED
 62
     7
 10
-83.23048
 20
-82.35285
 11
-81.78711
 21
-84.85285
  0
LINE
  8
0
  6
CENTER
 62
     2
 10
182.7695
 20
-84.8528
 11
-90.23045
 21
-84.8528
  0
LINE
  8
0
  6
CENTER
 62
     2
 10
172.7695
 20
-99.8528
 11
-80.23045
 21
-99.8528
  0
LINE
  8
0
  6
CENTER
 62
     2
 10
-72.23045
 20
-114.1028
 11
-72.23045
 21
-103.6028
  0
LINE
  8
0
  6
CENTER
 62
     2
 10
-66.98045
 20
-108.8528
 11
-77.48045
 21
-108.8528
  0
LINE
  8
0
  6
CENTER
 62
     2
 10
172.7695
 20
-69.8528
 11
-80.23045
 21
-69.8528
  0
LINE
  8
0
  6
CENTER
 62
     2
 10
-66.98045
 20
-60.8528
 11
-77.48045
 21
-60.8528
  0
LINE
  8
0
  6
CENTER
 62
     2
 10
-72.23045
 20
-55.6028
 11
-72.23045
 21
-66.1028
  0
LINE
  8
0
  6
CONTINUOUS
 62
     7
 10
169.7695
 20
-113.8528
 11
169.7695
 21
-55.8528
  0
LINE
  8
0
  6
CONTINUOUS
 62
     7
 10
157.7695
 20
-113.8528
 11
157.7695
 21
-55.8528
  0
LINE
  8
0
  6
CONTINUOUS
 62
     7
 10
172.7695
 20
-90.04896
 11
172.7695
 21
-79.8528
  0
LINE
  8
0
  6
CONTINUOUS
 62
     7
 10
179.7695
 20
-88.46716
 11
179.7695
 21
-81.23845
  0
LINE
  8
0
  6
CONTINUOUS
 62
     7
 10
154.7695
 20
-89.3528
 11
154.7695
 21
-80.3528
  0
LINE
  8
0
  6
CONTINUOUS
 62
     7
 10
179.5469
 20
-88.8528
 11
172.7695
 21
-88.8528
  0
LINE
  8
0
  6
CONTINUOUS
 62
     7
 10
178.9696
 20
-89.8528
 11
172.7695
 21
-89.8528
  0
LINE
  8
0
  6
CONTINUOUS
 62
     7
 10
155.2694
 20
-89.85273
 11
154.7695
 21
-89.35277
  0
LINE
  8
0
  6
CONTINUOUS
 62
     7
 10
179.7696
 20
-88.46717
 11
178.9695
 21
-89.85281
  0
LINE
  8
0
  6
CONTINUOUS
 62
     7
 10
157.7695
 20
-88.8528
 11
154.7695
 21
-88.8528
  0
LINE
  8
0
  6
CONTINUOUS
 62
     7
 10
157.7695
 20
-89.8528
 11
155.2695
 21
-89.8528
  0
LINE
  8
0
  6
CONTINUOUS
 62
     7
 10
179.5469
 20
-80.8528
 11
172.7695
 21
-80.8528
  0
LINE
  8
0
  6
CONTINUOUS
 62
     7
 10
179.7696
 20
-81.23847
 11
178.9696
 21
-79.85283
  0
LINE
  8
0
  6
CONTINUOUS
 62
     7
 10
178.9696
 20
-79.8528
 11
172.7695
 21
-79.8528
  0
LINE
  8
0
  6
CONTINUOUS
 62
     7
 10
157.7695
 20
-80.8528
 11
154.7695
 21
-80.8528
  0
LINE
  8
0
  6
CONTINUOUS
 62
     7
 10
157.7695
 20
-79.8528
 11
155.2695
 21
-79.8528
  0
LINE
  8
0
  6
CONTINUOUS
 62
     7
 10
155.2695
 20
-79.8528
 11
154.7695
 21
-80.35278
  0
LINE
  8
0
  6
CONTINUOUS
 62
     7
 10
178.9696
 20
-89.8528
 11
178.9696
 21
-79.8528
  0
LINE
  8
0
  6
CONTINUOUS
 62
     7
 10
155.2695
 20
-89.8528
 11
155.2695
 21
-79.8528
  0
LINE
  8
0
  6
DASHED
 62
     7
 10
179.7695
 20
-84.8528
 11
175.7695
 21
-84.8528
  0
LINE
  8
0
  6
DASHED
 62
     7
 10
175.7697
 20
-87.35281
 11
174.3263
 21
-84.85282
  0
LINE
  8
0
  6
DASHED
 62
     7
 10
175.7695
 20
-87.3528
 11
175.7695
 21
-82.3528
  0
LINE
  8
0
  6
CONTINUOUS
 62
     7
 10
169.7695
 20
-113.8528
 11
157.7695
 21
-113.8528
  0
LINE
  8
0
  6
CONTINUOUS
 62
     7
 10
169.7695
 20
-55.8528
 11
157.7695
 21
-55.8528
  0
LINE
  8
0
  6
CONTINUOUS
 62
     7
 10
172.2695
 20
-91.78101
 11
170.2695
 21
-91.78101
  0
LINE
  8
0
  6
CONTINUOUS
 62
     7
 10
172.2695
 20
-88.3169
 11
170.2695
 21
-88.3169
  0
LINE
  8
0
  6
CONTINUOUS
 62
     7
 10
172.2695
 20
-81.38869
 11
170.2695
 21
-81.38869
  0
LINE
  8
0
  6
CONTINUOUS
 62
     7
 10
172.2695
 20
-77.92458
 11
170.2695
 21
-77.92458
  0
LINE
  8
0
  6
DASHED
 62
     7
 10
179.7695
 20
-87.3528
 11
175.7695
 21
-87.3528
  0
LINE
  8
0
  6
DASHED
 62
     7
 10
179.7695
 20
-82.3528
 11
175.7695
 21
-82.3528
  0
LINE
  8
0
  6
DASHED
 62
     7
 10
175.7697
 20
-82.35284
 11
174.3262
 21
-84.85285
  0
LINE
  8
0
  6
CENTER
 62
     2
 10
164.7695
 20
-114.1028
 11
164.7695
 21
-103.6028
  0
LINE
  8
0
  6
CENTER
 62
     2
 10
159.5195
 20
-108.8528
 11
170.0195
 21
-108.8528
  0
LINE
  8
0
  6
CENTER
 62
     2
 10
159.5195
 20
-60.8528
 11
170.0195
 21
-60.8528
  0
LINE
  8
0
  6
CENTER
 62
     2
 10
164.7695
 20
-55.6028
 11
164.7695
 21
-66.1028
  0
LINE
  8
0
  6
CONTINUOUS
 62
     7
 10
-45.23045
 20
-57.8528
 11
-45.23045
 21
-111.8528
  0
LINE
  8
0
  6
CONTINUOUS
 62
     7
 10
-45.23045
 20
-111.8528
 11
90.76955
 21
-111.8528
  0
LINE
  8
0
  6
CONTINUOUS
 62
     7
 10
90.76955
 20
-111.8528
 11
90.76955
 21
-57.8528
  0
LINE
  8
0
  6
CONTINUOUS
 62
     7
 10
90.76955
 20
-57.8528
 11
-45.23045
 21
-57.8528
  0
LINE
  8
0
  6
CONTINUOUS
 62
     7
 10
-48.23045
 20
-90.8528
 11
-48.23045
 21
-78.8528
  0
LINE
  8
0
  6
CONTINUOUS
 62
     7
 10
-48.23045
 20
-90.8528
 11
-47.69455
 21
-91.781
  0
LINE
  8
0
  6
CONTINUOUS
 62
     7
 10
-47.69455
 20
-91.781
 11
-45.23045
 21
-91.781
  0
LINE
  8
0
  6
CONTINUOUS
 62
     7
 10
-47.69455
 20
-88.3169
 11
-45.23045
 21
-88.3169
  0
LINE
  8
0
  6
CONTINUOUS
 62
     7
 10
-47.69455
 20
-81.38869
 11
-45.23045
 21
-81.38869
  0
LINE
  8
0
  6
CONTINUOUS
 62
     7
 10
-47.69455
 20
-77.9246
 11
-45.23045
 21
-77.9246
  0
LINE
  8
0
  6
CONTINUOUS
 62
     7
 10
-48.23043
 20
-78.85278
 11
-47.69454
 21
-77.92459
  0
LINE
  8
0
  6
CONTINUOUS
 62
     7
 10
-65.23045
 20
-103.8528
 11
-45.23045
 21
-103.8528
  0
LINE
  8
0
  6
CONTINUOUS
 62
     7
 10
90.76955
 20
-103.8528
 11
157.7695
 21
-103.8528
  0
LINE
  8
0
  6
CONTINUOUS
 62
     7
 10
-65.23045
 20
-95.8528
 11
-45.23045
 21
-95.8528
  0
LINE
  8
0
  6
CONTINUOUS
 62
     7
 10
90.76955
 20
-95.8528
 11
157.7695
 21
-95.8528
  0
LINE
  8
0
  6
CONTINUOUS
 62
     7
 10
-65.23045
 20
-73.8528
 11
-45.23045
 21
-73.8528
  0
LINE
  8
0
  6
CONTINUOUS
 62
     7
 10
-65.23045
 20
-65.8528
 11
-45.23045
 21
-65.8528
  0
LINE
  8
0
  6
CONTINUOUS
 62
     7
 10
90.76955
 20
-73.8528
 11
157.7695
 21
-73.8528
  0
LINE
  8
0
  6
CONTINUOUS
 62
     7
 10
90.76955
 20
-65.8528
 11
157.7695
 21
-65.8528
  0
LINE
  8
0
  6
CENTER
 62
     2
 10
-28.73045
 20
-90.3528
 11
-28.73045
 21
-79.3528
  0
LINE
  8
0
  6
CENTER
 62
     2
 10
45.26955
 20
-92.6028
 11
45.26955
 21
-77.1028
  0
LINE
  8
0
  6
CONTINUOUS
 62
     7
 10
93.76955
 20
-90.8528
 11
93.76955
 21
-78.8528
  0
LINE
  8
0
  6
CONTINUOUS
 62
     7
 10
93.76962
 20
-90.85279
 11
93.23371
 21
-91.78098
  0
LINE
  8
0
  6
CONTINUOUS
 62
     7
 10
93.23366
 20
-91.781
 11
90.76955
 21
-91.781
  0
LINE
  8
0
  6
CONTINUOUS
 62
     7
 10
93.23366
 20
-88.3169
 11
90.76955
 21
-88.3169
  0
LINE
  8
0
  6
CONTINUOUS
 62
     7
 10
93.23366
 20
-81.38869
 11
90.76955
 21
-81.38869
  0
LINE
  8
0
  6
CONTINUOUS
 62
     7
 10
93.23366
 20
-77.9246
 11
90.76955
 21
-77.9246
  0
LINE
  8
0
  6
CONTINUOUS
 62
     7
 10
93.76955
 20
-78.85279
 11
93.23365
 21
-77.92461
  0
LINE
  8
0
  6
CONTINUOUS
 62
     7
 10
-45.23045
 20
-58.8528
 11
90.76955
 21
-58.8528
  0
LINE
  8
0
  6
CONTINUOUS
 62
     7
 10
-45.23045
 20
-66.8528
 11
90.76955
 21
-66.8528
  0
LINE
  8
0
  6
CONTINUOUS
 62
     7
 10
-45.23045
 20
-67.8528
 11
90.76955
 21
-67.8528
  0
LINE
  8
0
  6
CONTINUOUS
 62
     7
 10
-45.23045
 20
-78.8528
 11
90.76955
 21
-78.8528
  0
LINE
  8
0
  6
CONTINUOUS
 62
     7
 10
-45.23045
 20
-79.8528
 11
90.76955
 21
-79.8528
  0
LINE
  8
0
  6
CONTINUOUS
 62
     7
 10
-45.23045
 20
-89.8528
 11
90.76955
 21
-89.8528
  0
LINE
  8
0
  6
CONTINUOUS
 62
     7
 10
-45.23045
 20
-90.8528
 11
90.76955
 21
-90.8528
  0
LINE
  8
0
  6
CONTINUOUS
 62
     7
 10
-45.23045
 20
-101.8528
 11
90.76955
 21
-101.8528
  0
LINE
  8
0
  6
CONTINUOUS
 62
     7
 10
-45.23045
 20
-102.8528
 11
90.76955
 21
-102.8528
  0
LINE
  8
0
  6
CONTINUOUS
 62
     7
 10
-45.23045
 20
-110.8528
 11
90.76955
 21
-110.8528
  0
LINE
  8
0
  6
CENTER
 62
     2
 10
0.26955
 20
-92.6028
 11
0.26955
 21
-77.1028
  0
LINE
  8
0
  6
CENTER
 62
     2
 10
-29.73045
 20
-90.3528
 11
-29.73045
 21
-79.3528
  0
LINE
  8
0
  6
CENTER
 62
     2
 10
-14.73045
 20
-90.3528
 11
-14.73045
 21
-79.3528
  0
LINE
  8
0
  6
CENTER
 62
     2
 10
60.26955
 20
-90.3528
 11
60.26955
 21
-79.3528
  0
LINE
  8
0
  6
CENTER
 62
     2
 10
75.26955
 20
-90.3528
 11
75.26955
 21
-79.3528
  0
LINE
  8
0
  6
CENTER
 62
     2
 10
-30.73045
 20
-90.3528
 11
-30.73045
 21
-79.3528
  0
LINE
  8
0
  6
CONTINUOUS
 62
     7
 10
-30.73045
 20
-82.3528
 11
-28.73045
 21
-82.3528
  0
LINE
  8
0
  6
CONTINUOUS
 62
     7
 10
-30.73045
 20
-87.3528
 11
-28.73045
 21
-87.3528
  0
LINE
  8
0
  6
CENTER
 62
     2
 10
-150.7696
 20
-14.49999
 11
-150.7696
 21
15.50001
  0
LINE
  8
0
  6
CONTINUOUS
 62
     7
 10
-179.7696
 20
-9.49999
 11
-179.7696
 21
12.50001
  0
LINE
  8
0
  6
CONTINUOUS
 62
     7
 10
-121.7696
 20
-9.49999
 11
-179.7696
 21
-9.49999
  0
LINE
  8
0
  6
CONTINUOUS
 62
     7
 10
-121.7696
 20
-9.49999
 11
-121.7696
 21
12.50001
  0
LINE
  8
0
  6
CONTINUOUS
 62
     7
 10
-179.7696
 20
12.50001
 11
-121.7696
 21
12.50001
  0
LINE
  8
0
  6
CONTINUOUS
 62
     7
 10
-137.3312
 20
3.72756
 11
-137.0338
 21
4.83754
  0
LINE
  8
0
  6
CONTINUOUS
 62
     7
 10
-134.208
 20
3.72756
 11
-134.5054
 21
4.83754
  0
LINE
  8
0
  6
CONTINUOUS
 62
     7
 10
-132.2696
 20
2.02073
 11
-132.2696
 21
-2.02072
  0
LINE
  8
0
  6
CONTINUOUS
 62
     7
 10
-135.7696
 20
4.04146
 11
-132.2696
 21
2.02073
  0
LINE
  8
0
  6
CONTINUOUS
 62
     7
 10
-139.2696
 20
2.02074
 11
-135.7696
 21
4.04146
  0
LINE
  8
0
  6
CONTINUOUS
 62
     7
 10
-139.2696
 20
-2.02072
 11
-139.2696
 21
2.02073
  0
LINE
  8
0
  6
CONTINUOUS
 62
     7
 10
-135.7696
 20
-4.04145
 11
-139.2696
 21
-2.02072
  0
LINE
  8
0
  6
CONTINUOUS
 62
     7
 10
-132.2696
 20
-2.02072
 11
-135.7696
 21
-4.04145
  0
LINE
  8
0
  6
CONTINUOUS
 62
     7
 10
-139.2696
 20
0.50001
 11
-132.2696
 21
0.50001
  0
LINE
  8
0
  6
CONTINUOUS
 62
     7
 10
-132.2696
 20
-0.49999
 11
-139.2696
 21
-0.49999
  0
LINE
  8
0
  6
CONTINUOUS
 62
     7
 10
-147.3055
 20
9.00001
 11
-154.2337
 21
9.00001
  0
LINE
  8
0
  6
CONTINUOUS
 62
     7
 10
-154.2337
 20
9.00001
 11
-157.6978
 21
3.00001
  0
LINE
  8
0
  6
CONTINUOUS
 62
     7
 10
-157.6978
 20
3.00001
 11
-154.2337
 21
-3.0
  0
LINE
  8
0
  6
CONTINUOUS
 62
     7
 10
-154.2337
 20
-2.99999
 11
-147.3055
 21
-2.99999
  0
LINE
  8
0
  6
CONTINUOUS
 62
     7
 10
-147.3055
 20
-2.99999
 11
-143.8414
 21
3.00001
  0
LINE
  8
0
  6
CONTINUOUS
 62
     7
 10
-143.8414
 20
3.00001
 11
-147.3055
 21
9.00001
  0
LINE
  8
0
  6
CONTINUOUS
 62
     7
 10
-148.2696
 20
4.44338
 11
-148.2696
 21
1.55663
  0
LINE
  8
0
  6
CONTINUOUS
 62
     7
 10
-150.7696
 20
5.88676
 11
-148.2696
 21
4.44338
  0
LINE
  8
0
  6
CONTINUOUS
 62
     7
 10
-153.2696
 20
4.44339
 11
-150.7696
 21
5.88676
  0
LINE
  8
0
  6
CONTINUOUS
 62
     7
 10
-153.2696
 20
1.55663
 11
-153.2696
 21
4.44338
  0
LINE
  8
0
  6
CONTINUOUS
 62
     7
 10
-150.7696
 20
0.11327
 11
-153.2696
 21
1.55664
  0
LINE
  8
0
  6
CONTINUOUS
 62
     7
 10
-148.2696
 20
1.55663
 11
-150.7696
 21
0.11326
  0
LINE
  8
0
  6
CENTER
 62
     2
 10
-179.7696
 20
4.50001
 11
-169.7696
 21
4.50001
  0
LINE
  8
0
  6
CENTER
 62
     2
 10
-174.7696
 20
-0.49999
 11
-174.7696
 21
9.50001
  0
LINE
  8
0
  6
CONTINUOUS
 62
     7
 10
-164.2079
 20
3.72755
 11
-164.5054
 21
4.83754
  0
LINE
  8
0
  6
CONTINUOUS
 62
     7
 10
-167.3313
 20
3.72756
 11
-167.0338
 21
4.83755
  0
LINE
  8
0
  6
CONTINUOUS
 62
     7
 10
-169.2696
 20
2.02073
 11
-169.2696
 21
-2.02072
  0
LINE
  8
0
  6
CONTINUOUS
 62
     7
 10
-165.7696
 20
4.04145
 11
-169.2696
 21
2.02072
  0
LINE
  8
0
  6
CONTINUOUS
 62
     7
 10
-162.2696
 20
2.02073
 11
-165.7696
 21
4.04145
  0
LINE
  8
0
  6
CONTINUOUS
 62
     7
 10
-162.2696
 20
-2.02072
 11
-162.2696
 21
2.02073
  0
LINE
  8
0
  6
CONTINUOUS
 62
     7
 10
-165.7696
 20
-4.04144
 11
-162.2696
 21
-2.02072
  0
LINE
  8
0
  6
CONTINUOUS
 62
     7
 10
-169.2696
 20
-2.02072
 11
-165.7696
 21
-4.04145
  0
LINE
  8
0
  6
CONTINUOUS
 62
     7
 10
-162.2696
 20
0.50001
 11
-169.2696
 21
0.50001
  0
LINE
  8
0
  6
CONTINUOUS
 62
     7
 10
-169.2696
 20
-0.49999
 11
-162.2696
 21
-0.49999
  0
LINE
  8
0
  6
CONTINUOUS
 62
     7
 10
-155.7696
 20
-11.49999
 11
-145.7696
 21
-11.49999
  0
LINE
  8
0
  6
CONTINUOUS
 62
     7
 10
-144.7696
 20
-10.49999
 11
-133.7696
 21
-10.49999
  0
LINE
  8
0
  6
CONTINUOUS
 62
     7
 10
-124.7696
 20
-11.49999
 11
-123.7696
 21
-10.49999
  0
LINE
  8
0
  6
CONTINUOUS
 62
     7
 10
-133.7696
 20
-10.49999
 11
-132.7696
 21
-11.49999
  0
LINE
  8
0
  6
CONTINUOUS
 62
     7
 10
-145.7696
 20
-11.49998
 11
-144.7696
 21
-10.49999
  0
LINE
  8
0
  6
CONTINUOUS
 62
     7
 10
-132.7696
 20
-11.49999
 11
-124.7696
 21
-11.49999
  0
LINE
  8
0
  6
CONTINUOUS
 62
     7
 10
-123.7696
 20
-10.49999
 11
-123.7696
 21
-9.49999
  0
LINE
  8
0
  6
CONTINUOUS
 62
     7
 10
-155.7696
 20
-11.49999
 11
-156.7696
 21
-10.49999
  0
LINE
  8
0
  6
CONTINUOUS
 62
     7
 10
-156.7696
 20
-10.49999
 11
-167.7696
 21
-10.49999
  0
LINE
  8
0
  6
CONTINUOUS
 62
     7
 10
-167.7696
 20
-10.49999
 11
-168.7695
 21
-11.49999
  0
LINE
  8
0
  6
CONTINUOUS
 62
     7
 10
-168.7696
 20
-11.49999
 11
-176.7696
 21
-11.49999
  0
LINE
  8
0
  6
CONTINUOUS
 62
     7
 10
-176.7696
 20
-11.49999
 11
-177.7696
 21
-10.49999
  0
LINE
  8
0
  6
CONTINUOUS
 62
     7
 10
-177.7696
 20
-10.49999
 11
-177.7696
 21
-9.49999
  0
LINE
  8
0
  6
CENTER
 62
     2
 10
-126.7696
 20
-0.49999
 11
-126.7696
 21
9.50001
  0
LINE
  8
0
  6
CENTER
 62
     2
 10
-121.7696
 20
4.50001
 11
-131.7696
 21
4.50001
  0
LINE
  8
0
  6
CENTER
 62
     2
 10
-140.7696
 20
3.00001
 11
-160.7696
 21
3.00001
  0
ARC
  8
0
  6
CONTINUOUS
 62
     7
 10
193.0652
 20
-166.2024
 40
1.56404
 50
0.0
 51
89.99999
  0
ARC
  8
0
  6
CONTINUOUS
 62
     7
 10
205.9686
 20
-174.6091
 40
1.56404
 50
270.0
 51
0.0
  0
ARC
  8
0
  6
CONTINUOUS
 62
     7
 10
205.1865
 20
-166.9844
 40
2.34607
 50
0.0
 51
89.99999
  0
ARC
  8
0
  6
CONTINUOUS
 62
     7
 10
219.4584
 20
-166.2024
 40
1.56404
 50
0.0
 51
89.99999
  0
ARC
  8
0
  6
CONTINUOUS
 62
     7
 10
219.4584
 20
-167.4519
 40
1.56405
 50
295.0
 51
0.0
  0
ARC
  8
0
  6
CONTINUOUS
 62
     7
 10
231.5798
 20
-164.6383
 40
2.34607
 50
291.6882
 51
0.0
  0
ARC
  8
0
  6
CONTINUOUS
 62
     7
 10
230.7977
 20
-164.1077
 40
0.78202
 50
291.6885
 51
0.0
  0
CIRCLE
  8
0
  6
CONTINUOUS
 62
     7
 10
-67.73045
 20
0.5
 40
1.5
  0
CIRCLE
  8
0
  6
CONTINUOUS
 62
     7
 10
-67.73045
 20
0.5
 40
1.23
  0
ARC
  8
0
  6
CONTINUOUS
 62
     7
 10
179.0195
 20
0.0
 40
9.24999
 50
161.0753
 51
198.9246
  0
CIRCLE
  8
0
  6
CONTINUOUS
 62
     7
 10
160.2695
 20
0.5
 40
1.5
  0
CIRCLE
  8
0
  6
CONTINUOUS
 62
     7
 10
160.2695
 20
0.5
 40
1.23
  0
ARC
  8
0
  6
CONTINUOUS
 62
     7
 10
163.5195
 20
6.0
 40
9.25
 50
341.0753
 51
18.9246
  0
ARC
  8
0
  6
CONTINUOUS
 62
     7
 10
179.0195
 20
6.0
 40
9.25
 50
161.0754
 51
198.9246
  0
ARC
  8
0
  6
CONTINUOUS
 62
     7
 10
163.5195
 20
0.0
 40
9.25
 50
341.0753
 51
18.92459
  0
CIRCLE
  8
0
  6
CONTINUOUS
 62
     7
 10
71.76955
 20
0.0
 40
2.5
  0
CIRCLE
  8
0
  6
CONTINUOUS
 62
     7
 10
71.76955
 20
0.0
 40
2.065
  0
CIRCLE
  8
0
  6
CONTINUOUS
 62
     7
 10
-26.23046
 20
0.0
 40
2.5
  0
CIRCLE
  8
0
  6
CONTINUOUS
 62
     7
 10
-26.23046
 20
0.0
 40
2.065
  0
ARC
  8
0
  6
CONTINUOUS
 62
     7
 10
-38.98046
 20
6.0
 40
9.25
 50
161.0753
 51
192.4869
  0
ARC
  8
0
  6
CONTINUOUS
 62
     7
 10
-86.48045
 20
6.0
 40
9.24999
 50
341.0753
 51
18.9246
  0
ARC
  8
0
  6
DASHED
 62
     7
 10
-38.98046
 20
0.0
 40
9.25
 50
161.0754
 51
198.9246
  0
ARC
  8
0
  6
CONTINUOUS
 62
     7
 10
-86.48045
 20
0.0
 40
9.25
 50
341.0754
 51
18.92465
  0
ARC
  8
0
  6
CONTINUOUS
 62
     7
 10
-70.98047
 20
6.0
 40
9.24999
 50
161.0753
 51
198.9246
  0
ARC
  8
0
  6
CONTINUOUS
 62
     7
 10
-70.98047
 20
0.0
 40
9.24999
 50
161.0753
 51
198.9246
  0
ARC
  8
0
  6
DASHED
 62
     7
 10
-38.98046
 20
6.0
 40
9.24999
 50
192.4869
 51
198.9246
  0
ARC
  8
0
  6
DASHED
 62
     7
 10
84.51955
 20
6.0
 40
9.24999
 50
341.0753
 51
347.5131
  0
ARC
  8
0
  6
DASHED
 62
     7
 10
84.51955
 20
0.0
 40
9.24999
 50
341.0753
 51
18.92459
  0
ARC
  8
0
  6
CONTINUOUS
 62
     7
 10
84.51955
 20
6.0
 40
9.24999
 50
347.5131
 51
18.9246
  0
ARC
  8
0
  6
CONTINUOUS
 62
     7
 10
-76.98045
 20
90.04899
 40
3.25002
 50
147.7958
 51
212.2041
  0
ARC
  8
0
  6
CONTINUOUS
 62
     7
 10
-80.48048
 20
90.04899
 40
3.25002
 50
327.7958
 51
32.20416
  0
ARC
  8
0
  6
CONTINUOUS
 62
     7
 10
-76.98045
 20
79.65667
 40
3.25002
 50
147.7958
 51
212.2041
  0
ARC
  8
0
  6
CONTINUOUS
 62
     7
 10
-80.48048
 20
79.65667
 40
3.25002
 50
327.7958
 51
32.20416
  0
ARC
  8
0
  6
CONTINUOUS
 62
     7
 10
-67.98045
 20
84.85283
 40
12.25001
 50
163.5737
 51
196.4263
  0
ARC
  8
0
  6
CONTINUOUS
 62
     7
 10
-89.48048
 20
84.85283
 40
12.25001
 50
343.5736
 51
16.42631
  0
CIRCLE
  8
0
  6
CONTINUOUS
 62
     7
 10
-71.23047
 20
99.85283
 40
2.5
  0
CIRCLE
  8
0
  6
CONTINUOUS
 62
     7
 10
-72.23047
 20
108.8528
 40
2.25
  0
CIRCLE
  8
0
  6
CONTINUOUS
 62
     7
 10
-71.23047
 20
69.85283
 40
2.5
  0
CIRCLE
  8
0
  6
CONTINUOUS
 62
     7
 10
-72.23047
 20
60.85283
 40
2.25
  0
ARC
  8
0
  6
CONTINUOUS
 62
     7
 10
169.5195
 20
90.04899
 40
3.25002
 50
327.7958
 51
32.20416
  0
ARC
  8
0
  6
CONTINUOUS
 62
     7
 10
173.0195
 20
90.04899
 40
3.25002
 50
147.7958
 51
212.2041
  0
ARC
  8
0
  6
CONTINUOUS
 62
     7
 10
169.5195
 20
79.65667
 40
3.25002
 50
327.7958
 51
32.20416
  0
ARC
  8
0
  6
CONTINUOUS
 62
     7
 10
173.0195
 20
79.65667
 40
3.25002
 50
147.7958
 51
212.204
  0
ARC
  8
0
  6
CONTINUOUS
 62
     7
 10
160.5195
 20
84.85283
 40
12.25001
 50
343.5736
 51
16.42631
  0
ARC
  8
0
  6
CONTINUOUS
 62
     7
 10
182.0195
 20
84.85283
 40
12.25001
 50
163.5737
 51
196.4263
  0
CIRCLE
  8
0
  6
CONTINUOUS
 62
     7
 10
163.7695
 20
99.85283
 40
2.5
  0
CIRCLE
  8
0
  6
CONTINUOUS
 62
     7
 10
164.7695
 20
108.8528
 40
2.25
  0
CIRCLE
  8
0
  6
CONTINUOUS
 62
     7
 10
163.7695
 20
69.85283
 40
2.5
  0
CIRCLE
  8
0
  6
CONTINUOUS
 62
     7
 10
164.7695
 20
60.85283
 40
2.25
  0
ARC
  8
0
  6
CONTINUOUS
 62
     7
 10
-45.16349
 20
90.04898
 40
3.06699
 50
145.6158
 51
214.3841
  0
ARC
  8
0
  6
CONTINUOUS
 62
     7
 10
-36.76632
 20
84.85283
 40
11.46416
 50
162.4122
 51
197.5878
  0
ARC
  8
0
  6
CONTINUOUS
 62
     7
 10
-45.16349
 20
79.65668
 40
3.06699
 50
145.6158
 51
214.3841
  0
CIRCLE
  8
0
  6
CONTINUOUS
 62
     7
 10
0.26953
 20
84.85283
 40
2.75
  0
CIRCLE
  8
0
  6
CONTINUOUS
 62
     7
 10
0.26953
 20
84.85283
 40
4.75
  0
CIRCLE
  8
0
  6
CONTINUOUS
 62
     7
 10
45.26953
 20
84.85283
 40
4.75
  0
CIRCLE
  8
0
  6
CONTINUOUS
 62
     7
 10
45.26953
 20
84.85283
 40
2.75
  0
ARC
  8
0
  6
CONTINUOUS
 62
     7
 10
82.30537
 20
84.85283
 40
11.46416
 50
342.4121
 51
17.58784
  0
ARC
  8
0
  6
CONTINUOUS
 62
     7
 10
90.70255
 20
79.65668
 40
3.06699
 50
325.6158
 51
34.38419
  0
ARC
  8
0
  6
CONTINUOUS
 62
     7
 10
90.70255
 20
90.04898
 40
3.06699
 50
325.6158
 51
34.38419
  0
ARC
  8
0
  6
CONTINUOUS
 62
     7
 10
-76.98044
 20
-90.04896
 40
3.25002
 50
147.7958
 51
212.204
  0
ARC
  8
0
  6
CONTINUOUS
 62
     7
 10
-80.48047
 20
-90.04896
 40
3.25002
 50
327.7958
 51
32.20416
  0
ARC
  8
0
  6
CONTINUOUS
 62
     7
 10
-76.98044
 20
-79.65664
 40
3.25002
 50
147.7958
 51
212.204
  0
ARC
  8
0
  6
CONTINUOUS
 62
     7
 10
-80.48047
 20
-79.65664
 40
3.25002
 50
327.7958
 51
32.20397
  0
ARC
  8
0
  6
CONTINUOUS
 62
     7
 10
-67.98044
 20
-84.8528
 40
12.25002
 50
163.5736
 51
196.4263
  0
ARC
  8
0
  6
CONTINUOUS
 62
     7
 10
-89.48047
 20
-84.8528
 40
12.25001
 50
343.5736
 51
16.4263
  0
CIRCLE
  8
0
  6
CONTINUOUS
 62
     7
 10
-72.23045
 20
-108.8528
 40
2.25
  0
CIRCLE
  8
0
  6
CONTINUOUS
 62
     7
 10
-72.23045
 20
-60.8528
 40
2.25
  0
ARC
  8
0
  6
CONTINUOUS
 62
     7
 10
169.5195
 20
-90.04896
 40
3.25002
 50
327.7958
 51
32.20416
  0
ARC
  8
0
  6
CONTINUOUS
 62
     7
 10
173.0195
 20
-90.04896
 40
3.25002
 50
147.7958
 51
212.204
  0
ARC
  8
0
  6
CONTINUOUS
 62
     7
 10
169.5195
 20
-79.65664
 40
3.25002
 50
327.7958
 51
32.20416
  0
ARC
  8
0
  6
CONTINUOUS
 62
     7
 10
173.0195
 20
-79.65664
 40
3.25002
 50
147.7958
 51
212.2041
  0
ARC
  8
0
  6
CONTINUOUS
 62
     7
 10
160.5195
 20
-84.8528
 40
12.25001
 50
343.5736
 51
16.42631
  0
ARC
  8
0
  6
CONTINUOUS
 62
     7
 10
182.0195
 20
-84.8528
 40
12.25002
 50
163.5736
 51
196.4263
  0
CIRCLE
  8
0
  6
CONTINUOUS
 62
     7
 10
164.7695
 20
-108.8528
 40
2.25
  0
CIRCLE
  8
0
  6
CONTINUOUS
 62
     7
 10
164.7695
 20
-60.8528
 40
2.25
  0
ARC
  8
0
  6
CONTINUOUS
 62
     7
 10
-45.16346
 20
-90.04895
 40
3.06699
 50
145.6158
 51
214.3841
  0
ARC
  8
0
  6
CONTINUOUS
 62
     7
 10
-36.76629
 20
-84.8528
 40
11.46416
 50
162.412
 51
197.5878
  0
ARC
  8
0
  6
CONTINUOUS
 62
     7
 10
-45.16346
 20
-79.65665
 40
3.06699
 50
145.6158
 51
214.3841
  0
CIRCLE
  8
0
  6
CONTINUOUS
 62
     7
 10
0.26955
 20
-84.8528
 40
2.75
  0
CIRCLE
  8
0
  6
CONTINUOUS
 62
     7
 10
0.26955
 20
-84.8528
 40
4.75
  0
CIRCLE
  8
0
  6
CONTINUOUS
 62
     7
 10
45.26955
 20
-84.8528
 40
4.75
  0
CIRCLE
  8
0
  6
CONTINUOUS
 62
     7
 10
45.26955
 20
-84.8528
 40
2.75
  0
ARC
  8
0
  6
CONTINUOUS
 62
     7
 10
82.30539
 20
-84.8528
 40
11.46416
 50
342.4121
 51
17.58784
  0
ARC
  8
0
  6
CONTINUOUS
 62
     7
 10
90.70256
 20
-79.65665
 40
3.06699
 50
325.6158
 51
34.38419
  0
ARC
  8
0
  6
CONTINUOUS
 62
     7
 10
90.70256
 20
-90.04895
 40
3.06699
 50
325.6158
 51
34.38419
  0
ARC
  8
0
  6
CONTINUOUS
 62
     7
 10
-30.73045
 20
-84.8528
 40
2.5
 50
89.99999
 51
270.0
  0
ARC
  8
0
  6
CONTINUOUS
 62
     7
 10
-28.73045
 20
-84.8528
 40
2.5
 50
270.0
 51
90.00005
  0
CIRCLE
  8
0
  6
CONTINUOUS
 62
     7
 10
75.26955
 20
-84.8528
 40
2.5
  0
CIRCLE
  8
0
  6
CONTINUOUS
 62
     7
 10
-14.73045
 20
-84.8528
 40
2.5
  0
CIRCLE
  8
0
  6
CONTINUOUS
 62
     7
 10
60.26955
 20
-84.8528
 40
2.5
  0
CIRCLE
  8
0
  6
CONTINUOUS
 62
     7
 10
-14.73045
 20
-84.8528
 40
2.065
  0
CIRCLE
  8
0
  6
CONTINUOUS
 62
     7
 10
60.26955
 20
-84.8528
 40
2.065
  0
CIRCLE
  8
0
  6
CONTINUOUS
 62
     7
 10
-72.23045
 20
-60.8528
 40
4.0
  0
CIRCLE
  8
0
  6
CONTINUOUS
 62
     7
 10
-72.23045
 20
-108.8528
 40
4.0
  0
CIRCLE
  8
0
  6
CONTINUOUS
 62
     7
 10
164.7695
 20
-60.8528
 40
4.0
  0
CIRCLE
  8
0
  6
CONTINUOUS
 62
     7
 10
164.7695
 20
-108.8528
 40
4.0
  0
CIRCLE
  8
0
  6
CONTINUOUS
 62
     7
 10
-165.7696
 20
0.00001
 40
4.04145
  0
ARC
  8
0
  6
CONTINUOUS
 62
     7
 10
-135.7696
 20
0.00001
 40
5.0
 50
104.6457
 51
75.35412
  0
CIRCLE
  8
0
  6
CONTINUOUS
 62
     7
 10
-150.7696
 20
3.00001
 40
5.0
  0
CIRCLE
  8
0
  6
CONTINUOUS
 62
     7
 10
-150.7696
 20
3.00001
 40
4.0
  0
CIRCLE
  8
0
  6
CONTINUOUS
 62
     7
 10
-126.7696
 20
4.50001
 40
2.0
  0
CIRCLE
  8
0
  6
CONTINUOUS
 62
     7
 10
-126.7696
 20
4.50001
 40
1.62
  0
CIRCLE
  8
0
  6
CONTINUOUS
 62
     7
 10
-135.7696
 20
0.00001
 40
5.5
  0
CIRCLE
  8
0
  6
CONTINUOUS
 62
     7
 10
-150.7696
 20
3.00001
 40
6.0
  0
ARC
  8
0
  6
CONTINUOUS
 62
     7
 10
-165.7696
 20
0.00001
 40
5.0
 50
104.6459
 51
75.35413
  0
CIRCLE
  8
0
  6
CONTINUOUS
 62
     7
 10
-174.7696
 20
4.50001
 40
2.0
  0
CIRCLE
  8
0
  6
CONTINUOUS
 62
     7
 10
-174.7696
 20
4.50001
 40
1.62
  0
CIRCLE
  8
0
  6
CONTINUOUS
 62
     7
 10
-165.7696
 20
0.00001
 40
5.5
  0
CIRCLE
  8
0
  6
CONTINUOUS
 62
     7
 10
-135.7696
 20
0.00001
 40
4.04145
  0
CIRCLE
  8
0
  6
CONTINUOUS
 62
     7
 10
-150.7696
 20
3.00001
 40
3.61436
  0
TEXT
  8
0
  6
CONTINUOUS
 62
     7
 10
-229.2471
 20
127.675
 40
7.0
  1
MODEL : SUT 16*ST(75)
 41
0.8
  7
STANDARD
  0
TEXT
  8
0
  6
CONTINUOUS
 62
     7
 10
24.60526
 20
132.7074
 40
5.0
  1
97+(ST*2)
 41
0.8
  7
STANDARD
  0
TEXT
  8
0
  6
CONTINUOUS
 62
     7
 10
11.10526
 20
27.34848
 40
5.0
  1
23+ST
 41
0.8
  7
STANDARD
  0
TEXT
  8
0
  6
CONTINUOUS
 62
     7
 10
11.10526
 20
-39.82665
 40
5.0
  1
61+ST
 41
0.8
  7
STANDARD
  0
TEXT
  8
0
  6
CONTINUOUS
 62
     7
 10
21.10526
 20
-160.0348
 40
5.0
  1
A
 41
0.8
  7
STANDARD
  0
TEXT
  8
0
  6
CONTINUOUS
 62
     7
 10
-39.29676
 20
-160.0348
 40
5.0
  1
B
 41
0.8
  7
STANDARD
  0
TEXT
  8
0
  6
CONTINUOUS
 62
     7
 10
21.10526
 20
-145.8927
 40
5.0
  1
C
 41
0.8
  7
STANDARD
  0
TEXT
  8
0
  6
CONTINUOUS
 62
     7
 10
-28.44247
 20
-145.8927
 40
5.0
  1
D
 41
0.8
  7
STANDARD
  0
TEXT
  8
0
  6
CONTINUOUS
 62
     7
 10
21.10526
 20
-131.7505
 40
5.0
  1
E
 41
0.8
  7
STANDARD
  0
TEXT
  8
0
  6
CONTINUOUS
 62
     7
 10
-24.14474
 20
-131.7505
 40
5.0
  1
F
 41
0.8
  7
STANDARD
  0
TEXT
  8
0
  6
CONTINUOUS
 62
     7
 10
-128.34754764
 20
47.80432
 40
5.0
  1
2-M10*1
 41
0.8
  7
STANDARD
  0
TEXT
  8
0
  6
CONTINUOUS
 62
     7
 10
88.05806
 20
27.34848
 40
5.0
  1
2-M5*0.8
 41
0.8
  7
STANDARD
  0
TEXT
  8
0
  6
CONTINUOUS
 62
     7
 10
98.30461
 20
-145.8927
 40
5.0
  1
2-M5*0.8
 41
0.8
  7
STANDARD
  0
TEXT
  8
0
  6
CONTINUOUS
 62
     7
 10
-235.4986
 20
-160.0348
 40
5.0
  1
NOTE : A ,B ,C ,D ,E ,F
 41
0.8
  7
STANDARD
  0
TEXT
  8
0
  6
CONTINUOUS
 62
     7
 10
-160.78875907
 20
-160.0348
 40
5.0
  1
CATALOG
 41
0.8
  7
STANDARD
  0
TEXT
  8
0
  6
CONTINUOUS
 62
     7
 10
161.9773
 20
167.0677
 40
6.0
  1
DATE : JAN ,1988
 41
0.8
  7
STANDARD
  0
TEXT
  8
0
  6
CONTINUOUS
 62
     7
 10
-242.1446
 20
166.5977
 40
7.0
  1
SLIDE UNIT
 41
0.8
  7
STANDARD
  0
TEXT
  8
0
  6
CONTINUOUS
 62
     7
 10
-190.4025
 20
-29.56483
 40
5.0
  1
4-M4*0.7
 41
0.8
  7
STANDARD
  0
ENDSEC
  0
EOF
