  0
SECTION
  2
HEADER
  9
$ACADVER
  1
AC1009
  9
$DWGCODEPAGE
  3
dos932
  9
$INSBASE
 10
0.0
 20
0.0
 30
0.0
  9
$EXTMIN
 10
-281.25
 20
-195.0
 30
0.0
  9
$EXTMAX
 10
282.09985352
 20
195.5
 30
0.0
  9
$LIMMIN
 10
-281.25
 20
-195.0
  9
$LIMMAX
 10
282.09985352
 20
195.5
  9
$ORTHOMODE
 70
       0
  9
$REGENMODE
 70
       1
  9
$FILLMODE
 70
       1
  9
$QTEXTMODE
 70
       0
  9
$MIRRTEXT
 70
       1
  9
$DRAGMODE
 70
       2
  9
$LTSCALE
 40
1.0
  9
$OSMODE
 70
       0
  9
$ATTMODE
 70
       1
  9
$TEXTSIZE
 40
3.20000005
  9
$TRACEWID
 40
0.05
  9
$TEXTSTYLE
  7
MX_NOTE_STANDARD
  9
$CLAYER
  8
0
  9
$CELTYPE
  6
CONTINUOUS
  9
$CECOLOR
 62
     256
  9
$DIMSCALE
 40
1.0
  9
$DIMASZ
 40
2.5
  9
$DIMEXO
 40
1.5
  9
$DIMDLI
 40
3.75
  9
$DIMRND
 40
0.0
  9
$DIMDLE
 40
0.0
  9
$DIMEXE
 40
1.5
  9
$DIMTP
 40
0.0
  9
$DIMTM
 40
0.0
  9
$DIMTXT
 40
3.20000005
  9
$DIMCEN
 40
2.5
  9
$DIMTSZ
 40
0.0
  9
$DIMTOL
 70
       0
  9
$DIMLIM
 70
       0
  9
$DIMTIH
 70
       0
  9
$DIMTOH
 70
       0
  9
$DIMSE1
 70
       0
  9
$DIMSE2
 70
       0
  9
$DIMTAD
 70
       1
  9
$DIMZIN
 70
       8
  9
$DIMBLK
  1

  9
$DIMASO
 70
       1
  9
$DIMSHO
 70
       1
  9
$DIMPOST
  1

  9
$DIMAPOST
  1

  9
$DIMALT
 70
       0
  9
$DIMALTD
 70
       4
  9
$DIMALTF
 40
0.03937008
  9
$DIMLFAC
 40
1.0
  9
$DIMTOFL
 70
       1
  9
$DIMTVP
 40
0.0
  9
$DIMTIX
 70
       0
  9
$DIMSOXD
 70
       0
  9
$DIMSAH
 70
       0
  9
$DIMBLK1
  1

  9
$DIMBLK2
  1

  9
$DIMSTYLE
  2
MXDIMSTYLE
  9
$DIMCLRD
 70
       0
  9
$DIMCLRE
 70
       0
  9
$DIMCLRT
 70
       0
  9
$DIMTFAC
 40
1.0
  9
$DIMGAP
 40
1.0
  9
$LUNITS
 70
       2
  9
$LUPREC
 70
       4
  9
$AXISMODE
 70
       0
  9
$AXISUNIT
 10
0.0
 20
0.0
  9
$SKETCHINC
 40
0.1
  9
$FILLETRAD
 40
0.0
  9
$AUNITS
 70
       0
  9
$AUPREC
 70
       0
  9
$MENU
  1
acad
  9
$ELEVATION
 40
0.0
  9
$PELEVATION
 40
0.0
  9
$THICKNESS
 40
0.0
  9
$LIMCHECK
 70
       0
  9
$BLIPMODE
 70
       1
  9
$CHAMFERA
 40
0.0
  9
$CHAMFERB
 40
0.0
  9
$SKPOLY
 70
       0
  9
$TDCREATE
 40
2453250.753506945
  9
$TDUPDATE
 40
2453250.753506945
  9
$TDINDWG
 40
0.0000000000
  9
$TDUSRTIMER
 40
0.0000000000
  9
$USRTIMER
 70
       1
  9
$ANGBASE
 50
0.0
  9
$ANGDIR
 70
       0
  9
$PDMODE
 70
       0
  9
$PDSIZE
 40
0.0
  9
$PLINEWID
 40
0.0
  9
$COORDS
 70
       1
  9
$SPLFRAME
 70
       0
  9
$SPLINETYPE
 70
       6
  9
$SPLINESEGS
 70
       8
  9
$ATTDIA
 70
       0
  9
$ATTREQ
 70
       1
  9
$HANDLING
 70
       1
  9
$HANDSEED
  5
36E
  9
$SURFTAB1
 70
       6
  9
$SURFTAB2
 70
       6
  9
$SURFTYPE
 70
       6
  9
$SURFU
 70
       6
  9
$SURFV
 70
       6
  9
$UCSNAME
  2

  9
$UCSORG
 10
0.0
 20
0.0
 30
0.0
  9
$UCSXDIR
 10
1.0
 20
0.0
 30
0.0
  9
$UCSYDIR
 10
0.0
 20
1.0
 30
0.0
  9
$PUCSNAME
  2

  9
$PUCSORG
 10
0.0
 20
0.0
 30
0.0
  9
$PUCSXDIR
 10
1.0
 20
0.0
 30
0.0
  9
$PUCSYDIR
 10
0.0
 20
1.0
 30
0.0
  9
$USERI1
 70
       0
  9
$USERI2
 70
       0
  9
$USERI3
 70
       0
  9
$USERI4
 70
       0
  9
$USERI5
 70
       0
  9
$USERR1
 40
0.0
  9
$USERR2
 40
0.0
  9
$USERR3
 40
0.0
  9
$USERR4
 40
0.0
  9
$USERR5
 40
0.0
  9
$WORLDVIEW
 70
       1
  9
$SHADEDGE
 70
       3
  9
$SHADEDIF
 70
      70
  9
$TILEMODE
 70
       1
  9
$MAXACTVP
 70
      16
  9
$PINSBASE
 10
0.0
 20
0.0
 30
0.0
  9
$PLIMCHECK
 70
       0
  9
$PEXTMIN
 10
1.00000000E+20
 20
1.00000000E+20
 30
1.00000000E+20
  9
$PEXTMAX
 10
-1.00000000E+20
 20
-1.00000000E+20
 30
-1.00000000E+20
  9
$PLIMMIN
 10
0.0
 20
0.0
  9
$PLIMMAX
 10
12.0
 20
9.0
  9
$UNITMODE
 70
       0
  9
$VISRETAIN
 70
       0
  9
$PLINEGEN
 70
       1
  9
$PSLTSCALE
 70
       0
  9
$TREEDEPTH
 70
    3020
  9
$DWGCODEPAGE
  3
dos932
  0
ENDSEC
  0
SECTION
  2
TABLES
  0
TABLE
  2
VPORT
 70
       1
  0
VPORT
  2
*ACTIVE
 70
       0
 10
0.0
 20
0.0
 11
1.0
 21
1.0
 12
0.42492676
 22
0.25
 13
0.0
 23
0.0
 14
1.0
 24
1.0
 15
0.0
 25
0.0
 16
0.0
 26
0.0
 36
1.0
 17
0.0
 27
0.0
 37
0.0
 40
394.405
 41
1.73205081
 42
50.0
 43
0.0
 44
0.0
 50
0.0
 51
0.0
 71
       0
 72
     100
 73
       1
 74
       1
 75
       0
 76
       0
 77
       0
 78
       0
  0
ENDTAB
  0
TABLE
  2
LTYPE
 70
       3
  0
LTYPE
  2
CONTINUOUS
 70
      64
  3
Solid line
 72
      65
 73
       0
 40
0.0
  0
LTYPE
  2
CENTER
 70
      64
  3
Center ____ _ ____ _ ____ _ ____ _ ____ _ ____
 72
      65
 73
       4
 40
26.0
 49
20.0
 49
-2.0
 49
2.0
 49
-2.0
  0
LTYPE
  2
DASHED
 70
      64
  3
Dashed __ __ __ __ __ __ __ __ __ __ __ __ __ _
 72
      65
 73
       2
 40
4.0
 49
2.0
 49
-2.0
  0
ENDTAB
  0
TABLE
  2
LAYER
 70
       2
  0
LAYER
  2
0
 70
       0
 62
       7
  6
CONTINUOUS
  0
LAYER
  2
DEFPOINTS
 70
       0
 62
       7
  6
CONTINUOUS
  0
ENDTAB
  0
TABLE
  2
STYLE
 70
       1
  0
STYLE
  2
MX_NOTE_STANDARD
 70
       0
 40
0.0
 41
1.0
 50
0.0
 71
       0
 42
3.20000005
  3
txt.shx
  4
extfont.shx
  0
ENDTAB
  0
TABLE
  2
VIEW
 70
       0
  0
ENDTAB
  0
TABLE
  2
UCS
 70
       0
  0
ENDTAB
  0
TABLE
  2
APPID
 70
       1
  0
APPID
  2
ACAD
 70
       0
  0
ENDTAB
  0
TABLE
  2
DIMSTYLE
 70
       1
  0
DIMSTYLE
  2
MXDIMSTYLE
 70
       0
  3

  4

  5

  6

  7

 40
1.0
 41
2.5
 42
1.5
 43
3.75
 44
1.5
 45
0.0
 46
0.0
 47
0.0
 48
0.0
 71
       0
 72
       0
 73
       0
 74
       0
 75
       0
 76
       0
 77
       1
 78
       8
140
3.20000005
141
2.5
142
0.0
143
0.03937008
144
1.0
145
0.0
146
1.0
147
1.0
170
       0
171
       4
172
       1
173
       0
174
       0
175
       0
176
       0
177
       0
178
       0
  0
ENDTAB
  0
ENDSEC
  0
SECTION
  2
BLOCKS
  0
ENDSEC
  0
SECTION
  2
ENTITIES
  0
CIRCLE
  8
0
  6
CONTINUOUS
 62
       7
  5
1E
 10
161.37433004
 20
-147.9596007
 30
0.0
 40
2.25
  0
CIRCLE
  8
0
  6
CONTINUOUS
 62
       7
  5
1F
 10
161.37433004
 20
-147.9596007
 30
0.0
 40
4.0
  0
CIRCLE
  8
0
  6
CONTINUOUS
 62
       7
  5
20
 10
161.37433004
 20
-99.95960034
 30
0.0
 40
2.25
  0
CIRCLE
  8
0
  6
CONTINUOUS
 62
       7
  5
21
 10
161.37433004
 20
-99.95960034
 30
0.0
 40
4.0
  0
CIRCLE
  8
0
  6
CONTINUOUS
 62
       7
  5
22
 10
-44.62566988
 20
-147.9596007
 30
0.0
 40
2.25
  0
CIRCLE
  8
0
  6
CONTINUOUS
 62
       7
  5
23
 10
-44.62566988
 20
-147.9596007
 30
0.0
 40
4.0
  0
CIRCLE
  8
0
  6
CONTINUOUS
 62
       7
  5
24
 10
-44.62566988
 20
-99.95960034
 30
0.0
 40
2.25
  0
CIRCLE
  8
0
  6
CONTINUOUS
 62
       7
  5
25
 10
-44.62566988
 20
-99.95960034
 30
0.0
 40
4.0
  0
LINE
  8
0
  6
CONTINUOUS
 62
       2
  5
26
 10
154.37432999
 20
-138.95960063
 30
0.0
 11
161.37433004
 21
-138.95960063
 31
0.0
  0
LINE
  8
0
  6
CONTINUOUS
 62
       2
  5
27
 10
154.37432999
 20
-108.95960041
 30
0.0
 11
161.37433004
 21
-108.95960041
 31
0.0
  0
LINE
  8
0
  6
CONTINUOUS
 62
       2
  5
28
 10
74.31356642
 20
-5.41991708
 30
0.0
 11
84.71034513
 21
-5.41991708
 31
0.0
  0
LINE
  8
0
  6
CONTINUOUS
 62
       2
  5
29
 10
156.77916851
 20
84.24674996
 30
0.0
 11
164.00668583
 21
84.24674996
 31
0.0
  0
LINE
  8
0
  6
CONTINUOUS
 62
       2
  5
2A
 10
156.77916851
 20
114.24675019
 30
0.0
 11
164.00668583
 21
114.24675019
 31
0.0
  0
LINE
  8
0
  6
CONTINUOUS
 62
       7
  5
2B
 10
64.05672864
 20
-13.73748941
 30
0.0
 11
66.69188094
 21
-11.10233711
 31
0.0
  0
LINE
  8
0
  6
CONTINUOUS
 62
       7
  5
2C
 10
66.69188094
 20
-13.73748941
 30
0.0
 11
64.05672864
 21
-11.10233711
 31
0.0
  0
LINE
  8
0
  6
CONTINUOUS
 62
       7
  5
2D
 10
56.05673924
 20
0.2624981
 30
0.0
 11
58.69189154
 21
2.8976504
 31
0.0
  0
LINE
  8
0
  6
CONTINUOUS
 62
       7
  5
2E
 10
58.69189154
 20
0.2624981
 30
0.0
 11
56.05673924
 21
2.8976504
 31
0.0
  0
LINE
  8
0
  6
CONTINUOUS
 62
       7
  5
2F
 10
54.04881777
 20
121.42123759
 30
0.0
 11
56.68397006
 21
124.05638989
 31
0.0
  0
LINE
  8
0
  6
CONTINUOUS
 62
       7
  5
30
 10
56.68397006
 20
121.42123759
 30
0.0
 11
54.04881777
 21
124.05638989
 31
0.0
  0
LINE
  8
0
  6
CONTINUOUS
 62
       7
  5
31
 10
4.04881777
 20
121.42123759
 30
0.0
 11
6.68397006
 21
124.05638989
 31
0.0
  0
LINE
  8
0
  6
CONTINUOUS
 62
       7
  5
32
 10
6.68397006
 20
121.42123759
 30
0.0
 11
4.04881777
 21
124.05638989
 31
0.0
  0
LINE
  8
0
  6
CENTER
 62
       2
  5
34
 10
51.7790923
 20
122.73881374
 30
0.0
 11
58.87433045
 21
122.73881374
 31
0.0
  0
LINE
  8
0
  6
CENTER
 62
       2
  5
35
 10
1.7790923
 20
122.73881374
 30
0.0
 11
8.87433045
 21
122.73881374
 31
0.0
  0
LINE
  8
0
  6
CONTINUOUS
 62
       7
  5
36
 10
-193.64154403
 20
7.58008302
 30
0.0
 11
-135.14948009
 21
7.58008302
 31
0.0
  0
LINE
  8
0
  6
CONTINUOUS
 62
       7
  5
37
 10
-49.62566992
 20
-152.95960074
 30
0.0
 11
16.366394
 21
-152.95960074
 31
0.0
  0
LINE
  8
0
  6
CONTINUOUS
 62
       7
  5
38
 10
-49.62566992
 20
-94.9596003
 30
0.0
 11
-37.62566983
 21
-94.9596003
 31
0.0
  0
LINE
  8
0
  6
CONTINUOUS
 62
       7
  5
39
 10
98.3743312
 20
-96.95960032
 30
0.0
 11
98.3743312
 21
-150.95960072
 31
0.0
  0
LINE
  8
0
  6
CONTINUOUS
 62
       7
  5
3A
 10
169.3743301
 20
-117.89610841
 30
0.0
 11
169.3743301
 21
-130.00721961
 31
0.0
  0
LINE
  8
0
  6
CONTINUOUS
 62
       7
  5
3B
 10
154.37432999
 20
-94.9596003
 30
0.0
 11
154.37432999
 21
-152.95960074
 31
0.0
  0
LINE
  8
0
  6
CONTINUOUS
 62
       7
  5
3C
 10
166.37433008
 20
-94.9596003
 30
0.0
 11
166.37433008
 21
-152.95960074
 31
0.0
  0
LINE
  8
0
  6
CONTINUOUS
 62
       7
  5
3D
 10
-37.62566983
 20
-94.9596003
 30
0.0
 11
-37.62566983
 21
-152.95960074
 31
0.0
  0
LINE
  8
0
  6
CONTINUOUS
 62
       7
  5
3E
 10
-49.62566992
 20
-94.9596003
 30
0.0
 11
-49.62566992
 21
-152.95960074
 31
0.0
  0
LINE
  8
0
  6
CONTINUOUS
 62
       7
  5
3F
 10
154.37432999
 20
-94.9596003
 30
0.0
 11
166.37433008
 21
-94.9596003
 31
0.0
  0
LINE
  8
0
  6
CONTINUOUS
 62
       7
  5
40
 10
154.37432999
 20
-152.95960074
 30
0.0
 11
166.37433008
 21
-152.95960074
 31
0.0
  0
LINE
  8
0
  6
CONTINUOUS
 62
       7
  5
41
 10
-37.62566983
 20
-96.95960032
 30
0.0
 11
98.3743312
 21
-96.95960032
 31
0.0
  0
LINE
  8
0
  6
CONTINUOUS
 62
       7
  5
42
 10
-37.62566983
 20
-150.95960072
 30
0.0
 11
98.3743312
 21
-150.95960072
 31
0.0
  0
LINE
  8
0
  6
CONTINUOUS
 62
       7
  5
43
 10
169.12036185
 20
-117.00721952
 30
0.0
 11
166.61242532
 21
-117.00721952
 31
0.0
  0
LINE
  8
0
  6
CONTINUOUS
 62
       7
  5
44
 10
169.12036185
 20
-120.48341002
 30
0.0
 11
166.61242532
 21
-120.48341002
 31
0.0
  0
LINE
  8
0
  6
CONTINUOUS
 62
       7
  5
45
 10
169.12036185
 20
-127.41991801
 30
0.0
 11
166.61242532
 21
-127.41991801
 31
0.0
  0
LINE
  8
0
  6
CONTINUOUS
 62
       7
  5
46
 10
169.12036185
 20
-130.89610851
 30
0.0
 11
166.61242532
 21
-130.89610851
 31
0.0
  0
LINE
  8
0
  6
CONTINUOUS
 62
       7
  5
47
 10
169.3743301
 20
-117.89610841
 30
0.0
 11
169.12036185
 21
-117.00721952
 31
0.0
  0
LINE
  8
0
  6
CONTINUOUS
 62
       7
  5
48
 10
169.3743301
 20
-130.00721961
 30
0.0
 11
169.12036185
 21
-130.89610851
 31
0.0
  0
LINE
  8
0
  6
CONTINUOUS
 62
       7
  5
49
 10
166.37433008
 20
-117.89610841
 30
0.0
 11
166.61242532
 21
-117.00721952
 31
0.0
  0
LINE
  8
0
  6
CONTINUOUS
 62
       7
  5
4A
 10
166.37433008
 20
-130.00721961
 30
0.0
 11
166.61242532
 21
-130.89610851
 31
0.0
  0
LINE
  8
0
  6
CONTINUOUS
 62
       7
  5
4B
 10
98.3743312
 20
-104.95960038
 30
0.0
 11
154.37432999
 21
-104.95960038
 31
0.0
  0
LINE
  8
0
  6
CONTINUOUS
 62
       7
  5
4C
 10
98.3743312
 20
-112.95960044
 30
0.0
 11
154.37432999
 21
-112.95960044
 31
0.0
  0
LINE
  8
0
  6
CONTINUOUS
 62
       7
  5
4D
 10
98.3743312
 20
-134.9596006
 30
0.0
 11
154.37432999
 21
-134.9596006
 31
0.0
  0
LINE
  8
0
  6
CONTINUOUS
 62
       7
  5
4E
 10
98.3743312
 20
-142.95960066
 30
0.0
 11
154.37432999
 21
-142.95960066
 31
0.0
  0
LINE
  8
0
  6
CONTINUOUS
 62
       2
  5
4F
 10
7.87433017
 20
-117.95960047
 30
0.0
 11
7.87433017
 21
-129.95960057
 31
0.0
  0
LINE
  8
0
  6
CONTINUOUS
 62
       2
  5
50
 10
52.87433051
 20
-117.95960047
 30
0.0
 11
52.87433051
 21
-129.95960057
 31
0.0
  0
LINE
  8
0
  6
CONTINUOUS
 62
       2
  5
51
 10
82.87433017
 20
-120.45166399
 30
0.0
 11
82.87433017
 21
-127.45166404
 31
0.0
  0
LINE
  8
0
  6
CONTINUOUS
 62
       2
  5
52
 10
-22.12566983
 20
-120.45166399
 30
0.0
 11
-22.12566983
 21
-127.45166404
 31
0.0
  0
LINE
  8
0
  6
CONTINUOUS
 62
       7
  5
53
 10
-21.12566982
 20
-126.45166403
 30
0.0
 11
-23.12566984
 21
-126.45166403
 31
0.0
  0
LINE
  8
0
  6
CONTINUOUS
 62
       7
  5
54
 10
-21.12566982
 20
-121.45166399
 30
0.0
 11
-23.12566984
 21
-121.45166399
 31
0.0
  0
LINE
  8
0
  6
CONTINUOUS
 62
       2
  5
55
 10
-23.12566984
 20
-120.45166399
 30
0.0
 11
-23.12566984
 21
-127.45166404
 31
0.0
  0
LINE
  8
0
  6
CONTINUOUS
 62
       2
  5
56
 10
-21.12566982
 20
-120.45166399
 30
0.0
 11
-21.12566982
 21
-127.45166404
 31
0.0
  0
LINE
  8
0
  6
CONTINUOUS
 62
       2
  5
57
 10
-7.13360611
 20
-120.45166399
 30
0.0
 11
-7.13360611
 21
-127.45166404
 31
0.0
  0
LINE
  8
0
  6
CONTINUOUS
 62
       2
  5
58
 10
67.86639446
 20
-120.45166399
 30
0.0
 11
67.86639446
 21
-127.45166404
 31
0.0
  0
LINE
  8
0
  6
CONTINUOUS
 62
       2
  5
59
 10
-44.62566988
 20
-94.9596003
 30
0.0
 11
-44.62566988
 21
-104.95960038
 31
0.0
  0
LINE
  8
0
  6
CONTINUOUS
 62
       2
  5
5A
 10
-44.62566988
 20
-142.95960066
 30
0.0
 11
-44.62566988
 21
-152.95960074
 31
0.0
  0
LINE
  8
0
  6
CONTINUOUS
 62
       2
  5
5B
 10
161.37433004
 20
-94.9596003
 30
0.0
 11
161.37433004
 21
-104.95960038
 31
0.0
  0
LINE
  8
0
  6
CONTINUOUS
 62
       2
  5
5C
 10
161.37433004
 20
-142.95960066
 30
0.0
 11
161.37433004
 21
-152.95960074
 31
0.0
  0
LINE
  8
0
  6
CONTINUOUS
 62
       2
  5
5D
 10
-49.62566992
 20
-99.95960034
 30
0.0
 11
-39.62566985
 21
-99.95960034
 31
0.0
  0
LINE
  8
0
  6
CONTINUOUS
 62
       2
  5
5E
 10
-49.62566992
 20
-147.9596007
 30
0.0
 11
-39.62566985
 21
-147.9596007
 31
0.0
  0
LINE
  8
0
  6
CONTINUOUS
 62
       2
  5
5F
 10
156.37433
 20
-99.95960034
 30
0.0
 11
166.37433008
 21
-99.95960034
 31
0.0
  0
LINE
  8
0
  6
CONTINUOUS
 62
       2
  5
60
 10
156.37433
 20
-147.9596007
 30
0.0
 11
166.37433008
 21
-147.9596007
 31
0.0
  0
LINE
  8
0
  6
CONTINUOUS
 62
       7
  5
61
 10
101.12036297
 20
-117.00721952
 30
0.0
 11
98.61242644
 21
-117.00721952
 31
0.0
  0
LINE
  8
0
  6
CONTINUOUS
 62
       7
  5
62
 10
98.3743312
 20
-117.89610841
 30
0.0
 11
98.61242644
 21
-117.00721952
 31
0.0
  0
LINE
  8
0
  6
CONTINUOUS
 62
       7
  5
63
 10
101.37433122
 20
-117.89610841
 30
0.0
 11
101.12036297
 21
-117.00721952
 31
0.0
  0
LINE
  8
0
  6
CONTINUOUS
 62
       7
  5
64
 10
101.37433122
 20
-117.89610841
 30
0.0
 11
101.37433122
 21
-130.00721961
 31
0.0
  0
LINE
  8
0
  6
CONTINUOUS
 62
       7
  5
65
 10
101.12036297
 20
-120.48341002
 30
0.0
 11
98.61242644
 21
-120.48341002
 31
0.0
  0
LINE
  8
0
  6
CONTINUOUS
 62
       7
  5
66
 10
101.12036297
 20
-127.41991801
 30
0.0
 11
98.61242644
 21
-127.41991801
 31
0.0
  0
LINE
  8
0
  6
CONTINUOUS
 62
       7
  5
67
 10
101.37433122
 20
-130.00721961
 30
0.0
 11
101.12036297
 21
-130.89610851
 31
0.0
  0
LINE
  8
0
  6
CONTINUOUS
 62
       7
  5
68
 10
101.12036297
 20
-130.89610851
 30
0.0
 11
98.61242644
 21
-130.89610851
 31
0.0
  0
LINE
  8
0
  6
CONTINUOUS
 62
       7
  5
69
 10
98.3743312
 20
-130.00721961
 30
0.0
 11
98.61242644
 21
-130.89610851
 31
0.0
  0
LINE
  8
0
  6
CONTINUOUS
 62
       7
  5
6A
 10
175.56480634
 20
-118.95960048
 30
0.0
 11
169.3743301
 21
-118.95960048
 31
0.0
  0
LINE
  8
0
  6
CONTINUOUS
 62
       2
  5
6B
 10
175.88226666
 20
-119.49928303
 30
0.0
 11
169.3743301
 21
-119.49928303
 31
0.0
  0
LINE
  8
0
  6
CONTINUOUS
 62
       7
  5
6C
 10
175.56480634
 20
-118.95960048
 30
0.0
 11
175.56480634
 21
-128.95960056
 31
0.0
  0
LINE
  8
0
  6
CONTINUOUS
 62
       7
  5
6D
 10
175.56480634
 20
-118.95960048
 30
0.0
 11
176.37433015
 21
-120.34055287
 31
0.0
  0
LINE
  8
0
  6
CONTINUOUS
 62
       7
  5
6E
 10
176.37433015
 20
-120.34055287
 30
0.0
 11
176.37433015
 21
-127.56277515
 31
0.0
  0
LINE
  8
0
  6
CONTINUOUS
 62
       7
  5
6F
 10
175.56480634
 20
-128.95960056
 30
0.0
 11
176.37433015
 21
-127.56277515
 31
0.0
  0
LINE
  8
0
  6
CONTINUOUS
 62
       2
  5
70
 10
175.88226666
 20
-128.404045
 30
0.0
 11
169.3743301
 21
-128.404045
 31
0.0
  0
LINE
  8
0
  6
CONTINUOUS
 62
       7
  5
71
 10
175.56480634
 20
-128.95960056
 30
0.0
 11
169.3743301
 21
-128.95960056
 31
0.0
  0
LINE
  8
0
  6
CONTINUOUS
 62
       7
  5
72
 10
154.37432999
 20
-118.95960048
 30
0.0
 11
151.86639346
 21
-118.95960048
 31
0.0
  0
LINE
  8
0
  6
CONTINUOUS
 62
       2
  5
73
 10
154.37432999
 20
-119.49928303
 30
0.0
 11
151.37432996
 21
-119.49928303
 31
0.0
  0
LINE
  8
0
  6
CONTINUOUS
 62
       7
  5
74
 10
151.37432996
 20
-119.45166398
 30
0.0
 11
151.86639346
 21
-118.95960048
 31
0.0
  0
LINE
  8
0
  6
CONTINUOUS
 62
       7
  5
75
 10
151.86639346
 20
-118.95960048
 30
0.0
 11
151.86639346
 21
-128.95960056
 31
0.0
  0
LINE
  8
0
  6
CONTINUOUS
 62
       7
  5
76
 10
151.37432996
 20
-128.45166405
 30
0.0
 11
151.86639346
 21
-128.95960056
 31
0.0
  0
LINE
  8
0
  6
CONTINUOUS
 62
       2
  5
77
 10
154.37432999
 20
-128.404045
 30
0.0
 11
151.37432996
 21
-128.404045
 31
0.0
  0
LINE
  8
0
  6
CONTINUOUS
 62
       7
  5
78
 10
154.37432999
 20
-128.95960056
 30
0.0
 11
151.86639346
 21
-128.95960056
 31
0.0
  0
LINE
  8
0
  6
CONTINUOUS
 62
       7
  5
79
 10
151.37432996
 20
-119.45166398
 30
0.0
 11
151.37432996
 21
-128.45166405
 31
0.0
  0
LINE
  8
0
  6
CONTINUOUS
 62
       7
  5
7A
 10
-39.64154286
 20
-108.37229881
 30
0.0
 11
-40.62566985
 21
-107.80087024
 31
0.0
  0
LINE
  8
0
  6
CONTINUOUS
 62
       7
  5
7B
 10
-40.62566985
 20
-107.80087024
 30
0.0
 11
-41.62566986
 21
-108.37229881
 31
0.0
  0
LINE
  8
0
  6
CONTINUOUS
 62
       7
  5
7C
 10
-41.62566986
 20
-108.37229881
 30
0.0
 11
-41.62566986
 21
-109.53102898
 31
0.0
  0
LINE
  8
0
  6
CONTINUOUS
 62
       7
  5
7D
 10
-41.62566986
 20
-109.53102898
 30
0.0
 11
-40.62566985
 21
-110.10245756
 31
0.0
  0
LINE
  8
0
  6
CONTINUOUS
 62
       7
  5
7E
 10
-40.62566985
 20
-110.10245756
 30
0.0
 11
-39.64154286
 21
-109.53102898
 31
0.0
  0
LINE
  8
0
  6
CONTINUOUS
 62
       7
  5
7F
 10
-39.64154286
 20
-109.53102898
 30
0.0
 11
-39.64154286
 21
-108.37229881
 31
0.0
  0
LINE
  8
0
  6
CONTINUOUS
 62
       7
  5
80
 10
-39.64154286
 20
-139.53102921
 30
0.0
 11
-40.62566985
 21
-140.10245779
 31
0.0
  0
LINE
  8
0
  6
CONTINUOUS
 62
       7
  5
81
 10
-40.62566985
 20
-140.10245779
 30
0.0
 11
-41.62566986
 21
-139.53102921
 31
0.0
  0
LINE
  8
0
  6
CONTINUOUS
 62
       7
  5
82
 10
-41.62566986
 20
-139.53102921
 30
0.0
 11
-41.62566986
 21
-138.37229904
 31
0.0
  0
LINE
  8
0
  6
CONTINUOUS
 62
       7
  5
83
 10
-41.62566986
 20
-138.37229904
 30
0.0
 11
-40.62566985
 21
-137.80087047
 31
0.0
  0
LINE
  8
0
  6
CONTINUOUS
 62
       7
  5
84
 10
-40.62566985
 20
-137.80087047
 30
0.0
 11
-39.64154286
 21
-138.37229904
 31
0.0
  0
LINE
  8
0
  6
CONTINUOUS
 62
       7
  5
85
 10
-39.64154286
 20
-138.37229904
 30
0.0
 11
-39.64154286
 21
-139.53102921
 31
0.0
  0
LINE
  8
0
  6
CONTINUOUS
 62
       2
  5
86
 10
-40.62566985
 20
-135.95960061
 30
0.0
 11
-40.62566985
 21
-141.95960066
 31
0.0
  0
LINE
  8
0
  6
CENTER
 62
       2
  5
87
 10
-40.62566985
 20
-105.95960038
 30
0.0
 11
-40.62566985
 21
-111.95960043
 31
0.0
  0
LINE
  8
0
  6
CONTINUOUS
 62
       2
  5
88
 10
157.37433001
 20
-105.95960038
 30
0.0
 11
157.37433001
 21
-111.95960043
 31
0.0
  0
LINE
  8
0
  6
CONTINUOUS
 62
       7
  5
89
 10
156.37433
 20
-108.37229881
 30
0.0
 11
157.37433001
 21
-107.80087024
 31
0.0
  0
LINE
  8
0
  6
CONTINUOUS
 62
       7
  5
8A
 10
157.37433001
 20
-107.80087024
 30
0.0
 11
158.358457
 21
-108.37229881
 31
0.0
  0
LINE
  8
0
  6
CONTINUOUS
 62
       7
  5
8B
 10
158.358457
 20
-108.37229881
 30
0.0
 11
158.358457
 21
-109.53102898
 31
0.0
  0
LINE
  8
0
  6
CONTINUOUS
 62
       7
  5
8C
 10
157.37433001
 20
-110.10245756
 30
0.0
 11
156.37433
 21
-109.53102898
 31
0.0
  0
LINE
  8
0
  6
CONTINUOUS
 62
       7
  5
8D
 10
158.358457
 20
-109.53102898
 30
0.0
 11
157.37433001
 21
-110.10245756
 31
0.0
  0
LINE
  8
0
  6
CONTINUOUS
 62
       7
  5
8E
 10
156.37433
 20
-109.53102898
 30
0.0
 11
156.37433
 21
-108.37229881
 31
0.0
  0
LINE
  8
0
  6
CONTINUOUS
 62
       2
  5
8F
 10
157.37433001
 20
-135.95960061
 30
0.0
 11
157.37433001
 21
-141.95960066
 31
0.0
  0
LINE
  8
0
  6
CONTINUOUS
 62
       7
  5
90
 10
157.37433001
 20
-137.80087047
 30
0.0
 11
156.37433
 21
-138.37229904
 31
0.0
  0
LINE
  8
0
  6
CONTINUOUS
 62
       7
  5
91
 10
158.358457
 20
-138.37229904
 30
0.0
 11
157.37433001
 21
-137.80087047
 31
0.0
  0
LINE
  8
0
  6
CONTINUOUS
 62
       7
  5
92
 10
158.358457
 20
-139.53102921
 30
0.0
 11
158.358457
 21
-138.37229904
 31
0.0
  0
LINE
  8
0
  6
CONTINUOUS
 62
       7
  5
93
 10
156.37433
 20
-139.53102921
 30
0.0
 11
157.37433001
 21
-140.10245779
 31
0.0
  0
LINE
  8
0
  6
CONTINUOUS
 62
       7
  5
94
 10
156.37433
 20
-138.37229904
 30
0.0
 11
156.37433
 21
-139.53102921
 31
0.0
  0
LINE
  8
0
  6
CONTINUOUS
 62
       7
  5
95
 10
157.37433001
 20
-140.10245779
 30
0.0
 11
158.358457
 21
-139.53102921
 31
0.0
  0
LINE
  8
0
  6
CONTINUOUS
 62
       7
  5
96
 10
-37.62566983
 20
-97.95960032
 30
0.0
 11
98.3743312
 21
-97.95960032
 31
0.0
  0
LINE
  8
0
  6
CONTINUOUS
 62
       7
  5
97
 10
-37.62566983
 20
-149.95960072
 30
0.0
 11
98.3743312
 21
-149.95960072
 31
0.0
  0
LINE
  8
0
  6
CONTINUOUS
 62
       7
  5
98
 10
-37.62566983
 20
-141.95960066
 30
0.0
 11
98.3743312
 21
-141.95960066
 31
0.0
  0
LINE
  8
0
  6
CONTINUOUS
 62
       7
  5
99
 10
-37.62566983
 20
-140.95960065
 30
0.0
 11
98.3743312
 21
-140.95960065
 31
0.0
  0
LINE
  8
0
  6
CONTINUOUS
 62
       7
  5
9A
 10
-37.62566983
 20
-129.95960057
 30
0.0
 11
98.3743312
 21
-129.95960057
 31
0.0
  0
LINE
  8
0
  6
CONTINUOUS
 62
       7
  5
9B
 10
-37.62566983
 20
-128.95960056
 30
0.0
 11
98.3743312
 21
-128.95960056
 31
0.0
  0
LINE
  8
0
  6
CONTINUOUS
 62
       7
  5
9C
 10
-37.62566983
 20
-105.95960038
 30
0.0
 11
98.3743312
 21
-105.95960038
 31
0.0
  0
LINE
  8
0
  6
CONTINUOUS
 62
       7
  5
9D
 10
-37.62566983
 20
-106.95960039
 30
0.0
 11
98.3743312
 21
-106.95960039
 31
0.0
  0
LINE
  8
0
  6
CONTINUOUS
 62
       7
  5
9E
 10
-37.62566983
 20
-117.95960047
 30
0.0
 11
98.3743312
 21
-117.95960047
 31
0.0
  0
LINE
  8
0
  6
CONTINUOUS
 62
       7
  5
9F
 10
-37.62566983
 20
-118.95960048
 30
0.0
 11
98.3743312
 21
-118.95960048
 31
0.0
  0
LINE
  8
0
  6
DASHED
 62
       2
  5
A1
 10
109.37433128
 20
-122.451664
 30
0.0
 11
109.37433128
 21
-125.45166402
 31
0.0
  0
LINE
  8
0
  6
DASHED
 62
       2
  5
A2
 10
101.37433122
 20
-122.451664
 30
0.0
 11
109.37433128
 21
-122.451664
 31
0.0
  0
LINE
  8
0
  6
DASHED
 62
       2
  5
A3
 10
101.37433122
 20
-125.45166402
 30
0.0
 11
109.37433128
 21
-125.45166402
 31
0.0
  0
LINE
  8
0
  6
CONTINUOUS
 62
       7
  5
A4
 10
165.37433007
 20
-157.95960078
 30
0.0
 11
165.37433007
 21
-152.95960074
 31
0.0
  0
LINE
  8
0
  6
CONTINUOUS
 62
       7
  5
A5
 10
-48.62566991
 20
-157.95960078
 30
0.0
 11
-48.62566991
 21
-152.95960074
 31
0.0
  0
LINE
  8
0
  6
CONTINUOUS
 62
       7
  5
A6
 10
-48.62566991
 20
-157.95960078
 30
0.0
 11
16.366394
 21
-157.95960078
 31
0.0
  0
LINE
  8
0
  6
CONTINUOUS
 62
       7
  5
A7
 10
-5.63360617
 20
-151.45166422
 30
0.0
 11
-5.63360617
 21
-152.95960074
 31
0.0
  0
LINE
  8
0
  6
CONTINUOUS
 62
       7
  5
A8
 10
0.87433039
 20
-150.95960072
 30
0.0
 11
0.87433039
 21
-151.45166422
 31
0.0
  0
LINE
  8
0
  6
CONTINUOUS
 62
       7
  5
A9
 10
9.87433046
 20
-150.95960072
 30
0.0
 11
9.87433046
 21
-151.45166422
 31
0.0
  0
LINE
  8
0
  6
CONTINUOUS
 62
       7
  5
AA
 10
16.366394
 20
-151.45166422
 30
0.0
 11
16.366394
 21
-152.95960074
 31
0.0
  0
LINE
  8
0
  6
CONTINUOUS
 62
       7
  5
AB
 10
44.36639383
 20
-151.45166422
 30
0.0
 11
44.36639383
 21
-152.95960074
 31
0.0
  0
LINE
  8
0
  6
CONTINUOUS
 62
       7
  5
AC
 10
50.87433039
 20
-150.95960072
 30
0.0
 11
50.87433039
 21
-151.45166422
 31
0.0
  0
LINE
  8
0
  6
CONTINUOUS
 62
       7
  5
AD
 10
59.87433046
 20
-150.95960072
 30
0.0
 11
59.87433046
 21
-151.45166422
 31
0.0
  0
LINE
  8
0
  6
CONTINUOUS
 62
       7
  5
AE
 10
66.366394
 20
-151.45166422
 30
0.0
 11
66.366394
 21
-152.95960074
 31
0.0
  0
LINE
  8
0
  6
CONTINUOUS
 62
       7
  5
AF
 10
-5.63360617
 20
-158.45166427
 30
0.0
 11
16.366394
 21
-158.45166427
 31
0.0
  0
LINE
  8
0
  6
CONTINUOUS
 62
       7
  5
B0
 10
-5.63360617
 20
-151.45166422
 30
0.0
 11
16.366394
 21
-151.45166422
 31
0.0
  0
LINE
  8
0
  6
CONTINUOUS
 62
       7
  5
B1
 10
44.36639383
 20
-158.45166427
 30
0.0
 11
66.366394
 21
-158.45166427
 31
0.0
  0
LINE
  8
0
  6
CONTINUOUS
 62
       7
  5
B2
 10
44.36639383
 20
-151.45166422
 30
0.0
 11
66.366394
 21
-151.45166422
 31
0.0
  0
LINE
  8
0
  6
CONTINUOUS
 62
       7
  5
B3
 10
16.366394
 20
-152.95960074
 30
0.0
 11
66.366394
 21
-152.95960074
 31
0.0
  0
LINE
  8
0
  6
CONTINUOUS
 62
       7
  5
B4
 10
16.366394
 20
-157.95960078
 30
0.0
 11
66.366394
 21
-157.95960078
 31
0.0
  0
LINE
  8
0
  6
CONTINUOUS
 62
       7
  5
B5
 10
66.366394
 20
-152.95960074
 30
0.0
 11
154.37432999
 21
-152.95960074
 31
0.0
  0
LINE
  8
0
  6
CONTINUOUS
 62
       7
  5
B6
 10
66.366394
 20
-157.95960078
 30
0.0
 11
165.37433007
 21
-157.95960078
 31
0.0
  0
LINE
  8
0
  6
CONTINUOUS
 62
       7
  5
B7
 10
-5.63360617
 20
-157.95960078
 30
0.0
 11
-5.63360617
 21
-158.45166427
 31
0.0
  0
LINE
  8
0
  6
CONTINUOUS
 62
       7
  5
B8
 10
16.366394
 20
-157.95960078
 30
0.0
 11
16.366394
 21
-158.45166427
 31
0.0
  0
LINE
  8
0
  6
CONTINUOUS
 62
       7
  5
B9
 10
44.36639383
 20
-157.95960078
 30
0.0
 11
44.36639383
 21
-158.45166427
 31
0.0
  0
LINE
  8
0
  6
CONTINUOUS
 62
       7
  5
BA
 10
66.366394
 20
-157.95960078
 30
0.0
 11
66.366394
 21
-158.45166427
 31
0.0
  0
LINE
  8
0
  6
CONTINUOUS
 62
       2
  5
BB
 10
-44.62566988
 20
-138.95960063
 30
0.0
 11
-37.62566983
 21
-138.95960063
 31
0.0
  0
LINE
  8
0
  6
CONTINUOUS
 62
       2
  5
BC
 10
-44.62566988
 20
-108.95960041
 30
0.0
 11
-37.62566983
 21
-108.95960041
 31
0.0
  0
LINE
  8
0
  6
CONTINUOUS
 62
       7
  5
BD
 10
54.86639436
 20
-89.45166375
 30
0.0
 11
67.86639446
 21
-89.45166375
 31
0.0
  0
LINE
  8
0
  6
CONTINUOUS
 62
       7
  5
BE
 10
54.86639436
 20
-89.45166375
 30
0.0
 11
54.86639436
 21
-96.95960032
 31
0.0
  0
LINE
  8
0
  6
CONTINUOUS
 62
       7
  5
BF
 10
67.86639446
 20
-89.45166375
 30
0.0
 11
67.86639446
 21
-90.53102884
 31
0.0
  0
LINE
  8
0
  6
CONTINUOUS
 62
       7
  5
C0
 10
62.31083886
 20
-91.95960028
 30
0.0
 11
67.91401351
 21
-91.95960028
 31
0.0
  0
LINE
  8
0
  6
CONTINUOUS
 62
       7
  5
C1
 10
62.37433093
 20
-89.45166375
 30
0.0
 11
62.37433093
 21
-90.53102884
 31
0.0
  0
LINE
  8
0
  6
CONTINUOUS
 62
       7
  5
C2
 10
67.91401351
 20
-90.78499709
 30
0.0
 11
67.91401351
 21
-91.95960028
 31
0.0
  0
LINE
  8
0
  6
CONTINUOUS
 62
       7
  5
C3
 10
62.31083886
 20
-90.78499709
 30
0.0
 11
62.31083886
 21
-91.95960028
 31
0.0
  0
LINE
  8
0
  6
CONTINUOUS
 62
       7
  5
C4
 10
67.86639446
 20
-91.95960028
 30
0.0
 11
67.86639446
 21
-96.95960032
 31
0.0
  0
ARC
  8
0
  6
CONTINUOUS
 62
       7
  5
C5
 10
163.1894611
 20
-118.74531477
 30
0.0
 40
6.18033646
 50
343.66637879
 51
16.33362121
  0
ARC
  8
0
  6
CONTINUOUS
 62
       7
  5
C6
 10
144.21782
 20
-123.95166401
 30
0.0
 40
25.14289912
 50
352.07124183
 51
7.92875817
  0
ARC
  8
0
  6
CONTINUOUS
 62
       7
  5
C7
 10
163.18930056
 20
-129.15801326
 30
0.0
 40
6.18049052
 50
343.66679733
 51
16.33320267
  0
ARC
  8
0
  6
CONTINUOUS
 62
       7
  5
C8
 10
172.55915742
 20
-118.74531477
 30
0.0
 40
6.19553047
 50
163.70755285
 51
196.29244715
  0
ARC
  8
0
  6
CONTINUOUS
 62
       7
  5
C9
 10
191.53079852
 20
-123.95166401
 30
0.0
 40
25.15857922
 50
172.07621519
 51
187.92378481
  0
ARC
  8
0
  6
CONTINUOUS
 62
       7
  5
CA
 10
172.55936637
 20
-129.15801326
 30
0.0
 40
6.19573102
 50
163.70809492
 51
196.29190508
  0
CIRCLE
  8
0
  6
CONTINUOUS
 62
       7
  5
CB
 10
7.87433017
 20
-123.95960052
 30
0.0
 40
2.75000014
  0
CIRCLE
  8
0
  6
CONTINUOUS
 62
       7
  5
CC
 10
52.87433051
 20
-123.95960052
 30
0.0
 40
2.75000014
  0
CIRCLE
  8
0
  6
CONTINUOUS
 62
       7
  5
CD
 10
7.87433017
 20
-123.95960052
 30
0.0
 40
4.74999901
  0
CIRCLE
  8
0
  6
CONTINUOUS
 62
       7
  5
CE
 10
52.87433051
 20
-123.95960052
 30
0.0
 40
4.74999901
  0
CIRCLE
  8
0
  6
CONTINUOUS
 62
       7
  5
CF
 10
82.88225505
 20
-123.95957921
 30
0.0
 40
2.49999972
  0
ARC
  8
0
  6
CONTINUOUS
 62
       7
  5
D0
 10
-21.12566982
 20
-123.95166401
 30
0.0
 40
2.50001248
 50
270.0
 51
90.0
  0
ARC
  8
0
  6
CONTINUOUS
 62
       7
  5
D1
 10
-23.11377752
 20
-123.95559479
 30
0.0
 40
2.50395904
 50
90.272122
 51
180.09165951
  0
ARC
  8
0
  6
CONTINUOUS
 62
       7
  5
D2
 10
-23.12169264
 20
-123.95562332
 30
0.0
 40
2.49604388
 50
180.09129526
 51
269.90870474
  0
CIRCLE
  8
0
  6
CONTINUOUS
 62
       2
  5
D3
 10
-7.12567638
 20
-123.95957921
 30
0.0
 40
2.49999972
  0
CIRCLE
  8
0
  6
CONTINUOUS
 62
       2
  5
D4
 10
67.87432419
 20
-123.95957921
 30
0.0
 40
2.49999972
  0
CIRCLE
  8
0
  6
CONTINUOUS
 62
       7
  5
D5
 10
-7.12567638
 20
-123.95957921
 30
0.0
 40
2.22949983
  0
CIRCLE
  8
0
  6
CONTINUOUS
 62
       7
  5
D6
 10
67.87432419
 20
-123.95957921
 30
0.0
 40
2.22949983
  0
ARC
  8
0
  6
CONTINUOUS
 62
       7
  5
D7
 10
104.55916629
 20
-118.74531477
 30
0.0
 40
6.19553791
 50
163.70757296
 51
196.29242704
  0
ARC
  8
0
  6
CONTINUOUS
 62
       7
  5
D8
 10
95.18946997
 20
-118.74531477
 30
0.0
 40
6.18032902
 50
343.66635858
 51
16.33364142
  0
ARC
  8
0
  6
CONTINUOUS
 62
       7
  5
D9
 10
76.21782887
 20
-123.95166401
 30
0.0
 40
25.14289144
 50
352.07123939
 51
7.92876061
  0
ARC
  8
0
  6
CONTINUOUS
 62
       7
  5
DA
 10
123.53083161
 20
-123.95166401
 30
0.0
 40
25.15861089
 50
172.07622523
 51
187.92377477
  0
ARC
  8
0
  6
CONTINUOUS
 62
       7
  5
DB
 10
95.18928521
 20
-129.15801326
 30
0.0
 40
6.18050632
 50
343.66684026
 51
16.33315974
  0
ARC
  8
0
  6
CONTINUOUS
 62
       7
  5
DC
 10
104.55935102
 20
-129.15801326
 30
0.0
 40
6.19571522
 50
163.70805219
 51
196.29194781
  0
CIRCLE
  8
0
  6
CONTINUOUS
 62
       7
  5
DD
 10
-40.62566985
 20
-108.95960816
 30
0.0
 40
1.99999886
  0
CIRCLE
  8
0
  6
CONTINUOUS
 62
       7
  5
DE
 10
-40.62566985
 20
-138.9595987
 30
0.0
 40
1.99999886
  0
CIRCLE
  8
0
  6
CONTINUOUS
 62
       7
  5
DF
 10
-40.62566985
 20
-138.9595987
 30
0.0
 40
1.70000017
  0
CIRCLE
  8
0
  6
CONTINUOUS
 62
       7
  5
E0
 10
-40.62566985
 20
-108.95960816
 30
0.0
 40
1.70000017
  0
CIRCLE
  8
0
  6
CONTINUOUS
 62
       7
  5
E1
 10
-40.62566985
 20
-108.95960816
 30
0.0
 40
1.15000001
  0
CIRCLE
  8
0
  6
CONTINUOUS
 62
       7
  5
E2
 10
-40.62566985
 20
-138.9595987
 30
0.0
 40
1.15000001
  0
CIRCLE
  8
0
  6
CONTINUOUS
 62
       7
  5
E3
 10
157.37433679
 20
-108.95960816
 30
0.0
 40
1.99999886
  0
CIRCLE
  8
0
  6
CONTINUOUS
 62
       7
  5
E4
 10
157.37433679
 20
-108.95960816
 30
0.0
 40
1.70000017
  0
CIRCLE
  8
0
  6
CONTINUOUS
 62
       7
  5
E5
 10
157.37433679
 20
-108.95960816
 30
0.0
 40
1.15000001
  0
CIRCLE
  8
0
  6
CONTINUOUS
 62
       7
  5
E6
 10
157.37433679
 20
-138.9595987
 30
0.0
 40
1.99999886
  0
CIRCLE
  8
0
  6
CONTINUOUS
 62
       7
  5
E7
 10
157.37433679
 20
-138.9595987
 30
0.0
 40
1.70000017
  0
CIRCLE
  8
0
  6
CONTINUOUS
 62
       7
  5
E8
 10
157.37433679
 20
-138.9595987
 30
0.0
 40
1.15000001
  0
ARC
  8
0
  6
CONTINUOUS
 62
       7
  5
E9
 10
65.12036269
 20
-94.5596177
 30
0.0
 40
5.00794642
 50
60.57507483
 51
119.42492517
  0
ARC
  8
0
  6
CONTINUOUS
 62
       7
  5
EA
 10
67.24956026
 20
-90.77387382
 30
0.0
 40
0.66454634
 50
359.04092962
 51
60.11474774
  0
ARC
  8
0
  6
CONTINUOUS
 62
       7
  5
EB
 10
62.98916414
 20
-90.79085674
 30
0.0
 40
0.67835058
 50
119.02395581
 51
179.50506878
  0
LINE
  8
0
  6
CONTINUOUS
 62
       2
  5
EC
 10
-28.55440833
 20
-123.95960052
 30
0.0
 11
181.83464766
 21
-123.95960052
 31
0.0
  0
LINE
  8
0
  6
CONTINUOUS
 62
       7
  5
ED
 10
60.42194996
 20
66.07214665
 30
0.0
 11
60.42194996
 21
67.24674983
 31
0.0
  0
LINE
  8
0
  6
CONTINUOUS
 62
       7
  5
EE
 10
54.81877531
 20
66.07214665
 30
0.0
 11
54.81877531
 21
67.24674983
 31
0.0
  0
LINE
  8
0
  6
CONTINUOUS
 62
       7
  5
EF
 10
54.81877531
 20
67.24674983
 30
0.0
 11
60.42194996
 21
67.24674983
 31
0.0
  0
LINE
  8
0
  6
CONTINUOUS
 62
       7
  5
F0
 10
-37.62566983
 20
7.58008302
 30
0.0
 11
-37.62566983
 21
-14.41991715
 31
0.0
  0
LINE
  8
0
  6
CONTINUOUS
 62
       7
  5
F1
 10
98.3743312
 20
5.580083
 30
0.0
 11
98.3743312
 21
-16.41991717
 31
0.0
  0
LINE
  8
0
  6
CONTINUOUS
 62
       7
  5
F2
 10
-37.62566983
 20
5.580083
 30
0.0
 11
98.3743312
 21
5.580083
 31
0.0
  0
LINE
  8
0
  6
CONTINUOUS
 62
       7
  5
F3
 10
-37.62566983
 20
-16.41991717
 30
0.0
 11
98.3743312
 21
-16.41991717
 31
0.0
  0
LINE
  8
0
  6
CONTINUOUS
 62
       7
  5
F4
 10
166.37433008
 20
-14.41991715
 30
0.0
 11
154.37432999
 21
-14.41991715
 31
0.0
  0
LINE
  8
0
  6
CONTINUOUS
 62
       7
  5
F5
 10
154.37432999
 20
-14.41991715
 30
0.0
 11
154.37432999
 21
7.58008302
 31
0.0
  0
LINE
  8
0
  6
CONTINUOUS
 62
       7
  5
F6
 10
166.37433008
 20
7.58008302
 30
0.0
 11
154.37432999
 21
7.58008302
 31
0.0
  0
LINE
  8
0
  6
CONTINUOUS
 62
       7
  5
F7
 10
101.37433122
 20
-1.41991705
 30
0.0
 11
101.37433122
 21
3.13563854
 31
0.0
  0
LINE
  8
0
  6
CONTINUOUS
 62
       7
  5
F8
 10
101.12036297
 20
4.0880195
 30
0.0
 11
98.62829945
 21
4.0880195
 31
0.0
  0
LINE
  8
0
  6
CONTINUOUS
 62
       7
  5
F9
 10
101.37433122
 20
3.13563854
 30
0.0
 11
101.12036297
 21
4.0880195
 31
0.0
  0
LINE
  8
0
  6
CONTINUOUS
 62
       7
  5
FA
 10
98.3743312
 20
3.13563854
 30
0.0
 11
98.62829945
 21
4.0880195
 31
0.0
  0
LINE
  8
0
  6
CONTINUOUS
 62
       7
  5
FB
 10
98.3743312
 20
-1.41991705
 30
0.0
 11
154.37432999
 21
-1.41991705
 31
0.0
  0
LINE
  8
0
  6
CONTINUOUS
 62
       7
  5
FC
 10
98.3743312
 20
-9.41991711
 30
0.0
 11
154.37432999
 21
-9.41991711
 31
0.0
  0
LINE
  8
0
  6
CONTINUOUS
 62
       7
  5
FD
 10
169.12036185
 20
-7.94372663
 30
0.0
 11
166.62829833
 21
-7.94372663
 31
0.0
  0
LINE
  8
0
  6
CONTINUOUS
 62
       7
  5
FE
 10
166.37433008
 20
-14.41991715
 30
0.0
 11
166.37433008
 21
7.58008302
 31
0.0
  0
LINE
  8
0
  6
CONTINUOUS
 62
       7
  5
FF
 10
166.37433008
 20
-6.99134567
 30
0.0
 11
166.62829833
 21
-7.94372663
 31
0.0
  0
LINE
  8
0
  6
CONTINUOUS
 62
       7
  5
100
 10
169.3743301
 20
-6.99134567
 30
0.0
 11
169.12036185
 21
-7.94372663
 31
0.0
  0
LINE
  8
0
  6
CONTINUOUS
 62
       7
  5
101
 10
169.3743301
 20
-1.92785356
 30
0.0
 11
169.3743301
 21
-6.99134567
 31
0.0
  0
LINE
  8
0
  6
CONTINUOUS
 62
       7
  5
102
 10
169.12036185
 20
-1.92785356
 30
0.0
 11
166.62829833
 21
-1.92785356
 31
0.0
  0
LINE
  8
0
  6
CONTINUOUS
 62
       7
  5
103
 10
166.37433008
 20
3.13563854
 30
0.0
 11
166.62829833
 21
4.0880195
 31
0.0
  0
LINE
  8
0
  6
CONTINUOUS
 62
       7
  5
104
 10
169.12036185
 20
4.0880195
 30
0.0
 11
166.62829833
 21
4.0880195
 31
0.0
  0
LINE
  8
0
  6
CONTINUOUS
 62
       7
  5
105
 10
169.3743301
 20
3.13563854
 30
0.0
 11
169.12036185
 21
4.0880195
 31
0.0
  0
LINE
  8
0
  6
CONTINUOUS
 62
       7
  5
106
 10
169.3743301
 20
-1.92785356
 30
0.0
 11
169.3743301
 21
3.13563854
 31
0.0
  0
LINE
  8
0
  6
CONTINUOUS
 62
       2
  5
107
 10
-18.62566969
 20
-0.92785356
 30
0.0
 11
-18.62566969
 21
-9.92785363
 31
0.0
  0
LINE
  8
0
  6
CONTINUOUS
 62
       2
  5
108
 10
79.37433105
 20
-0.92785356
 30
0.0
 11
79.37433105
 21
-9.92785363
 31
0.0
  0
LINE
  8
0
  6
CONTINUOUS
 62
       7
  5
109
 10
154.37432999
 20
3.07214647
 30
0.0
 11
151.86639346
 21
3.07214647
 31
0.0
  0
LINE
  8
0
  6
CONTINUOUS
 62
       2
  5
10A
 10
154.37432999
 20
2.53246393
 30
0.0
 11
151.37432996
 21
2.53246393
 31
0.0
  0
LINE
  8
0
  6
CONTINUOUS
 62
       7
  5
10B
 10
151.37432996
 20
2.58008298
 30
0.0
 11
151.86639346
 21
3.07214647
 31
0.0
  0
LINE
  8
0
  6
CONTINUOUS
 62
       7
  5
10C
 10
151.86639346
 20
3.07214647
 30
0.0
 11
151.86639346
 21
-1.41991705
 31
0.0
  0
LINE
  8
0
  6
CONTINUOUS
 62
       7
  5
10D
 10
151.37432996
 20
2.58008298
 30
0.0
 11
151.37432996
 21
-1.41991705
 31
0.0
  0
LINE
  8
0
  6
CONTINUOUS
 62
       7
  5
10E
 10
175.56480634
 20
3.07214647
 30
0.0
 11
169.3743301
 21
3.07214647
 31
0.0
  0
LINE
  8
0
  6
CONTINUOUS
 62
       2
  5
10F
 10
175.88226666
 20
2.53246393
 30
0.0
 11
169.3743301
 21
2.53246393
 31
0.0
  0
LINE
  8
0
  6
CONTINUOUS
 62
       7
  5
110
 10
175.56480634
 20
3.07214647
 30
0.0
 11
176.37433015
 21
1.69119408
 31
0.0
  0
LINE
  8
0
  6
CONTINUOUS
 62
       7
  5
111
 10
175.56480634
 20
3.07214647
 30
0.0
 11
175.56480634
 21
-6.9278536
 31
0.0
  0
LINE
  8
0
  6
CONTINUOUS
 62
       7
  5
112
 10
176.37433015
 20
1.69119408
 30
0.0
 11
176.37433015
 21
-5.54690121
 31
0.0
  0
LINE
  8
0
  6
CONTINUOUS
 62
       7
  5
113
 10
175.56480634
 20
-6.9278536
 30
0.0
 11
176.37433015
 21
-5.54690121
 31
0.0
  0
LINE
  8
0
  6
CONTINUOUS
 62
       2
  5
114
 10
175.88226666
 20
-6.38817106
 30
0.0
 11
169.3743301
 21
-6.38817106
 31
0.0
  0
LINE
  8
0
  6
CONTINUOUS
 62
       7
  5
115
 10
175.56480634
 20
-6.9278536
 30
0.0
 11
169.3743301
 21
-6.9278536
 31
0.0
  0
LINE
  8
0
  6
CONTINUOUS
 62
       7
  5
116
 10
-37.62566983
 20
-15.41991716
 30
0.0
 11
98.3743312
 21
-15.41991716
 31
0.0
  0
LINE
  8
0
  6
CONTINUOUS
 62
       2
  5
117
 10
-42.62566987
 20
-4.41991708
 30
0.0
 11
-37.62566983
 21
-4.41991708
 31
0.0
  0
LINE
  8
0
  6
CONTINUOUS
 62
       2
  5
118
 10
154.37432999
 20
-4.41991708
 30
0.0
 11
159.37433003
 21
-4.41991708
 31
0.0
  0
LINE
  8
0
  6
CONTINUOUS
 62
       2
  5
119
 10
-40.13360636
 20
-6.9278536
 30
0.0
 11
-40.13360636
 21
-1.92785356
 31
0.0
  0
LINE
  8
0
  6
CONTINUOUS
 62
       2
  5
11A
 10
156.8663935
 20
-6.9278536
 30
0.0
 11
156.8663935
 21
-1.92785356
 31
0.0
  0
LINE
  8
0
  6
CONTINUOUS
 62
       2
  5
11B
 10
149.64417122
 20
-1.92785356
 30
0.0
 11
179.21560002
 21
-1.92785356
 31
0.0
  0
LINE
  8
0
  6
CONTINUOUS
 62
       7
  5
11C
 10
-49.62566992
 20
-14.41991715
 30
0.0
 11
-37.62566983
 21
-14.41991715
 31
0.0
  0
LINE
  8
0
  6
CONTINUOUS
 62
       7
  5
11D
 10
-49.62566992
 20
7.58008302
 30
0.0
 11
-37.62566983
 21
7.58008302
 31
0.0
  0
LINE
  8
0
  6
CONTINUOUS
 62
       7
  5
11E
 10
-5.63360617
 20
13.58008306
 30
0.0
 11
2.69972723
 21
13.58008306
 31
0.0
  0
LINE
  8
0
  6
CONTINUOUS
 62
       7
  5
11F
 10
-5.63360617
 20
13.58008306
 30
0.0
 11
-5.63360617
 21
5.580083
 31
0.0
  0
LINE
  8
0
  6
CONTINUOUS
 62
       7
  5
120
 10
16.366394
 20
13.58008306
 30
0.0
 11
16.366394
 21
5.580083
 31
0.0
  0
LINE
  8
0
  6
CONTINUOUS
 62
       7
  5
121
 10
-5.63360617
 20
12.58008305
 30
0.0
 11
16.366394
 21
12.58008305
 31
0.0
  0
LINE
  8
0
  6
CONTINUOUS
 62
       7
  5
122
 10
9.87433046
 20
12.58008305
 30
0.0
 11
9.87433046
 21
5.580083
 31
0.0
  0
LINE
  8
0
  6
CONTINUOUS
 62
       7
  5
123
 10
0.87433039
 20
12.58008305
 30
0.0
 11
0.87433039
 21
5.580083
 31
0.0
  0
LINE
  8
0
  6
CONTINUOUS
 62
       7
  5
124
 10
8.87433045
 20
15.58008308
 30
0.0
 11
8.87433045
 21
13.58008306
 31
0.0
  0
LINE
  8
0
  6
CONTINUOUS
 62
       7
  5
125
 10
9.76321934
 20
20.77055931
 30
0.0
 11
9.76321934
 21
15.58008308
 31
0.0
  0
LINE
  8
0
  6
CONTINUOUS
 62
       7
  5
126
 10
12.96956858
 20
20.77055931
 30
0.0
 11
12.96956858
 21
15.58008308
 31
0.0
  0
LINE
  8
0
  6
CONTINUOUS
 62
       7
  5
127
 10
13.87433049
 20
15.58008308
 30
0.0
 11
13.87433049
 21
13.58008306
 31
0.0
  0
LINE
  8
0
  6
CONTINUOUS
 62
       7
  5
128
 10
8.87433045
 20
15.58008308
 30
0.0
 11
13.87433049
 21
15.58008308
 31
0.0
  0
LINE
  8
0
  6
CONTINUOUS
 62
       7
  5
129
 10
8.87433045
 20
7.58008302
 30
0.0
 11
8.87433045
 21
5.580083
 31
0.0
  0
LINE
  8
0
  6
CONTINUOUS
 62
       7
  5
12A
 10
1.8743304
 20
7.58008302
 30
0.0
 11
1.8743304
 21
5.580083
 31
0.0
  0
LINE
  8
0
  6
CONTINUOUS
 62
       2
  5
12B
 10
11.36639396
 20
22.73881329
 30
0.0
 11
11.36639396
 21
11.51659098
 31
0.0
  0
LINE
  8
0
  6
CONTINUOUS
 62
       7
  5
12C
 10
2.36639389
 20
13.07214655
 30
0.0
 11
8.36639394
 21
13.07214655
 31
0.0
  0
LINE
  8
0
  6
CONTINUOUS
 62
       7
  5
12D
 10
8.36639394
 20
13.07214655
 30
0.0
 11
8.36639394
 21
12.58008305
 31
0.0
  0
LINE
  8
0
  6
CONTINUOUS
 62
       7
  5
12E
 10
2.36639389
 20
13.07214655
 30
0.0
 11
2.36639389
 21
12.58008305
 31
0.0
  0
LINE
  8
0
  6
CONTINUOUS
 62
       7
  5
12F
 10
2.62036215
 20
13.07214655
 30
0.0
 11
2.65210818
 21
13.40547988
 31
0.0
  0
LINE
  8
0
  6
CONTINUOUS
 62
       7
  5
130
 10
8.11242568
 20
13.07214655
 30
0.0
 11
8.08067965
 21
13.40547988
 31
0.0
  0
LINE
  8
0
  6
CONTINUOUS
 62
       7
  5
131
 10
8.0330606
 20
13.58008306
 30
0.0
 11
16.366394
 21
13.58008306
 31
0.0
  0
LINE
  8
0
  6
CONTINUOUS
 62
       7
  5
132
 10
1.8743304
 20
7.58008302
 30
0.0
 11
8.87433045
 21
7.58008302
 31
0.0
  0
LINE
  8
0
  6
CONTINUOUS
 62
       7
  5
133
 10
44.36639383
 20
13.58008306
 30
0.0
 11
52.69972723
 21
13.58008306
 31
0.0
  0
LINE
  8
0
  6
CONTINUOUS
 62
       7
  5
134
 10
44.36639383
 20
13.58008306
 30
0.0
 11
44.36639383
 21
5.580083
 31
0.0
  0
LINE
  8
0
  6
CONTINUOUS
 62
       7
  5
135
 10
66.366394
 20
13.58008306
 30
0.0
 11
66.366394
 21
5.580083
 31
0.0
  0
LINE
  8
0
  6
CONTINUOUS
 62
       7
  5
136
 10
44.36639383
 20
12.58008305
 30
0.0
 11
66.366394
 21
12.58008305
 31
0.0
  0
LINE
  8
0
  6
CONTINUOUS
 62
       7
  5
137
 10
59.87433046
 20
12.58008305
 30
0.0
 11
59.87433046
 21
5.580083
 31
0.0
  0
LINE
  8
0
  6
CONTINUOUS
 62
       7
  5
138
 10
50.87433039
 20
12.58008305
 30
0.0
 11
50.87433039
 21
5.580083
 31
0.0
  0
LINE
  8
0
  6
CONTINUOUS
 62
       7
  5
139
 10
58.87433045
 20
15.58008308
 30
0.0
 11
58.87433045
 21
13.58008306
 31
0.0
  0
LINE
  8
0
  6
CONTINUOUS
 62
       7
  5
13A
 10
59.76321934
 20
20.77055931
 30
0.0
 11
59.76321934
 21
15.58008308
 31
0.0
  0
LINE
  8
0
  6
CONTINUOUS
 62
       7
  5
13B
 10
62.96956858
 20
20.77055931
 30
0.0
 11
62.96956858
 21
15.58008308
 31
0.0
  0
LINE
  8
0
  6
CONTINUOUS
 62
       7
  5
13C
 10
63.87433049
 20
15.58008308
 30
0.0
 11
63.87433049
 21
13.58008306
 31
0.0
  0
LINE
  8
0
  6
CONTINUOUS
 62
       7
  5
13D
 10
58.87433045
 20
15.58008308
 30
0.0
 11
63.87433049
 21
15.58008308
 31
0.0
  0
LINE
  8
0
  6
CONTINUOUS
 62
       7
  5
13E
 10
58.87433045
 20
7.58008302
 30
0.0
 11
58.87433045
 21
5.580083
 31
0.0
  0
LINE
  8
0
  6
CONTINUOUS
 62
       7
  5
13F
 10
51.8743304
 20
7.58008302
 30
0.0
 11
51.8743304
 21
5.580083
 31
0.0
  0
LINE
  8
0
  6
CONTINUOUS
 62
       2
  5
140
 10
61.36639396
 20
22.73881329
 30
0.0
 11
61.36639396
 21
11.51659098
 31
0.0
  0
LINE
  8
0
  6
CONTINUOUS
 62
       7
  5
141
 10
52.36639389
 20
13.07214655
 30
0.0
 11
58.36639394
 21
13.07214655
 31
0.0
  0
LINE
  8
0
  6
CONTINUOUS
 62
       7
  5
142
 10
58.36639394
 20
13.07214655
 30
0.0
 11
58.36639394
 21
12.58008305
 31
0.0
  0
LINE
  8
0
  6
CONTINUOUS
 62
       7
  5
143
 10
52.36639389
 20
13.07214655
 30
0.0
 11
52.36639389
 21
12.58008305
 31
0.0
  0
LINE
  8
0
  6
CONTINUOUS
 62
       7
  5
144
 10
52.62036215
 20
13.07214655
 30
0.0
 11
52.65210818
 21
13.40547988
 31
0.0
  0
LINE
  8
0
  6
CONTINUOUS
 62
       7
  5
145
 10
58.11242568
 20
13.07214655
 30
0.0
 11
58.09655267
 21
13.40547988
 31
0.0
  0
LINE
  8
0
  6
CONTINUOUS
 62
       7
  5
146
 10
58.0330606
 20
13.58008306
 30
0.0
 11
66.366394
 21
13.58008306
 31
0.0
  0
LINE
  8
0
  6
CONTINUOUS
 62
       7
  5
147
 10
51.8743304
 20
7.58008302
 30
0.0
 11
58.87433045
 21
7.58008302
 31
0.0
  0
LINE
  8
0
  6
CONTINUOUS
 62
       7
  5
148
 10
-49.62566992
 20
7.58008302
 30
0.0
 11
-49.62566992
 21
-14.41991715
 31
0.0
  0
LINE
  8
0
  6
CONTINUOUS
 62
       7
  5
149
 10
67.86639446
 20
4.07214648
 30
0.0
 11
67.86639446
 21
-11.16594887
 31
0.0
  0
LINE
  8
0
  6
CONTINUOUS
 62
       7
  5
14A
 10
54.86639436
 20
4.07214648
 30
0.0
 11
54.86639436
 21
2.83405123
 31
0.0
  0
LINE
  8
0
  6
CONTINUOUS
 62
       7
  5
14B
 10
54.86639436
 20
-14.92785366
 30
0.0
 11
64.10448967
 21
-14.92785366
 31
0.0
  0
LINE
  8
0
  6
CONTINUOUS
 62
       7
  5
14C
 10
54.86639436
 20
4.07214648
 30
0.0
 11
56.10448961
 21
4.07214648
 31
0.0
  0
LINE
  8
0
  6
CONTINUOUS
 62
       7
  5
14D
 10
54.86639436
 20
64.7388133
 30
0.0
 11
67.86639446
 21
64.7388133
 31
0.0
  0
LINE
  8
0
  6
CONTINUOUS
 62
       7
  5
14E
 10
54.86639436
 20
64.7388133
 30
0.0
 11
54.86639436
 21
65.65944823
 31
0.0
  0
LINE
  8
0
  6
CONTINUOUS
 62
       7
  5
14F
 10
60.37433091
 20
64.7388133
 30
0.0
 11
60.37433091
 21
65.81817839
 31
0.0
  0
LINE
  8
0
  6
CONTINUOUS
 62
       7
  5
150
 10
58.62829915
 20
4.07214648
 30
0.0
 11
67.86639446
 21
4.07214648
 31
0.0
  0
LINE
  8
0
  6
CONTINUOUS
 62
       7
  5
151
 10
54.86639436
 20
0.31024169
 30
0.0
 11
54.86639436
 21
-14.92785366
 31
0.0
  0
LINE
  8
0
  6
CONTINUOUS
 62
       7
  5
152
 10
67.86639446
 20
-13.68975842
 30
0.0
 11
67.86639446
 21
-14.92785366
 31
0.0
  0
LINE
  8
0
  6
CONTINUOUS
 62
       7
  5
153
 10
66.62829921
 20
-14.92785366
 30
0.0
 11
67.86639446
 21
-14.92785366
 31
0.0
  0
LINE
  8
0
  6
CONTINUOUS
 62
       7
  5
154
 10
-37.62566983
 20
-16.41991717
 30
0.0
 11
-37.62566983
 21
-14.41991715
 31
0.0
  0
ARC
  8
0
  6
CONTINUOUS
 62
       7
  5
155
 10
83.4559181
 20
1.13006055
 30
0.0
 40
17.91039178
 50
351.81474597
 51
9.50613568
  0
ARC
  8
0
  6
CONTINUOUS
 62
       7
  5
156
 10
116.29203217
 20
1.07895878
 30
0.0
 40
17.91820024
 50
170.33232735
 51
188.01661171
  0
ARC
  8
0
  6
CONTINUOUS
 62
       7
  5
157
 10
184.29217414
 20
-4.9357901
 30
0.0
 40
17.91815255
 50
170.33594787
 51
189.66405213
  0
ARC
  8
0
  6
CONTINUOUS
 62
       7
  5
158
 10
151.45642016
 20
-4.9357901
 30
0.0
 40
17.91821749
 50
350.33598323
 51
9.66401677
  0
ARC
  8
0
  6
CONTINUOUS
 62
       7
  5
159
 10
184.29217549
 20
1.08008297
 30
0.0
 40
17.91815388
 50
170.33594859
 51
189.66405141
  0
ARC
  8
0
  6
CONTINUOUS
 62
       7
  5
15A
 10
151.45641881
 20
1.08008297
 30
0.0
 40
17.91821882
 50
350.33598395
 51
9.66401605
  0
CIRCLE
  8
0
  6
CONTINUOUS
 62
       2
  5
15B
 10
-40.12569019
 20
-4.41992386
 30
0.0
 40
1.5
  0
CIRCLE
  8
0
  6
CONTINUOUS
 62
       2
  5
15C
 10
156.8663935
 20
-4.41991708
 30
0.0
 40
1.5
  0
CIRCLE
  8
0
  6
CONTINUOUS
 62
       7
  5
15D
 10
-40.12569019
 20
-4.41992386
 30
0.0
 40
1.31050009
  0
CIRCLE
  8
0
  6
CONTINUOUS
 62
       7
  5
15E
 10
156.8663935
 20
-4.41991708
 30
0.0
 40
1.31050009
  0
ARC
  8
0
  6
CONTINUOUS
 62
       7
  5
15F
 10
5.36639391
 20
7.58006806
 30
0.0
 40
6.99518962
 50
73.2509795
 51
106.7490205
  0
ARC
  8
0
  6
CONTINUOUS
 62
       7
  5
160
 10
3.64797504
 20
13.32465942
 30
0.0
 40
0.99914101
 50
107.3201055
 51
175.36027799
  0
ARC
  8
0
  6
CONTINUOUS
 62
       7
  5
161
 10
7.09446829
 20
13.33238382
 30
0.0
 40
0.98891652
 50
4.2389008
 51
73.08071571
  0
ARC
  8
0
  6
CONTINUOUS
 62
       7
  5
162
 10
55.36639391
 20
7.58006806
 30
0.0
 40
6.99518962
 50
73.2509795
 51
106.7490205
  0
ARC
  8
0
  6
CONTINUOUS
 62
       7
  5
163
 10
53.64797504
 20
13.32465942
 30
0.0
 40
0.99914101
 50
107.3201055
 51
175.36027799
  0
ARC
  8
0
  6
CONTINUOUS
 62
       7
  5
164
 10
57.10326772
 20
13.32150793
 30
0.0
 40
0.99682811
 50
4.83227433
 51
73.7465394
  0
CIRCLE
  8
0
  6
CONTINUOUS
 62
       2
  5
165
 10
-18.62566872
 20
-5.41993162
 30
0.0
 40
2.49999972
  0
CIRCLE
  8
0
  6
CONTINUOUS
 62
       2
  5
166
 10
79.37431652
 20
-5.41993162
 30
0.0
 40
2.49999972
  0
CIRCLE
  8
0
  6
CONTINUOUS
 62
       7
  5
167
 10
-18.62566872
 20
-5.41993162
 30
0.0
 40
2.09999994
  0
CIRCLE
  8
0
  6
CONTINUOUS
 62
       7
  5
168
 10
79.37431652
 20
-5.41993162
 30
0.0
 40
2.09999994
  0
CIRCLE
  8
0
  6
CONTINUOUS
 62
       7
  5
169
 10
61.3743222
 20
-5.41993162
 30
0.0
 40
1.74999995
  0
CIRCLE
  8
0
  6
CONTINUOUS
 62
       7
  5
16A
 10
57.37431539
 20
1.58007425
 30
0.0
 40
2.79999992
  0
CIRCLE
  8
0
  6
CONTINUOUS
 62
       7
  5
16B
 10
65.37430479
 20
-12.41991326
 30
0.0
 40
2.79999992
  0
ARC
  8
0
  6
CONTINUOUS
 62
       7
  5
16C
 10
57.61242613
 20
69.8467513
 30
0.0
 40
5.00793252
 50
240.57498515
 51
299.42501485
  0
ARC
  8
0
  6
CONTINUOUS
 62
       7
  5
16D
 10
57.37494635
 20
1.57857241
 30
0.0
 40
3.49144838
 50
0.02478869
 51
45.57724393
  0
ARC
  8
0
  6
CONTINUOUS
 62
       7
  5
16E
 10
65.3663793
 20
-12.42783851
 30
0.0
 40
3.50202427
 50
44.44874577
 51
225.55125423
  0
ARC
  8
0
  6
CONTINUOUS
 62
       7
  5
16F
 10
57.36374244
 20
1.5757464
 30
0.0
 40
3.50265465
 50
224.52151188
 51
0.07093686
  0
POLYLINE
  8
0
  6
CONTINUOUS
 62
       7
  5
170
 66
       1
 10
0.0
 20
0.0
 30
0.0
  0
VERTEX
  8
0
  6
CONTINUOUS
 62
       7
  5
287
 10
9.76321934
 20
20.77055931
 30
0.0
  0
VERTEX
  8
0
  6
CONTINUOUS
 62
       7
  5
288
 10
9.7738802
 20
20.72893691
 30
0.0
  0
VERTEX
  8
0
  6
CONTINUOUS
 62
       7
  5
289
 10
9.78628599
 20
20.68711083
 30
0.0
  0
VERTEX
  8
0
  6
CONTINUOUS
 62
       7
  5
28A
 10
9.80041015
 20
20.64529352
 30
0.0
  0
VERTEX
  8
0
  6
CONTINUOUS
 62
       7
  5
28B
 10
9.81622608
 20
20.60369742
 30
0.0
  0
VERTEX
  8
0
  6
CONTINUOUS
 62
       7
  5
28C
 10
9.8337072
 20
20.56253499
 30
0.0
  0
VERTEX
  8
0
  6
CONTINUOUS
 62
       7
  5
28D
 10
9.85282692
 20
20.52201867
 30
0.0
  0
VERTEX
  8
0
  6
CONTINUOUS
 62
       7
  5
28E
 10
9.87355867
 20
20.48236092
 30
0.0
  0
VERTEX
  8
0
  6
CONTINUOUS
 62
       7
  5
28F
 10
9.89587585
 20
20.44377418
 30
0.0
  0
VERTEX
  8
0
  6
CONTINUOUS
 62
       7
  5
290
 10
9.91975187
 20
20.40647091
 30
0.0
  0
VERTEX
  8
0
  6
CONTINUOUS
 62
       7
  5
291
 10
9.94516017
 20
20.37066355
 30
0.0
  0
VERTEX
  8
0
  6
CONTINUOUS
 62
       7
  5
292
 10
9.97207414
 20
20.33656455
 30
0.0
  0
VERTEX
  8
0
  6
CONTINUOUS
 62
       7
  5
293
 10
10.0004672
 20
20.30438637
 30
0.0
  0
VERTEX
  8
0
  6
CONTINUOUS
 62
       7
  5
294
 10
10.03031278
 20
20.27434144
 30
0.0
  0
VERTEX
  8
0
  6
CONTINUOUS
 62
       7
  5
295
 10
10.06158428
 20
20.24664223
 30
0.0
  0
VERTEX
  8
0
  6
CONTINUOUS
 62
       7
  5
296
 10
10.09425512
 20
20.22150117
 30
0.0
  0
VERTEX
  8
0
  6
CONTINUOUS
 62
       7
  5
297
 10
10.12829871
 20
20.19913073
 30
0.0
  0
VERTEX
  8
0
  6
CONTINUOUS
 62
       7
  5
298
 10
10.16908476
 20
20.17724176
 30
0.0
  0
VERTEX
  8
0
  6
CONTINUOUS
 62
       7
  5
299
 10
10.21168267
 20
20.15939231
 30
0.0
  0
VERTEX
  8
0
  6
CONTINUOUS
 62
       7
  5
29A
 10
10.25592776
 20
20.14534216
 30
0.0
  0
VERTEX
  8
0
  6
CONTINUOUS
 62
       7
  5
29B
 10
10.30165535
 20
20.1348511
 30
0.0
  0
VERTEX
  8
0
  6
CONTINUOUS
 62
       7
  5
29C
 10
10.34870075
 20
20.12767893
 30
0.0
  0
VERTEX
  8
0
  6
CONTINUOUS
 62
       7
  5
29D
 10
10.39689927
 20
20.12358542
 30
0.0
  0
VERTEX
  8
0
  6
CONTINUOUS
 62
       7
  5
29E
 10
10.44608625
 20
20.12233038
 30
0.0
  0
VERTEX
  8
0
  6
CONTINUOUS
 62
       7
  5
29F
 10
10.49609699
 20
20.12367358
 30
0.0
  0
VERTEX
  8
0
  6
CONTINUOUS
 62
       7
  5
2A0
 10
10.54676681
 20
20.12737481
 30
0.0
  0
VERTEX
  8
0
  6
CONTINUOUS
 62
       7
  5
2A1
 10
10.59793103
 20
20.13319388
 30
0.0
  0
VERTEX
  8
0
  6
CONTINUOUS
 62
       7
  5
2A2
 10
10.64942496
 20
20.14089055
 30
0.0
  0
VERTEX
  8
0
  6
CONTINUOUS
 62
       7
  5
2A3
 10
10.70108393
 20
20.15022463
 30
0.0
  0
VERTEX
  8
0
  6
CONTINUOUS
 62
       7
  5
2A4
 10
10.75274325
 20
20.16095589
 30
0.0
  0
VERTEX
  8
0
  6
CONTINUOUS
 62
       7
  5
2A5
 10
10.80423824
 20
20.17284414
 30
0.0
  0
VERTEX
  8
0
  6
CONTINUOUS
 62
       7
  5
2A6
 10
10.85540422
 20
20.18564916
 30
0.0
  0
VERTEX
  8
0
  6
CONTINUOUS
 62
       7
  5
2A7
 10
10.9060765
 20
20.19913073
 30
0.0
  0
VERTEX
  8
0
  6
CONTINUOUS
 62
       7
  5
2A8
 10
10.95926211
 20
20.21393709
 30
0.0
  0
VERTEX
  8
0
  6
CONTINUOUS
 62
       7
  5
2A9
 10
11.01153849
 20
20.2290898
 30
0.0
  0
VERTEX
  8
0
  6
CONTINUOUS
 62
       7
  5
2AA
 10
11.06296976
 20
20.24460181
 30
0.0
  0
VERTEX
  8
0
  6
CONTINUOUS
 62
       7
  5
2AB
 10
11.11362007
 20
20.26048606
 30
0.0
  0
VERTEX
  8
0
  6
CONTINUOUS
 62
       7
  5
2AC
 10
11.16355355
 20
20.27675551
 30
0.0
  0
VERTEX
  8
0
  6
CONTINUOUS
 62
       7
  5
2AD
 10
11.21283434
 20
20.2934231
 30
0.0
  0
VERTEX
  8
0
  6
CONTINUOUS
 62
       7
  5
2AE
 10
11.26152657
 20
20.31050177
 30
0.0
  0
VERTEX
  8
0
  6
CONTINUOUS
 62
       7
  5
2AF
 10
11.30969438
 20
20.32800447
 30
0.0
  0
VERTEX
  8
0
  6
CONTINUOUS
 62
       7
  5
2B0
 10
11.35740192
 20
20.34594416
 30
0.0
  0
VERTEX
  8
0
  6
CONTINUOUS
 62
       7
  5
2B1
 10
11.4047133
 20
20.36433378
 30
0.0
  0
VERTEX
  8
0
  6
CONTINUOUS
 62
       7
  5
2B2
 10
11.45169269
 20
20.38318627
 30
0.0
  0
VERTEX
  8
0
  6
CONTINUOUS
 62
       7
  5
2B3
 10
11.4984042
 20
20.40251458
 30
0.0
  0
VERTEX
  8
0
  6
CONTINUOUS
 62
       7
  5
2B4
 10
11.54491198
 20
20.42233167
 30
0.0
  0
VERTEX
  8
0
  6
CONTINUOUS
 62
       7
  5
2B5
 10
11.59128016
 20
20.44265047
 30
0.0
  0
VERTEX
  8
0
  6
CONTINUOUS
 62
       7
  5
2B6
 10
11.63757288
 20
20.46348394
 30
0.0
  0
VERTEX
  8
0
  6
CONTINUOUS
 62
       7
  5
2B7
 10
11.68385428
 20
20.48484502
 30
0.0
  0
VERTEX
  8
0
  6
CONTINUOUS
 62
       7
  5
2B8
 10
11.72553319
 20
20.50455952
 30
0.0
  0
VERTEX
  8
0
  6
CONTINUOUS
 62
       7
  5
2B9
 10
11.76720316
 20
20.52467277
 30
0.0
  0
VERTEX
  8
0
  6
CONTINUOUS
 62
       7
  5
2BA
 10
11.8088941
 20
20.54507461
 30
0.0
  0
VERTEX
  8
0
  6
CONTINUOUS
 62
       7
  5
2BB
 10
11.85063591
 20
20.56565485
 30
0.0
  0
VERTEX
  8
0
  6
CONTINUOUS
 62
       7
  5
2BC
 10
11.89245852
 20
20.58630334
 30
0.0
  0
VERTEX
  8
0
  6
CONTINUOUS
 62
       7
  5
2BD
 10
11.93439182
 20
20.6069099
 30
0.0
  0
VERTEX
  8
0
  6
CONTINUOUS
 62
       7
  5
2BE
 10
11.97646574
 20
20.62736437
 30
0.0
  0
VERTEX
  8
0
  6
CONTINUOUS
 62
       7
  5
2BF
 10
12.01871019
 20
20.64755657
 30
0.0
  0
VERTEX
  8
0
  6
CONTINUOUS
 62
       7
  5
2C0
 10
12.06115507
 20
20.66737634
 30
0.0
  0
VERTEX
  8
0
  6
CONTINUOUS
 62
       7
  5
2C1
 10
12.10383029
 20
20.6867135
 30
0.0
  0
VERTEX
  8
0
  6
CONTINUOUS
 62
       7
  5
2C2
 10
12.14676578
 20
20.70545789
 30
0.0
  0
VERTEX
  8
0
  6
CONTINUOUS
 62
       7
  5
2C3
 10
12.18999143
 20
20.72349934
 30
0.0
  0
VERTEX
  8
0
  6
CONTINUOUS
 62
       7
  5
2C4
 10
12.23353717
 20
20.74072767
 30
0.0
  0
VERTEX
  8
0
  6
CONTINUOUS
 62
       7
  5
2C5
 10
12.27743289
 20
20.75703273
 30
0.0
  0
VERTEX
  8
0
  6
CONTINUOUS
 62
       7
  5
2C6
 10
12.32170852
 20
20.77230433
 30
0.0
  0
VERTEX
  8
0
  6
CONTINUOUS
 62
       7
  5
2C7
 10
12.36639397
 20
20.78643232
 30
0.0
  0
VERTEX
  8
0
  6
CONTINUOUS
 62
       7
  5
2C8
 10
12.40797234
 20
20.79842669
 30
0.0
  0
VERTEX
  8
0
  6
CONTINUOUS
 62
       7
  5
2C9
 10
12.44976254
 20
20.80946025
 30
0.0
  0
VERTEX
  8
0
  6
CONTINUOUS
 62
       7
  5
2CA
 10
12.49175006
 20
20.81956625
 30
0.0
  0
VERTEX
  8
0
  6
CONTINUOUS
 62
       7
  5
2CB
 10
12.53392036
 20
20.82877795
 30
0.0
  0
VERTEX
  8
0
  6
CONTINUOUS
 62
       7
  5
2CC
 10
12.57625892
 20
20.83712862
 30
0.0
  0
VERTEX
  8
0
  6
CONTINUOUS
 62
       7
  5
2CD
 10
12.61875121
 20
20.84465151
 30
0.0
  0
VERTEX
  8
0
  6
CONTINUOUS
 62
       7
  5
2CE
 10
12.6613827
 20
20.8513799
 30
0.0
  0
VERTEX
  8
0
  6
CONTINUOUS
 62
       7
  5
2CF
 10
12.70413888
 20
20.85734703
 30
0.0
  0
VERTEX
  8
0
  6
CONTINUOUS
 62
       7
  5
2D0
 10
12.74700521
 20
20.86258618
 30
0.0
  0
VERTEX
  8
0
  6
CONTINUOUS
 62
       7
  5
2D1
 10
12.78996717
 20
20.86713059
 30
0.0
  0
VERTEX
  8
0
  6
CONTINUOUS
 62
       7
  5
2D2
 10
12.83301023
 20
20.87101354
 30
0.0
  0
VERTEX
  8
0
  6
CONTINUOUS
 62
       7
  5
2D3
 10
12.87611987
 20
20.87426828
 30
0.0
  0
VERTEX
  8
0
  6
CONTINUOUS
 62
       7
  5
2D4
 10
12.91928155
 20
20.87692808
 30
0.0
  0
VERTEX
  8
0
  6
CONTINUOUS
 62
       7
  5
2D5
 10
12.96248077
 20
20.8790262
 30
0.0
  0
VERTEX
  8
0
  6
CONTINUOUS
 62
       7
  5
2D6
 10
13.00570297
 20
20.88059589
 30
0.0
  0
VERTEX
  8
0
  6
CONTINUOUS
 62
       7
  5
2D7
 10
13.04893366
 20
20.88167042
 30
0.0
  0
SEQEND
  8
0
  6
CONTINUOUS
 62
       7
  5
2D8
  0
POLYLINE
  8
0
  6
CONTINUOUS
 62
       7
  5
171
 66
       1
 10
0.0
 20
0.0
 30
0.0
  0
VERTEX
  8
0
  6
CONTINUOUS
 62
       7
  5
2D9
 10
59.76321934
 20
20.77055931
 30
0.0
  0
VERTEX
  8
0
  6
CONTINUOUS
 62
       7
  5
2DA
 10
59.77388014
 20
20.72893694
 30
0.0
  0
VERTEX
  8
0
  6
CONTINUOUS
 62
       7
  5
2DB
 10
59.78628578
 20
20.68711096
 30
0.0
  0
VERTEX
  8
0
  6
CONTINUOUS
 62
       7
  5
2DC
 10
59.80040969
 20
20.64529379
 30
0.0
  0
VERTEX
  8
0
  6
CONTINUOUS
 62
       7
  5
2DD
 10
59.81622532
 20
20.60369787
 30
0.0
  0
VERTEX
  8
0
  6
CONTINUOUS
 62
       7
  5
2DE
 10
59.83370611
 20
20.56253564
 30
0.0
  0
VERTEX
  8
0
  6
CONTINUOUS
 62
       7
  5
2DF
 10
59.8528255
 20
20.52201953
 30
0.0
  0
VERTEX
  8
0
  6
CONTINUOUS
 62
       7
  5
2E0
 10
59.87355692
 20
20.48236197
 30
0.0
  0
VERTEX
  8
0
  6
CONTINUOUS
 62
       7
  5
2E1
 10
59.89587382
 20
20.4437754
 30
0.0
  0
VERTEX
  8
0
  6
CONTINUOUS
 62
       7
  5
2E2
 10
59.91974962
 20
20.40647226
 30
0.0
  0
VERTEX
  8
0
  6
CONTINUOUS
 62
       7
  5
2E3
 10
59.94515778
 20
20.37066498
 30
0.0
  0
VERTEX
  8
0
  6
CONTINUOUS
 62
       7
  5
2E4
 10
59.97207173
 20
20.33656599
 30
0.0
  0
VERTEX
  8
0
  6
CONTINUOUS
 62
       7
  5
2E5
 10
60.00046492
 20
20.30438774
 30
0.0
  0
VERTEX
  8
0
  6
CONTINUOUS
 62
       7
  5
2E6
 10
60.03031076
 20
20.27434265
 30
0.0
  0
VERTEX
  8
0
  6
CONTINUOUS
 62
       7
  5
2E7
 10
60.06158272
 20
20.24664316
 30
0.0
  0
VERTEX
  8
0
  6
CONTINUOUS
 62
       7
  5
2E8
 10
60.09425422
 20
20.22150171
 30
0.0
  0
VERTEX
  8
0
  6
CONTINUOUS
 62
       7
  5
2E9
 10
60.12829871
 20
20.19913073
 30
0.0
  0
VERTEX
  8
0
  6
CONTINUOUS
 62
       7
  5
2EA
 10
60.16908584
 20
20.17724116
 30
0.0
  0
VERTEX
  8
0
  6
CONTINUOUS
 62
       7
  5
2EB
 10
60.21168464
 20
20.15939128
 30
0.0
  0
VERTEX
  8
0
  6
CONTINUOUS
 62
       7
  5
2EC
 10
60.25593044
 20
20.14534087
 30
0.0
  0
VERTEX
  8
0
  6
CONTINUOUS
 62
       7
  5
2ED
 10
60.30165857
 20
20.13484969
 30
0.0
  0
VERTEX
  8
0
  6
CONTINUOUS
 62
       7
  5
2EE
 10
60.34870436
 20
20.1276775
 30
0.0
  0
VERTEX
  8
0
  6
CONTINUOUS
 62
       7
  5
2EF
 10
60.39690313
 20
20.12358408
 30
0.0
  0
VERTEX
  8
0
  6
CONTINUOUS
 62
       7
  5
2F0
 10
60.4460902
 20
20.12232919
 30
0.0
  0
VERTEX
  8
0
  6
CONTINUOUS
 62
       7
  5
2F1
 10
60.49610091
 20
20.1236726
 30
0.0
  0
VERTEX
  8
0
  6
CONTINUOUS
 62
       7
  5
2F2
 10
60.54677058
 20
20.12737408
 30
0.0
  0
VERTEX
  8
0
  6
CONTINUOUS
 62
       7
  5
2F3
 10
60.59793453
 20
20.13319339
 30
0.0
  0
VERTEX
  8
0
  6
CONTINUOUS
 62
       7
  5
2F4
 10
60.6494281
 20
20.1408903
 30
0.0
  0
VERTEX
  8
0
  6
CONTINUOUS
 62
       7
  5
2F5
 10
60.7010866
 20
20.15022458
 30
0.0
  0
VERTEX
  8
0
  6
CONTINUOUS
 62
       7
  5
2F6
 10
60.75274536
 20
20.160956
 30
0.0
  0
VERTEX
  8
0
  6
CONTINUOUS
 62
       7
  5
2F7
 10
60.80423972
 20
20.17284432
 30
0.0
  0
VERTEX
  8
0
  6
CONTINUOUS
 62
       7
  5
2F8
 10
60.85540499
 20
20.1856493
 30
0.0
  0
VERTEX
  8
0
  6
CONTINUOUS
 62
       7
  5
2F9
 10
60.9060765
 20
20.19913073
 30
0.0
  0
VERTEX
  8
0
  6
CONTINUOUS
 62
       7
  5
2FA
 10
60.95926137
 20
20.21393689
 30
0.0
  0
VERTEX
  8
0
  6
CONTINUOUS
 62
       7
  5
2FB
 10
61.01153719
 20
20.22908945
 30
0.0
  0
VERTEX
  8
0
  6
CONTINUOUS
 62
       7
  5
2FC
 10
61.06296809
 20
20.24460136
 30
0.0
  0
VERTEX
  8
0
  6
CONTINUOUS
 62
       7
  5
2FD
 10
61.11361816
 20
20.26048555
 30
0.0
  0
VERTEX
  8
0
  6
CONTINUOUS
 62
       7
  5
2FE
 10
61.16355155
 20
20.27675497
 30
0.0
  0
VERTEX
  8
0
  6
CONTINUOUS
 62
       7
  5
2FF
 10
61.21283235
 20
20.29342256
 30
0.0
  0
VERTEX
  8
0
  6
CONTINUOUS
 62
       7
  5
300
 10
61.26152469
 20
20.31050126
 30
0.0
  0
VERTEX
  8
0
  6
CONTINUOUS
 62
       7
  5
301
 10
61.30969269
 20
20.32800402
 30
0.0
  0
VERTEX
  8
0
  6
CONTINUOUS
 62
       7
  5
302
 10
61.35740046
 20
20.34594377
 30
0.0
  0
VERTEX
  8
0
  6
CONTINUOUS
 62
       7
  5
303
 10
61.40471211
 20
20.36433346
 30
0.0
  0
VERTEX
  8
0
  6
CONTINUOUS
 62
       7
  5
304
 10
61.45169178
 20
20.38318602
 30
0.0
  0
VERTEX
  8
0
  6
CONTINUOUS
 62
       7
  5
305
 10
61.49840356
 20
20.40251441
 30
0.0
  0
VERTEX
  8
0
  6
CONTINUOUS
 62
       7
  5
306
 10
61.54491159
 20
20.42233156
 30
0.0
  0
VERTEX
  8
0
  6
CONTINUOUS
 62
       7
  5
307
 10
61.59127997
 20
20.44265042
 30
0.0
  0
VERTEX
  8
0
  6
CONTINUOUS
 62
       7
  5
308
 10
61.63757283
 20
20.46348392
 30
0.0
  0
VERTEX
  8
0
  6
CONTINUOUS
 62
       7
  5
309
 10
61.68385428
 20
20.48484502
 30
0.0
  0
VERTEX
  8
0
  6
CONTINUOUS
 62
       7
  5
30A
 10
61.7255919
 20
20.5045772
 30
0.0
  0
VERTEX
  8
0
  6
CONTINUOUS
 62
       7
  5
30B
 10
61.76742235
 20
20.52473877
 30
0.0
  0
VERTEX
  8
0
  6
CONTINUOUS
 62
       7
  5
30C
 10
61.80935204
 20
20.54521249
 30
0.0
  0
VERTEX
  8
0
  6
CONTINUOUS
 62
       7
  5
30D
 10
61.85138742
 20
20.56588113
 30
0.0
  0
VERTEX
  8
0
  6
CONTINUOUS
 62
       7
  5
30E
 10
61.89353489
 20
20.58662744
 30
0.0
  0
VERTEX
  8
0
  6
CONTINUOUS
 62
       7
  5
30F
 10
61.93580089
 20
20.60733417
 30
0.0
  0
VERTEX
  8
0
  6
CONTINUOUS
 62
       7
  5
310
 10
61.97819185
 20
20.6278841
 30
0.0
  0
VERTEX
  8
0
  6
CONTINUOUS
 62
       7
  5
311
 10
62.0207142
 20
20.64815997
 30
0.0
  0
VERTEX
  8
0
  6
CONTINUOUS
 62
       7
  5
312
 10
62.06337435
 20
20.66804456
 30
0.0
  0
VERTEX
  8
0
  6
CONTINUOUS
 62
       7
  5
313
 10
62.10617874
 20
20.68742061
 30
0.0
  0
VERTEX
  8
0
  6
CONTINUOUS
 62
       7
  5
314
 10
62.1491338
 20
20.7061709
 30
0.0
  0
VERTEX
  8
0
  6
CONTINUOUS
 62
       7
  5
315
 10
62.19224594
 20
20.72417817
 30
0.0
  0
VERTEX
  8
0
  6
CONTINUOUS
 62
       7
  5
316
 10
62.2355216
 20
20.74132519
 30
0.0
  0
VERTEX
  8
0
  6
CONTINUOUS
 62
       7
  5
317
 10
62.27896721
 20
20.75749471
 30
0.0
  0
VERTEX
  8
0
  6
CONTINUOUS
 62
       7
  5
318
 10
62.32258919
 20
20.7725695
 30
0.0
  0
VERTEX
  8
0
  6
CONTINUOUS
 62
       7
  5
319
 10
62.36639397
 20
20.78643232
 30
0.0
  0
VERTEX
  8
0
  6
CONTINUOUS
 62
       7
  5
31A
 10
62.40815028
 20
20.7984266
 30
0.0
  0
VERTEX
  8
0
  6
CONTINUOUS
 62
       7
  5
31B
 10
62.45044403
 20
20.80946008
 30
0.0
  0
VERTEX
  8
0
  6
CONTINUOUS
 62
       7
  5
31C
 10
62.49321419
 20
20.81956603
 30
0.0
  0
VERTEX
  8
0
  6
CONTINUOUS
 62
       7
  5
31D
 10
62.5363997
 20
20.8287777
 30
0.0
  0
VERTEX
  8
0
  6
CONTINUOUS
 62
       7
  5
31E
 10
62.57993955
 20
20.83712836
 30
0.0
  0
VERTEX
  8
0
  6
CONTINUOUS
 62
       7
  5
31F
 10
62.62377268
 20
20.84465126
 30
0.0
  0
VERTEX
  8
0
  6
CONTINUOUS
 62
       7
  5
320
 10
62.66783807
 20
20.85137965
 30
0.0
  0
VERTEX
  8
0
  6
CONTINUOUS
 62
       7
  5
321
 10
62.71207467
 20
20.85734681
 30
0.0
  0
VERTEX
  8
0
  6
CONTINUOUS
 62
       7
  5
322
 10
62.75642144
 20
20.86258599
 30
0.0
  0
VERTEX
  8
0
  6
CONTINUOUS
 62
       7
  5
323
 10
62.80081736
 20
20.86713044
 30
0.0
  0
VERTEX
  8
0
  6
CONTINUOUS
 62
       7
  5
324
 10
62.84520138
 20
20.87101342
 30
0.0
  0
VERTEX
  8
0
  6
CONTINUOUS
 62
       7
  5
325
 10
62.88951246
 20
20.8742682
 30
0.0
  0
VERTEX
  8
0
  6
CONTINUOUS
 62
       7
  5
326
 10
62.93368957
 20
20.87692803
 30
0.0
  0
VERTEX
  8
0
  6
CONTINUOUS
 62
       7
  5
327
 10
62.97767166
 20
20.87902617
 30
0.0
  0
VERTEX
  8
0
  6
CONTINUOUS
 62
       7
  5
328
 10
63.02139771
 20
20.88059588
 30
0.0
  0
VERTEX
  8
0
  6
CONTINUOUS
 62
       7
  5
329
 10
63.06480667
 20
20.88167042
 30
0.0
  0
SEQEND
  8
0
  6
CONTINUOUS
 62
       7
  5
32A
  0
ARC
  8
0
  6
CONTINUOUS
 62
       7
  5
172
 10
59.75532846
 20
66.07104729
 30
0.0
 40
0.66662241
 50
298.43453536
 51
0.09448924
  0
ARC
  8
0
  6
CONTINUOUS
 62
       7
  5
173
 10
55.49510129
 20
66.06776195
 30
0.0
 40
0.67634019
 50
179.6285499
 51
239.52712747
  0
LINE
  8
0
  6
CONTINUOUS
 62
       2
  5
174
 10
-23.53846846
 20
-5.41991708
 30
0.0
 11
-13.34554816
 21
-5.41991708
 31
0.0
  0
LINE
  8
0
  6
CONTINUOUS
 62
       7
  5
175
 10
-193.14948053
 20
-14.41991715
 30
0.0
 11
-135.14948009
 21
-14.41991715
 31
0.0
  0
LINE
  8
0
  6
CONTINUOUS
 62
       7
  5
176
 10
-193.14948053
 20
-14.41991715
 30
0.0
 11
-193.14948053
 21
7.58008302
 31
0.0
  0
LINE
  8
0
  6
CONTINUOUS
 62
       7
  5
177
 10
-135.14948009
 20
-14.41991715
 30
0.0
 11
-135.14948009
 21
7.58008302
 31
0.0
  0
LINE
  8
0
  6
CONTINUOUS
 62
       7
  5
178
 10
-190.14948051
 20
-16.41991717
 30
0.0
 11
-182.14948045
 21
-16.41991717
 31
0.0
  0
LINE
  8
0
  6
CONTINUOUS
 62
       7
  5
179
 10
-191.14948052
 20
-15.41991716
 30
0.0
 11
-191.14948052
 21
-14.41991715
 31
0.0
  0
LINE
  8
0
  6
CONTINUOUS
 62
       7
  5
17A
 10
-137.14948011
 20
-15.41991716
 30
0.0
 11
-137.14948011
 21
-14.41991715
 31
0.0
  0
LINE
  8
0
  6
CONTINUOUS
 62
       7
  5
17B
 10
-181.14948044
 20
-15.41991716
 30
0.0
 11
-170.14948036
 21
-15.41991716
 31
0.0
  0
LINE
  8
0
  6
CONTINUOUS
 62
       7
  5
17C
 10
-190.14948051
 20
-16.41991717
 30
0.0
 11
-191.14948052
 21
-15.41991716
 31
0.0
  0
LINE
  8
0
  6
CONTINUOUS
 62
       7
  5
17D
 10
-138.14948012
 20
-16.41991717
 30
0.0
 11
-137.14948011
 21
-15.41991716
 31
0.0
  0
LINE
  8
0
  6
CONTINUOUS
 62
       7
  5
17E
 10
-181.14948044
 20
-15.41991716
 30
0.0
 11
-182.14948045
 21
-16.41991717
 31
0.0
  0
LINE
  8
0
  6
CONTINUOUS
 62
       7
  5
17F
 10
-147.14948018
 20
-15.41991716
 30
0.0
 11
-146.14948018
 21
-16.41991717
 31
0.0
  0
LINE
  8
0
  6
CONTINUOUS
 62
       7
  5
180
 10
-170.14948036
 20
-15.41991716
 30
0.0
 11
-169.14948035
 21
-16.41991717
 31
0.0
  0
LINE
  8
0
  6
CONTINUOUS
 62
       7
  5
181
 10
-158.14948027
 20
-15.41991716
 30
0.0
 11
-159.14948027
 21
-16.41991717
 31
0.0
  0
LINE
  8
0
  6
CONTINUOUS
 62
       7
  5
182
 10
-169.14948035
 20
-16.41991717
 30
0.0
 11
-159.14948027
 21
-16.41991717
 31
0.0
  0
LINE
  8
0
  6
CONTINUOUS
 62
       7
  5
183
 10
-146.14948018
 20
-16.41991717
 30
0.0
 11
-138.14948012
 21
-16.41991717
 31
0.0
  0
LINE
  8
0
  6
CONTINUOUS
 62
       7
  5
184
 10
-158.14948027
 20
-15.41991716
 30
0.0
 11
-147.14948018
 21
-15.41991716
 31
0.0
  0
LINE
  8
0
  6
CONTINUOUS
 62
       2
  5
185
 10
-191.14948052
 20
-0.41991705
 30
0.0
 11
-185.14948047
 21
-0.41991705
 31
0.0
  0
LINE
  8
0
  6
CONTINUOUS
 62
       2
  5
186
 10
-143.14948015
 20
-0.41991705
 30
0.0
 11
-137.14948011
 21
-0.41991705
 31
0.0
  0
LINE
  8
0
  6
CONTINUOUS
 62
       2
  5
187
 10
-188.14948049
 20
-3.41991707
 30
0.0
 11
-188.14948049
 21
2.58008298
 31
0.0
  0
LINE
  8
0
  6
CONTINUOUS
 62
       2
  5
188
 10
-140.14948013
 20
-3.41991707
 30
0.0
 11
-140.14948013
 21
2.58008298
 31
0.0
  0
LINE
  8
0
  6
CONTINUOUS
 62
       2
  5
189
 10
-185.64154397
 20
-5.41991708
 30
0.0
 11
-172.64154387
 21
-5.41991708
 31
0.0
  0
LINE
  8
0
  6
CONTINUOUS
 62
       2
  5
18A
 10
-155.64154374
 20
-5.41991708
 30
0.0
 11
-142.64154364
 21
-5.41991708
 31
0.0
  0
LINE
  8
0
  6
CONTINUOUS
 62
       2
  5
18B
 10
-179.14948043
 20
-11.92785364
 30
0.0
 11
-179.14948043
 21
1.07214646
 31
0.0
  0
LINE
  8
0
  6
CONTINUOUS
 62
       2
  5
18C
 10
-149.1494802
 20
-11.92785364
 30
0.0
 11
-149.1494802
 21
1.07214646
 31
0.0
  0
LINE
  8
0
  6
CONTINUOUS
 62
       7
  5
18D
 10
-132.64154357
 20
-2.46753611
 30
0.0
 11
-132.64154357
 21
-8.38817107
 31
0.0
  0
LINE
  8
0
  6
CONTINUOUS
 62
       7
  5
18E
 10
-132.64154357
 20
-2.46753611
 30
0.0
 11
-132.95900389
 21
-1.91198055
 31
0.0
  0
LINE
  8
0
  6
CONTINUOUS
 62
       7
  5
18F
 10
-132.95900389
 20
-8.92785362
 30
0.0
 11
-132.64154357
 21
-8.38817107
 31
0.0
  0
LINE
  8
0
  6
CONTINUOUS
 62
       7
  5
190
 10
-135.14948009
 20
-5.41991708
 30
0.0
 11
-132.95900389
 21
-5.41991708
 31
0.0
  0
LINE
  8
0
  6
CONTINUOUS
 62
       7
  5
191
 10
-132.95900389
 20
-1.91198055
 30
0.0
 11
-135.14948009
 21
-1.91198055
 31
0.0
  0
LINE
  8
0
  6
CONTINUOUS
 62
       7
  5
192
 10
-132.95900389
 20
-8.92785362
 30
0.0
 11
-135.14948009
 21
-8.92785362
 31
0.0
  0
LINE
  8
0
  6
CONTINUOUS
 62
       7
  5
193
 10
-181.43519473
 20
-9.41991711
 30
0.0
 11
-176.84789311
 21
-9.41991711
 31
0.0
  0
LINE
  8
0
  6
CONTINUOUS
 62
       7
  5
194
 10
-181.43519473
 20
-1.41991705
 30
0.0
 11
-176.84789311
 21
-1.41991705
 31
0.0
  0
LINE
  8
0
  6
CONTINUOUS
 62
       7
  5
195
 10
-151.4351945
 20
-1.41991705
 30
0.0
 11
-146.84789288
 21
-1.41991705
 31
0.0
  0
LINE
  8
0
  6
CONTINUOUS
 62
       7
  5
196
 10
-151.4351945
 20
-9.41991711
 30
0.0
 11
-146.84789288
 21
-9.41991711
 31
0.0
  0
LINE
  8
0
  6
CONTINUOUS
 62
       7
  5
197
 10
-183.73678205
 20
-5.41991708
 30
0.0
 11
-181.43519473
 21
-1.41991705
 31
0.0
  0
LINE
  8
0
  6
CONTINUOUS
 62
       7
  5
198
 10
-174.54630579
 20
-5.41991708
 30
0.0
 11
-176.84789311
 21
-9.41991711
 31
0.0
  0
LINE
  8
0
  6
CONTINUOUS
 62
       7
  5
199
 10
-144.54630556
 20
-5.41991708
 30
0.0
 11
-146.84789288
 21
-9.41991711
 31
0.0
  0
LINE
  8
0
  6
CONTINUOUS
 62
       7
  5
19A
 10
-153.73678182
 20
-5.41991708
 30
0.0
 11
-151.4351945
 21
-1.41991705
 31
0.0
  0
LINE
  8
0
  6
CONTINUOUS
 62
       7
  5
19B
 10
-153.73678182
 20
-5.41991708
 30
0.0
 11
-151.4351945
 21
-9.41991711
 31
0.0
  0
LINE
  8
0
  6
CONTINUOUS
 62
       7
  5
19C
 10
-183.73678205
 20
-5.41991708
 30
0.0
 11
-181.43519473
 21
-9.41991711
 31
0.0
  0
LINE
  8
0
  6
CONTINUOUS
 62
       7
  5
19D
 10
-174.54630579
 20
-5.41991708
 30
0.0
 11
-176.84789311
 21
-1.41991705
 31
0.0
  0
LINE
  8
0
  6
CONTINUOUS
 62
       7
  5
19E
 10
-144.54630556
 20
-5.41991708
 30
0.0
 11
-146.84789288
 21
-1.41991705
 31
0.0
  0
LINE
  8
0
  6
CONTINUOUS
 62
       7
  5
19F
 10
-185.14948047
 20
12.58008305
 30
0.0
 11
-185.14948047
 21
7.58008302
 31
0.0
  0
LINE
  8
0
  6
CONTINUOUS
 62
       7
  5
1A0
 10
-200.64154408
 20
13.58008306
 30
0.0
 11
-200.64154408
 21
5.580083
 31
0.0
  0
LINE
  8
0
  6
CONTINUOUS
 62
       7
  5
1A1
 10
-193.64154403
 20
13.58008306
 30
0.0
 11
-200.64154408
 21
13.58008306
 31
0.0
  0
LINE
  8
0
  6
CONTINUOUS
 62
       7
  5
1A2
 10
-193.64154403
 20
13.58008306
 30
0.0
 11
-193.64154403
 21
3.37373378
 31
0.0
  0
LINE
  8
0
  6
CONTINUOUS
 62
       7
  5
1A3
 10
-185.14948047
 20
12.58008305
 30
0.0
 11
-193.64154403
 21
12.58008305
 31
0.0
  0
LINE
  8
0
  6
CONTINUOUS
 62
       2
  5
1A4
 10
-197.14948056
 20
23.83405139
 30
0.0
 11
-197.14948056
 21
12.19913067
 31
0.0
  0
LINE
  8
0
  6
CONTINUOUS
 62
       7
  5
1A5
 10
-199.64154407
 20
15.58008308
 30
0.0
 11
-199.64154407
 21
13.58008306
 31
0.0
  0
LINE
  8
0
  6
CONTINUOUS
 62
       7
  5
1A6
 10
-194.64154404
 20
15.58008308
 30
0.0
 11
-194.64154404
 21
13.58008306
 31
0.0
  0
LINE
  8
0
  6
CONTINUOUS
 62
       7
  5
1A7
 10
-194.64154404
 20
15.58008308
 30
0.0
 11
-199.64154407
 21
15.58008308
 31
0.0
  0
LINE
  8
0
  6
CONTINUOUS
 62
       7
  5
1A8
 10
-199.64154407
 20
5.580083
 30
0.0
 11
-200.64154408
 21
5.580083
 31
0.0
  0
LINE
  8
0
  6
CONTINUOUS
 62
       7
  5
1A9
 10
-199.64154407
 20
5.580083
 30
0.0
 11
-199.64154407
 21
3.37373378
 31
0.0
  0
LINE
  8
0
  6
CONTINUOUS
 62
       7
  5
1AA
 10
-199.64154407
 20
3.37373378
 30
0.0
 11
-198.84789327
 21
2.58008298
 31
0.0
  0
LINE
  8
0
  6
CONTINUOUS
 62
       7
  5
1AB
 10
-193.64154403
 20
3.37373378
 30
0.0
 11
-194.43519483
 21
2.58008298
 31
0.0
  0
LINE
  8
0
  6
CONTINUOUS
 62
       7
  5
1AC
 10
-196.14948055
 20
-2.92785357
 30
0.0
 11
-196.14948055
 21
-5.92785359
 31
0.0
  0
LINE
  8
0
  6
CONTINUOUS
 62
       7
  5
1AD
 10
-195.54630595
 20
21.46897201
 30
0.0
 11
-195.54630595
 21
15.58008308
 31
0.0
  0
LINE
  8
0
  6
CONTINUOUS
 62
       7
  5
1AE
 10
-198.73678216
 20
21.46897201
 30
0.0
 11
-198.73678216
 21
15.58008308
 31
0.0
  0
LINE
  8
0
  6
CONTINUOUS
 62
       7
  5
1AF
 10
-186.38757572
 20
13.07214655
 30
0.0
 11
-192.38757576
 21
13.07214655
 31
0.0
  0
LINE
  8
0
  6
CONTINUOUS
 62
       7
  5
1B0
 10
-192.38757576
 20
13.07214655
 30
0.0
 11
-192.38757576
 21
12.58008305
 31
0.0
  0
LINE
  8
0
  6
CONTINUOUS
 62
       7
  5
1B1
 10
-186.38757572
 20
13.07214655
 30
0.0
 11
-186.38757572
 21
12.58008305
 31
0.0
  0
LINE
  8
0
  6
CONTINUOUS
 62
       7
  5
1B2
 10
-186.64154397
 20
13.07214655
 30
0.0
 11
-186.67329001
 21
13.40547988
 31
0.0
  0
LINE
  8
0
  6
CONTINUOUS
 62
       7
  5
1B3
 10
-192.14948052
 20
13.07214655
 30
0.0
 11
-192.11773449
 21
13.40547988
 31
0.0
  0
LINE
  8
0
  6
CONTINUOUS
 62
       7
  5
1B4
 10
-198.14948057
 20
-0.41991705
 30
0.0
 11
-193.14948053
 21
-0.41991705
 31
0.0
  0
LINE
  8
0
  6
CONTINUOUS
 62
       7
  5
1B5
 10
-198.14948057
 20
-6.07071074
 30
0.0
 11
-197.03836945
 21
-6.07071074
 31
0.0
  0
LINE
  8
0
  6
CONTINUOUS
 62
       7
  5
1B6
 10
-198.14948057
 20
-2.76912341
 30
0.0
 11
-197.03836945
 21
-2.76912341
 31
0.0
  0
LINE
  8
0
  6
CONTINUOUS
 62
       7
  5
1B7
 10
-194.24471864
 20
-7.324679
 30
0.0
 11
-194.24471864
 21
-1.53102816
 31
0.0
  0
LINE
  8
0
  6
CONTINUOUS
 62
       7
  5
1B8
 10
-197.03836945
 20
-6.07071074
 30
0.0
 11
-197.03836945
 21
-7.324679
 31
0.0
  0
LINE
  8
0
  6
CONTINUOUS
 62
       7
  5
1B9
 10
-197.03836945
 20
-7.324679
 30
0.0
 11
-194.24471864
 21
-7.324679
 31
0.0
  0
LINE
  8
0
  6
CONTINUOUS
 62
       7
  5
1BA
 10
-197.03836945
 20
-1.53102816
 30
0.0
 11
-197.03836945
 21
-2.78499643
 31
0.0
  0
LINE
  8
0
  6
CONTINUOUS
 62
       7
  5
1BB
 10
-197.03836945
 20
-1.53102816
 30
0.0
 11
-194.24471864
 21
-1.53102816
 31
0.0
  0
LINE
  8
0
  6
CONTINUOUS
 62
       7
  5
1BC
 10
-195.03836943
 20
-7.18182186
 30
0.0
 11
-194.24471864
 21
-7.18182186
 31
0.0
  0
LINE
  8
0
  6
CONTINUOUS
 62
       7
  5
1BD
 10
-195.03836943
 20
-1.67388531
 30
0.0
 11
-194.24471864
 21
-1.67388531
 31
0.0
  0
LINE
  8
0
  6
CONTINUOUS
 62
       7
  5
1BE
 10
-198.14948057
 20
-8.41991711
 30
0.0
 11
-193.14948053
 21
-8.41991711
 31
0.0
  0
LINE
  8
0
  6
CONTINUOUS
 62
       7
  5
1BF
 10
-198.14948057
 20
-0.41991705
 30
0.0
 11
-198.14948057
 21
-2.78499643
 31
0.0
  0
LINE
  8
0
  6
CONTINUOUS
 62
       7
  5
1C0
 10
-198.14948057
 20
-6.07071074
 30
0.0
 11
-198.14948057
 21
-8.41991711
 31
0.0
  0
LINE
  8
0
  6
CONTINUOUS
 62
       7
  5
1C1
 10
-198.84789327
 20
2.58008298
 30
0.0
 11
-194.43519483
 21
2.58008298
 31
0.0
  0
LINE
  8
0
  6
CONTINUOUS
 62
       7
  5
1C2
 10
-178.54630582
 20
-9.41991711
 30
0.0
 11
-178.54630582
 21
-1.41991705
 31
0.0
  0
LINE
  8
0
  6
CONTINUOUS
 62
       7
  5
1C3
 10
-179.73678202
 20
-9.41991711
 30
0.0
 11
-179.73678202
 21
-1.41991705
 31
0.0
  0
LINE
  8
0
  6
CONTINUOUS
 62
       7
  5
1C4
 10
-148.54630559
 20
-9.41991711
 30
0.0
 11
-148.54630559
 21
-1.41991705
 31
0.0
  0
LINE
  8
0
  6
CONTINUOUS
 62
       7
  5
1C5
 10
-149.73678179
 20
-9.41991711
 30
0.0
 11
-149.73678179
 21
-1.41991705
 31
0.0
  0
LINE
  8
0
  6
CONTINUOUS
 62
       7
  5
1C6
 10
-129.64154354
 20
4.07214648
 30
0.0
 11
-129.64154354
 21
-14.92785366
 31
0.0
  0
LINE
  8
0
  6
CONTINUOUS
 62
       7
  5
1C7
 10
-129.64154354
 20
4.07214648
 30
0.0
 11
-130.72090863
 21
4.07214648
 31
0.0
  0
LINE
  8
0
  6
CONTINUOUS
 62
       7
  5
1C8
 10
-129.64154354
 20
-14.92785366
 30
0.0
 11
-137.14948011
 21
-14.92785366
 31
0.0
  0
LINE
  8
0
  6
CONTINUOUS
 62
       7
  5
1C9
 10
-132.14948007
 20
4.11976553
 30
0.0
 11
-132.14948007
 21
-1.48340912
 31
0.0
  0
LINE
  8
0
  6
CONTINUOUS
 62
       7
  5
1CA
 10
-130.72090863
 20
-1.41991705
 30
0.0
 11
-129.64154354
 21
-1.41991705
 31
0.0
  0
LINE
  8
0
  6
CONTINUOUS
 62
       7
  5
1CB
 10
-130.97487689
 20
-1.48340912
 30
0.0
 11
-132.14948007
 21
-1.48340912
 31
0.0
  0
LINE
  8
0
  6
CONTINUOUS
 62
       7
  5
1CC
 10
-130.97487689
 20
4.11976553
 30
0.0
 11
-132.14948007
 21
4.11976553
 31
0.0
  0
LINE
  8
0
  6
CONTINUOUS
 62
       7
  5
1CD
 10
-132.14948007
 20
4.07214648
 30
0.0
 11
-135.14948009
 21
4.07214648
 31
0.0
  0
CIRCLE
  8
0
  6
CONTINUOUS
 62
       2
  5
1CE
 10
-188.14946015
 20
-0.41991705
 30
0.0
 40
1.99999886
  0
CIRCLE
  8
0
  6
CONTINUOUS
 62
       2
  5
1CF
 10
-140.14947529
 20
-0.41991705
 30
0.0
 40
1.99999886
  0
CIRCLE
  8
0
  6
CONTINUOUS
 62
       7
  5
1D0
 10
-188.14946015
 20
-0.41991705
 30
0.0
 40
1.72949898
  0
CIRCLE
  8
0
  6
CONTINUOUS
 62
       7
  5
1D1
 10
-140.14947529
 20
-0.41991705
 30
0.0
 40
1.72949898
  0
CIRCLE
  8
0
  6
CONTINUOUS
 62
       7
  5
1D2
 10
-179.14948721
 20
-5.41993162
 30
0.0
 40
5.15000029
  0
CIRCLE
  8
0
  6
CONTINUOUS
 62
       7
  5
1D3
 10
-149.14949667
 20
-5.41993162
 30
0.0
 40
5.15000029
  0
ARC
  8
0
  6
CONTINUOUS
 62
       7
  5
1D4
 10
-137.6508849
 20
-3.66594882
 30
0.0
 40
5.0090071
 50
339.50272312
 51
20.49727688
  0
ARC
  8
0
  6
CONTINUOUS
 62
       7
  5
1D5
 10
-137.6508849
 20
-7.17388535
 30
0.0
 40
5.0090071
 50
339.50272312
 51
20.49727688
  0
ARC
  8
0
  6
CONTINUOUS
 62
       7
  5
1D6
 10
-179.16040675
 20
-5.41376846
 30
0.0
 40
4.24958171
 50
230.77170066
 51
250.51279226
  0
ARC
  8
0
  6
CONTINUOUS
 62
       7
  5
1D7
 10
-179.129464
 20
-5.40848947
 30
0.0
 40
4.24347932
 50
109.96023931
 51
129.83756436
  0
ARC
  8
0
  6
CONTINUOUS
 62
       7
  5
1D8
 10
-179.12653008
 20
-5.40692581
 30
0.0
 40
4.25731661
 50
289.50532009
 51
309.210187
  0
ARC
  8
0
  6
CONTINUOUS
 62
       7
  5
1D9
 10
-179.14949449
 20
-5.42785359
 30
0.0
 40
4.24960446
 50
350.43215994
 51
9.56784006
  0
ARC
  8
0
  6
CONTINUOUS
 62
       7
  5
1DA
 10
-179.15754544
 20
-5.41530966
 30
0.0
 40
4.25122875
 50
50.18073591
 51
70.02146041
  0
ARC
  8
0
  6
CONTINUOUS
 62
       7
  5
1DB
 10
-179.14947993
 20
-5.42785359
 30
0.0
 40
4.24959108
 50
170.43212954
 51
189.56787046
  0
ARC
  8
0
  6
CONTINUOUS
 62
       7
  5
1DC
 10
-149.16040886
 20
-5.41377262
 30
0.0
 40
4.249577
 50
230.77168962
 51
250.51280329
  0
ARC
  8
0
  6
CONTINUOUS
 62
       7
  5
1DD
 10
-149.12946616
 20
-5.40848533
 30
0.0
 40
4.24347461
 50
109.96022816
 51
129.83757551
  0
ARC
  8
0
  6
CONTINUOUS
 62
       7
  5
1DE
 10
-149.14948939
 20
-5.42785359
 30
0.0
 40
4.24958153
 50
170.43210783
 51
189.56789217
  0
ARC
  8
0
  6
CONTINUOUS
 62
       7
  5
1DF
 10
-149.15754762
 20
-5.41531383
 30
0.0
 40
4.25123349
 50
50.18074708
 51
70.02144924
  0
ARC
  8
0
  6
CONTINUOUS
 62
       7
  5
1E0
 10
-149.14950395
 20
-5.42785359
 30
0.0
 40
4.24961401
 50
350.43218165
 51
9.56781835
  0
ARC
  8
0
  6
CONTINUOUS
 62
       7
  5
1E1
 10
-149.12653221
 20
-5.40692162
 30
0.0
 40
4.25732134
 50
289.50533115
 51
309.21017594
  0
ARC
  8
0
  6
CONTINUOUS
 62
       7
  5
1E2
 10
-189.39551225
 20
7.58009551
 30
0.0
 40
6.99288032
 50
73.31318334
 51
106.68681666
  0
ARC
  8
0
  6
CONTINUOUS
 62
       7
  5
1E3
 10
-187.66895683
 20
13.31955913
 30
0.0
 40
0.9993672
 50
4.93210288
 51
73.64671084
  0
ARC
  8
0
  6
CONTINUOUS
 62
       7
  5
1E4
 10
-191.12686028
 20
13.32348036
 30
0.0
 40
0.99426134
 50
106.15190348
 51
175.26928279
  0
ARC
  8
0
  6
CONTINUOUS
 62
       7
  5
1E5
 10
-189.24949346
 20
-4.42785358
 30
0.0
 40
7.0011347
 50
162.51808075
 51
197.48191925
  0
ARC
  8
0
  6
CONTINUOUS
 62
       7
  5
1E6
 10
-195.03204977
 20
-6.24074722
 30
0.0
 40
0.94109586
 50
197.96584289
 51
269.61524347
  0
ARC
  8
0
  6
CONTINUOUS
 62
       7
  5
1E7
 10
-195.03962044
 20
-2.60461952
 30
0.0
 40
0.93073505
 50
89.92298832
 51
162.49592532
  0
ARC
  8
0
  6
CONTINUOUS
 62
       7
  5
1E8
 10
-134.74948804
 20
1.32611471
 30
0.0
 40
5.00793819
 50
330.57502171
 51
29.42497829
  0
ARC
  8
0
  6
CONTINUOUS
 62
       7
  5
1E9
 10
-130.98074176
 20
-0.80507504
 30
0.0
 40
0.67835943
 50
270.49536676
 51
330.97560864
  0
ARC
  8
0
  6
CONTINUOUS
 62
       7
  5
1EA
 10
-130.9637541
 20
3.45531142
 30
0.0
 40
0.6645472
 50
29.8852958
 51
90.95902683
  0
POLYLINE
  8
0
  6
CONTINUOUS
 62
       7
  5
1EB
 66
       1
 10
0.0
 20
0.0
 30
0.0
  0
VERTEX
  8
0
  6
CONTINUOUS
 62
       7
  5
32B
 10
-195.54630595
 20
21.46897201
 30
0.0
  0
VERTEX
  8
0
  6
CONTINUOUS
 62
       7
  5
32C
 10
-195.56979061
 20
21.50603293
 30
0.0
  0
VERTEX
  8
0
  6
CONTINUOUS
 62
       7
  5
32D
 10
-195.59420999
 20
21.54271816
 30
0.0
  0
VERTEX
  8
0
  6
CONTINUOUS
 62
       7
  5
32E
 10
-195.61959983
 20
21.57892798
 30
0.0
  0
VERTEX
  8
0
  6
CONTINUOUS
 62
       7
  5
32F
 10
-195.64599587
 20
21.61456273
 30
0.0
  0
VERTEX
  8
0
  6
CONTINUOUS
 62
       7
  5
330
 10
-195.67343386
 20
21.64952269
 30
0.0
  0
VERTEX
  8
0
  6
CONTINUOUS
 62
       7
  5
331
 10
-195.70194953
 20
21.68370819
 30
0.0
  0
VERTEX
  8
0
  6
CONTINUOUS
 62
       7
  5
332
 10
-195.73157864
 20
21.71701953
 30
0.0
  0
VERTEX
  8
0
  6
CONTINUOUS
 62
       7
  5
333
 10
-195.76235692
 20
21.74935703
 30
0.0
  0
VERTEX
  8
0
  6
CONTINUOUS
 62
       7
  5
334
 10
-195.79432012
 20
21.78062098
 30
0.0
  0
VERTEX
  8
0
  6
CONTINUOUS
 62
       7
  5
335
 10
-195.82750397
 20
21.8107117
 30
0.0
  0
VERTEX
  8
0
  6
CONTINUOUS
 62
       7
  5
336
 10
-195.86194422
 20
21.8395295
 30
0.0
  0
VERTEX
  8
0
  6
CONTINUOUS
 62
       7
  5
337
 10
-195.89767662
 20
21.86697469
 30
0.0
  0
VERTEX
  8
0
  6
CONTINUOUS
 62
       7
  5
338
 10
-195.93473689
 20
21.89294758
 30
0.0
  0
VERTEX
  8
0
  6
CONTINUOUS
 62
       7
  5
339
 10
-195.9731608
 20
21.91734847
 30
0.0
  0
VERTEX
  8
0
  6
CONTINUOUS
 62
       7
  5
33A
 10
-196.01298407
 20
21.94007767
 30
0.0
  0
VERTEX
  8
0
  6
CONTINUOUS
 62
       7
  5
33B
 10
-196.05424246
 20
21.96103551
 30
0.0
  0
VERTEX
  8
0
  6
CONTINUOUS
 62
       7
  5
33C
 10
-196.10692017
 20
21.98444013
 30
0.0
  0
VERTEX
  8
0
  6
CONTINUOUS
 62
       7
  5
33D
 10
-196.16110761
 20
22.00512206
 30
0.0
  0
VERTEX
  8
0
  6
CONTINUOUS
 62
       7
  5
33E
 10
-196.21653515
 20
22.02299603
 30
0.0
  0
VERTEX
  8
0
  6
CONTINUOUS
 62
       7
  5
33F
 10
-196.27293314
 20
22.03797677
 30
0.0
  0
VERTEX
  8
0
  6
CONTINUOUS
 62
       7
  5
340
 10
-196.33003197
 20
22.04997901
 30
0.0
  0
VERTEX
  8
0
  6
CONTINUOUS
 62
       7
  5
341
 10
-196.38756198
 20
22.05891748
 30
0.0
  0
VERTEX
  8
0
  6
CONTINUOUS
 62
       7
  5
342
 10
-196.44525355
 20
22.06470691
 30
0.0
  0
VERTEX
  8
0
  6
CONTINUOUS
 62
       7
  5
343
 10
-196.50283705
 20
22.06726203
 30
0.0
  0
VERTEX
  8
0
  6
CONTINUOUS
 62
       7
  5
344
 10
-196.56004284
 20
22.06649758
 30
0.0
  0
VERTEX
  8
0
  6
CONTINUOUS
 62
       7
  5
345
 10
-196.61660129
 20
22.06232827
 30
0.0
  0
VERTEX
  8
0
  6
CONTINUOUS
 62
       7
  5
346
 10
-196.67224276
 20
22.05466885
 30
0.0
  0
VERTEX
  8
0
  6
CONTINUOUS
 62
       7
  5
347
 10
-196.72669763
 20
22.04343403
 30
0.0
  0
VERTEX
  8
0
  6
CONTINUOUS
 62
       7
  5
348
 10
-196.77969625
 20
22.02853856
 30
0.0
  0
VERTEX
  8
0
  6
CONTINUOUS
 62
       7
  5
349
 10
-196.830969
 20
22.00989716
 30
0.0
  0
VERTEX
  8
0
  6
CONTINUOUS
 62
       7
  5
34A
 10
-196.88024624
 20
21.98742457
 30
0.0
  0
VERTEX
  8
0
  6
CONTINUOUS
 62
       7
  5
34B
 10
-196.92725834
 20
21.96103551
 30
0.0
  0
VERTEX
  8
0
  6
CONTINUOUS
 62
       7
  5
34C
 10
-196.96973621
 20
21.93228814
 30
0.0
  0
VERTEX
  8
0
  6
CONTINUOUS
 62
       7
  5
34D
 10
-197.0102183
 20
21.90034339
 30
0.0
  0
VERTEX
  8
0
  6
CONTINUOUS
 62
       7
  5
34E
 10
-197.04896736
 20
21.86565902
 30
0.0
  0
VERTEX
  8
0
  6
CONTINUOUS
 62
       7
  5
34F
 10
-197.08624618
 20
21.82869277
 30
0.0
  0
VERTEX
  8
0
  6
CONTINUOUS
 62
       7
  5
350
 10
-197.12231751
 20
21.7899024
 30
0.0
  0
VERTEX
  8
0
  6
CONTINUOUS
 62
       7
  5
351
 10
-197.15744413
 20
21.74974567
 30
0.0
  0
VERTEX
  8
0
  6
CONTINUOUS
 62
       7
  5
352
 10
-197.1918888
 20
21.70868033
 30
0.0
  0
VERTEX
  8
0
  6
CONTINUOUS
 62
       7
  5
353
 10
-197.22591429
 20
21.66716412
 30
0.0
  0
VERTEX
  8
0
  6
CONTINUOUS
 62
       7
  5
354
 10
-197.25978337
 20
21.62565481
 30
0.0
  0
VERTEX
  8
0
  6
CONTINUOUS
 62
       7
  5
355
 10
-197.29375881
 20
21.58461014
 30
0.0
  0
VERTEX
  8
0
  6
CONTINUOUS
 62
       7
  5
356
 10
-197.32810337
 20
21.54448788
 30
0.0
  0
VERTEX
  8
0
  6
CONTINUOUS
 62
       7
  5
357
 10
-197.36307983
 20
21.50574577
 30
0.0
  0
VERTEX
  8
0
  6
CONTINUOUS
 62
       7
  5
358
 10
-197.39895094
 20
21.46884156
 30
0.0
  0
VERTEX
  8
0
  6
CONTINUOUS
 62
       7
  5
359
 10
-197.43597948
 20
21.43423301
 30
0.0
  0
VERTEX
  8
0
  6
CONTINUOUS
 62
       7
  5
35A
 10
-197.47442822
 20
21.40237788
 30
0.0
  0
VERTEX
  8
0
  6
CONTINUOUS
 62
       7
  5
35B
 10
-197.51455993
 20
21.37373391
 30
0.0
  0
VERTEX
  8
0
  6
CONTINUOUS
 62
       7
  5
35C
 10
-197.58078955
 20
21.33613603
 30
0.0
  0
VERTEX
  8
0
  6
CONTINUOUS
 62
       7
  5
35D
 10
-197.65161874
 20
21.30650043
 30
0.0
  0
VERTEX
  8
0
  6
CONTINUOUS
 62
       7
  5
35E
 10
-197.72646552
 20
21.28436519
 30
0.0
  0
VERTEX
  8
0
  6
CONTINUOUS
 62
       7
  5
35F
 10
-197.80474792
 20
21.2692684
 30
0.0
  0
VERTEX
  8
0
  6
CONTINUOUS
 62
       7
  5
360
 10
-197.88588396
 20
21.26074817
 30
0.0
  0
VERTEX
  8
0
  6
CONTINUOUS
 62
       7
  5
361
 10
-197.96929166
 20
21.25834258
 30
0.0
  0
VERTEX
  8
0
  6
CONTINUOUS
 62
       7
  5
362
 10
-198.05438903
 20
21.26158972
 30
0.0
  0
VERTEX
  8
0
  6
CONTINUOUS
 62
       7
  5
363
 10
-198.1405941
 20
21.27002768
 30
0.0
  0
VERTEX
  8
0
  6
CONTINUOUS
 62
       7
  5
364
 10
-198.22732489
 20
21.28319456
 30
0.0
  0
VERTEX
  8
0
  6
CONTINUOUS
 62
       7
  5
365
 10
-198.31399942
 20
21.30062844
 30
0.0
  0
VERTEX
  8
0
  6
CONTINUOUS
 62
       7
  5
366
 10
-198.4000357
 20
21.32186742
 30
0.0
  0
VERTEX
  8
0
  6
CONTINUOUS
 62
       7
  5
367
 10
-198.48485177
 20
21.34644959
 30
0.0
  0
VERTEX
  8
0
  6
CONTINUOUS
 62
       7
  5
368
 10
-198.56786563
 20
21.37391305
 30
0.0
  0
VERTEX
  8
0
  6
CONTINUOUS
 62
       7
  5
369
 10
-198.64849531
 20
21.40379587
 30
0.0
  0
VERTEX
  8
0
  6
CONTINUOUS
 62
       7
  5
36A
 10
-198.72615884
 20
21.43563616
 30
0.0
  0
VERTEX
  8
0
  6
CONTINUOUS
 62
       7
  5
36B
 10
-198.80027423
 20
21.46897201
 30
0.0
  0
SEQEND
  8
0
  6
CONTINUOUS
 62
       7
  5
36C
  0
LINE
  8
0
  6
CONTINUOUS
 62
       7
  5
1EC
 10
-49.62566992
 20
128.24675029
 30
0.0
 11
-37.62566983
 21
128.24675029
 31
0.0
  0
LINE
  8
0
  6
CONTINUOUS
 62
       7
  5
1ED
 10
-49.62566992
 20
70.24674985
 30
0.0
 11
-37.62566983
 21
70.24674985
 31
0.0
  0
LINE
  8
0
  6
CONTINUOUS
 62
       7
  5
1EE
 10
98.3743312
 20
72.24674987
 30
0.0
 11
98.3743312
 21
126.24675028
 31
0.0
  0
LINE
  8
0
  6
CONTINUOUS
 62
       7
  5
1EF
 10
169.3743301
 20
93.18325796
 30
0.0
 11
169.3743301
 21
105.29436917
 31
0.0
  0
LINE
  8
0
  6
CONTINUOUS
 62
       7
  5
1F0
 10
154.37432999
 20
70.24674985
 30
0.0
 11
154.37432999
 21
128.24675029
 31
0.0
  0
LINE
  8
0
  6
CONTINUOUS
 62
       7
  5
1F1
 10
166.37433008
 20
70.24674985
 30
0.0
 11
166.37433008
 21
128.24675029
 31
0.0
  0
LINE
  8
0
  6
CONTINUOUS
 62
       7
  5
1F2
 10
-37.62566983
 20
70.24674985
 30
0.0
 11
-37.62566983
 21
128.24675029
 31
0.0
  0
LINE
  8
0
  6
CONTINUOUS
 62
       7
  5
1F3
 10
-49.62566992
 20
70.24674985
 30
0.0
 11
-49.62566992
 21
128.24675029
 31
0.0
  0
LINE
  8
0
  6
CONTINUOUS
 62
       7
  5
1F4
 10
154.37432999
 20
70.24674985
 30
0.0
 11
166.37433008
 21
70.24674985
 31
0.0
  0
LINE
  8
0
  6
CONTINUOUS
 62
       7
  5
1F5
 10
154.37432999
 20
128.24675029
 30
0.0
 11
166.37433008
 21
128.24675029
 31
0.0
  0
LINE
  8
0
  6
CONTINUOUS
 62
       7
  5
1F6
 10
-37.62566983
 20
72.24674987
 30
0.0
 11
98.3743312
 21
72.24674987
 31
0.0
  0
LINE
  8
0
  6
CONTINUOUS
 62
       7
  5
1F7
 10
-37.62566983
 20
126.24675028
 30
0.0
 11
0.87433039
 21
126.24675028
 31
0.0
  0
LINE
  8
0
  6
CONTINUOUS
 62
       7
  5
1F8
 10
169.12036185
 20
92.29436907
 30
0.0
 11
166.61242532
 21
92.29436907
 31
0.0
  0
LINE
  8
0
  6
CONTINUOUS
 62
       7
  5
1F9
 10
169.12036185
 20
95.77055957
 30
0.0
 11
166.61242532
 21
95.77055957
 31
0.0
  0
LINE
  8
0
  6
CONTINUOUS
 62
       7
  5
1FA
 10
169.12036185
 20
102.70706756
 30
0.0
 11
166.61242532
 21
102.70706756
 31
0.0
  0
LINE
  8
0
  6
CONTINUOUS
 62
       7
  5
1FB
 10
169.12036185
 20
106.18325806
 30
0.0
 11
166.61242532
 21
106.18325806
 31
0.0
  0
LINE
  8
0
  6
CONTINUOUS
 62
       7
  5
1FC
 10
169.3743301
 20
93.18325796
 30
0.0
 11
169.12036185
 21
92.29436907
 31
0.0
  0
LINE
  8
0
  6
CONTINUOUS
 62
       7
  5
1FD
 10
169.3743301
 20
105.29436917
 30
0.0
 11
169.12036185
 21
106.18325806
 31
0.0
  0
LINE
  8
0
  6
CONTINUOUS
 62
       7
  5
1FE
 10
166.37433008
 20
93.18325796
 30
0.0
 11
166.61242532
 21
92.29436907
 31
0.0
  0
LINE
  8
0
  6
CONTINUOUS
 62
       7
  5
1FF
 10
166.37433008
 20
105.29436917
 30
0.0
 11
166.61242532
 21
106.18325806
 31
0.0
  0
LINE
  8
0
  6
CONTINUOUS
 62
       7
  5
200
 10
98.3743312
 20
80.24674993
 30
0.0
 11
154.37432999
 21
80.24674993
 31
0.0
  0
LINE
  8
0
  6
CONTINUOUS
 62
       7
  5
201
 10
98.3743312
 20
88.24674999
 30
0.0
 11
154.37432999
 21
88.24674999
 31
0.0
  0
LINE
  8
0
  6
CONTINUOUS
 62
       7
  5
202
 10
98.3743312
 20
110.24675016
 30
0.0
 11
154.37432999
 21
110.24675016
 31
0.0
  0
LINE
  8
0
  6
CONTINUOUS
 62
       7
  5
203
 10
98.3743312
 20
118.24675022
 30
0.0
 11
154.37432999
 21
118.24675022
 31
0.0
  0
LINE
  8
0
  6
CONTINUOUS
 62
       2
  5
204
 10
7.87433017
 20
93.24675003
 30
0.0
 11
7.87433017
 21
105.24675012
 31
0.0
  0
LINE
  8
0
  6
CONTINUOUS
 62
       2
  5
205
 10
52.87433051
 20
93.24675003
 30
0.0
 11
52.87433051
 21
105.24675012
 31
0.0
  0
LINE
  8
0
  6
CONTINUOUS
 62
       7
  5
206
 10
101.12036297
 20
92.29436907
 30
0.0
 11
98.61242644
 21
92.29436907
 31
0.0
  0
LINE
  8
0
  6
CONTINUOUS
 62
       7
  5
207
 10
98.3743312
 20
93.18325796
 30
0.0
 11
98.61242644
 21
92.29436907
 31
0.0
  0
LINE
  8
0
  6
CONTINUOUS
 62
       7
  5
208
 10
101.37433122
 20
93.18325796
 30
0.0
 11
101.12036297
 21
92.29436907
 31
0.0
  0
LINE
  8
0
  6
CONTINUOUS
 62
       7
  5
209
 10
101.37433122
 20
93.18325796
 30
0.0
 11
101.37433122
 21
105.29436917
 31
0.0
  0
LINE
  8
0
  6
CONTINUOUS
 62
       7
  5
20A
 10
101.12036297
 20
95.77055957
 30
0.0
 11
98.61242644
 21
95.77055957
 31
0.0
  0
LINE
  8
0
  6
CONTINUOUS
 62
       7
  5
20B
 10
101.12036297
 20
102.70706756
 30
0.0
 11
98.61242644
 21
102.70706756
 31
0.0
  0
LINE
  8
0
  6
CONTINUOUS
 62
       7
  5
20C
 10
101.37433122
 20
105.29436917
 30
0.0
 11
101.12036297
 21
106.18325806
 31
0.0
  0
LINE
  8
0
  6
CONTINUOUS
 62
       7
  5
20D
 10
101.12036297
 20
106.18325806
 30
0.0
 11
98.61242644
 21
106.18325806
 31
0.0
  0
LINE
  8
0
  6
CONTINUOUS
 62
       7
  5
20E
 10
98.3743312
 20
105.29436917
 30
0.0
 11
98.61242644
 21
106.18325806
 31
0.0
  0
LINE
  8
0
  6
CONTINUOUS
 62
       7
  5
20F
 10
175.56480634
 20
94.24675004
 30
0.0
 11
169.3743301
 21
94.24675004
 31
0.0
  0
LINE
  8
0
  6
CONTINUOUS
 62
       2
  5
210
 10
175.88226666
 20
94.78643258
 30
0.0
 11
169.3743301
 21
94.78643258
 31
0.0
  0
LINE
  8
0
  6
CONTINUOUS
 62
       7
  5
211
 10
175.56480634
 20
94.24675004
 30
0.0
 11
175.56480634
 21
104.24675011
 31
0.0
  0
LINE
  8
0
  6
CONTINUOUS
 62
       7
  5
212
 10
175.56480634
 20
94.24675004
 30
0.0
 11
176.37433015
 21
95.62770243
 31
0.0
  0
LINE
  8
0
  6
CONTINUOUS
 62
       7
  5
213
 10
176.37433015
 20
95.62770243
 30
0.0
 11
176.37433015
 21
102.8499247
 31
0.0
  0
LINE
  8
0
  6
CONTINUOUS
 62
       7
  5
214
 10
175.56480634
 20
104.24675011
 30
0.0
 11
176.37433015
 21
102.8499247
 31
0.0
  0
LINE
  8
0
  6
CONTINUOUS
 62
       2
  5
215
 10
175.88226666
 20
103.69119455
 30
0.0
 11
169.3743301
 21
103.69119455
 31
0.0
  0
LINE
  8
0
  6
CONTINUOUS
 62
       7
  5
216
 10
175.56480634
 20
104.24675011
 30
0.0
 11
169.3743301
 21
104.24675011
 31
0.0
  0
LINE
  8
0
  6
CONTINUOUS
 62
       7
  5
217
 10
154.37432999
 20
94.24675004
 30
0.0
 11
151.86639346
 21
94.24675004
 31
0.0
  0
LINE
  8
0
  6
CONTINUOUS
 62
       2
  5
218
 10
154.37432999
 20
94.78643258
 30
0.0
 11
151.37432996
 21
94.78643258
 31
0.0
  0
LINE
  8
0
  6
CONTINUOUS
 62
       7
  5
219
 10
151.37432996
 20
94.73881353
 30
0.0
 11
151.86639346
 21
94.24675004
 31
0.0
  0
LINE
  8
0
  6
CONTINUOUS
 62
       7
  5
21A
 10
151.86639346
 20
94.24675004
 30
0.0
 11
151.86639346
 21
104.24675011
 31
0.0
  0
LINE
  8
0
  6
CONTINUOUS
 62
       7
  5
21B
 10
151.37432996
 20
103.7388136
 30
0.0
 11
151.86639346
 21
104.24675011
 31
0.0
  0
LINE
  8
0
  6
CONTINUOUS
 62
       2
  5
21C
 10
154.37432999
 20
103.69119455
 30
0.0
 11
151.37432996
 21
103.69119455
 31
0.0
  0
LINE
  8
0
  6
CONTINUOUS
 62
       7
  5
21D
 10
154.37432999
 20
104.24675011
 30
0.0
 11
151.86639346
 21
104.24675011
 31
0.0
  0
LINE
  8
0
  6
CONTINUOUS
 62
       7
  5
21E
 10
151.37432996
 20
94.73881353
 30
0.0
 11
151.37432996
 21
103.7388136
 31
0.0
  0
LINE
  8
0
  6
CONTINUOUS
 62
       2
  5
21F
 10
-43.62566988
 20
87.73881348
 30
0.0
 11
-43.62566988
 21
80.73881342
 31
0.0
  0
LINE
  8
0
  6
CONTINUOUS
 62
       2
  5
220
 10
-43.62566988
 20
117.7388137
 30
0.0
 11
-43.62566988
 21
110.73881365
 31
0.0
  0
LINE
  8
0
  6
CONTINUOUS
 62
       2
  5
221
 10
-44.62566988
 20
126.48484552
 30
0.0
 11
-44.62566988
 21
119.99278198
 31
0.0
  0
LINE
  8
0
  6
CONTINUOUS
 62
       2
  5
222
 10
-44.62566988
 20
78.48484515
 30
0.0
 11
-44.62566988
 21
71.99278161
 31
0.0
  0
LINE
  8
0
  6
CONTINUOUS
 62
       2
  5
223
 10
-47.87963816
 20
75.24674989
 30
0.0
 11
-41.38757462
 21
75.24674989
 31
0.0
  0
LINE
  8
0
  6
CONTINUOUS
 62
       2
  5
224
 10
-47.87963816
 20
123.24675025
 30
0.0
 11
-41.38757462
 21
123.24675025
 31
0.0
  0
LINE
  8
0
  6
CONTINUOUS
 62
       2
  5
225
 10
158.12036176
 20
123.24675025
 30
0.0
 11
164.6124253
 21
123.24675025
 31
0.0
  0
LINE
  8
0
  6
CONTINUOUS
 62
       2
  5
226
 10
158.12036176
 20
75.24674989
 30
0.0
 11
164.6124253
 21
75.24674989
 31
0.0
  0
LINE
  8
0
  6
CONTINUOUS
 62
       2
  5
227
 10
161.37433004
 20
78.48484515
 30
0.0
 11
161.37433004
 21
71.99278161
 31
0.0
  0
LINE
  8
0
  6
CONTINUOUS
 62
       2
  5
228
 10
161.37433004
 20
126.48484552
 30
0.0
 11
161.37433004
 21
119.99278198
 31
0.0
  0
LINE
  8
0
  6
CONTINUOUS
 62
       2
  5
229
 10
160.37433003
 20
117.7388137
 30
0.0
 11
160.37433003
 21
110.73881365
 31
0.0
  0
LINE
  8
0
  6
CONTINUOUS
 62
       2
  5
22A
 10
160.37433003
 20
87.73881348
 30
0.0
 11
160.37433003
 21
80.73881342
 31
0.0
  0
LINE
  8
0
  6
CONTINUOUS
 62
       7
  5
22B
 10
-37.62566983
 20
124.38960741
 30
0.0
 11
0.87433039
 21
124.38960741
 31
0.0
  0
LINE
  8
0
  6
CONTINUOUS
 62
       7
  5
22C
 10
-37.62566983
 20
121.08802008
 30
0.0
 11
0.87433039
 21
121.08802008
 31
0.0
  0
LINE
  8
0
  6
DASHED
 62
       2
  5
22D
 10
109.37433128
 20
97.73881355
 30
0.0
 11
109.37433128
 21
100.73881358
 31
0.0
  0
LINE
  8
0
  6
DASHED
 62
       2
  5
22E
 10
101.37433122
 20
97.73881355
 30
0.0
 11
109.37433128
 21
97.73881355
 31
0.0
  0
LINE
  8
0
  6
DASHED
 62
       2
  5
22F
 10
101.37433122
 20
100.73881358
 30
0.0
 11
109.37433128
 21
100.73881358
 31
0.0
  0
LINE
  8
0
  6
CONTINUOUS
 62
       7
  5
230
 10
-37.62566983
 20
128.24675029
 30
0.0
 11
-5.63360617
 21
128.24675029
 31
0.0
  0
LINE
  8
0
  6
CONTINUOUS
 62
       7
  5
231
 10
-48.62566991
 20
133.24675033
 30
0.0
 11
-48.62566991
 21
128.24675029
 31
0.0
  0
LINE
  8
0
  6
CONTINUOUS
 62
       7
  5
232
 10
165.37433007
 20
133.24675033
 30
0.0
 11
165.37433007
 21
128.24675029
 31
0.0
  0
LINE
  8
0
  6
CONTINUOUS
 62
       7
  5
233
 10
-48.62566991
 20
133.24675033
 30
0.0
 11
-5.63360617
 21
133.24675033
 31
0.0
  0
LINE
  8
0
  6
CONTINUOUS
 62
       2
  5
234
 10
-47.1402301
 20
114.24675019
 30
0.0
 11
-39.59463115
 21
114.24675019
 31
0.0
  0
LINE
  8
0
  6
CONTINUOUS
 62
       2
  5
235
 10
-47.1402301
 20
84.24674996
 30
0.0
 11
-39.59463115
 21
84.24674996
 31
0.0
  0
LINE
  8
0
  6
CONTINUOUS
 62
       7
  5
236
 10
-5.63360617
 20
133.73881383
 30
0.0
 11
-5.63360617
 21
126.73881377
 31
0.0
  0
LINE
  8
0
  6
CONTINUOUS
 62
       7
  5
237
 10
16.366394
 20
133.73881383
 30
0.0
 11
16.366394
 21
126.73881377
 31
0.0
  0
LINE
  8
0
  6
CONTINUOUS
 62
       7
  5
238
 10
2.8743304
 20
118.24675022
 30
0.0
 11
7.87433044
 21
118.24675022
 31
0.0
  0
LINE
  8
0
  6
CONTINUOUS
 62
       7
  5
239
 10
-5.63360617
 20
126.73881377
 30
0.0
 11
16.366394
 21
126.73881377
 31
0.0
  0
LINE
  8
0
  6
CONTINUOUS
 62
       7
  5
23A
 10
-5.63360617
 20
133.73881383
 30
0.0
 11
16.366394
 21
133.73881383
 31
0.0
  0
LINE
  8
0
  6
CONTINUOUS
 62
       7
  5
23B
 10
0.87433039
 20
126.73881377
 30
0.0
 11
0.87433039
 21
120.24675023
 31
0.0
  0
LINE
  8
0
  6
CONTINUOUS
 62
       7
  5
23C
 10
9.87433046
 20
126.73881377
 30
0.0
 11
9.87433046
 21
120.24675023
 31
0.0
  0
LINE
  8
0
  6
CENTER
 62
       2
  5
23D
 10
11.36639396
 20
133.24675033
 30
0.0
 11
11.36639396
 21
127.24675028
 31
0.0
  0
LINE
  8
0
  6
CENTER
 62
       2
  5
23E
 10
-1.12566963
 20
131.24675032
 30
0.0
 11
-1.12566963
 21
128.24675029
 31
0.0
  0
LINE
  8
0
  6
CENTER
 62
       2
  5
23F
 10
-2.63360615
 20
129.7388138
 30
0.0
 11
0.36639388
 21
129.7388138
 31
0.0
  0
LINE
  8
0
  6
CENTER
 62
       2
  5
240
 10
7.79496536
 20
130.24675031
 30
0.0
 11
14.73147335
 21
130.24675031
 31
0.0
  0
LINE
  8
0
  6
CENTER
 62
       2
  5
241
 10
5.36639391
 20
126.24675028
 30
0.0
 11
5.36639391
 21
119.24675022
 31
0.0
  0
LINE
  8
0
  6
CONTINUOUS
 62
       7
  5
242
 10
44.36639383
 20
133.73881383
 30
0.0
 11
44.36639383
 21
126.73881377
 31
0.0
  0
LINE
  8
0
  6
CONTINUOUS
 62
       7
  5
243
 10
66.366394
 20
133.73881383
 30
0.0
 11
66.366394
 21
126.73881377
 31
0.0
  0
LINE
  8
0
  6
CONTINUOUS
 62
       7
  5
244
 10
52.8743304
 20
118.24675022
 30
0.0
 11
57.87433044
 21
118.24675022
 31
0.0
  0
LINE
  8
0
  6
CONTINUOUS
 62
       7
  5
245
 10
44.36639383
 20
126.73881377
 30
0.0
 11
66.366394
 21
126.73881377
 31
0.0
  0
LINE
  8
0
  6
CONTINUOUS
 62
       7
  5
246
 10
44.36639383
 20
133.73881383
 30
0.0
 11
66.366394
 21
133.73881383
 31
0.0
  0
LINE
  8
0
  6
CONTINUOUS
 62
       7
  5
247
 10
50.87433039
 20
126.73881377
 30
0.0
 11
50.87433039
 21
120.24675023
 31
0.0
  0
LINE
  8
0
  6
CONTINUOUS
 62
       7
  5
248
 10
59.87433046
 20
126.73881377
 30
0.0
 11
59.87433046
 21
120.24675023
 31
0.0
  0
LINE
  8
0
  6
CENTER
 62
       2
  5
249
 10
61.36639396
 20
133.24675033
 30
0.0
 11
61.36639396
 21
127.24675028
 31
0.0
  0
LINE
  8
0
  6
CENTER
 62
       2
  5
24A
 10
48.87433037
 20
131.24675032
 30
0.0
 11
48.87433037
 21
128.24675029
 31
0.0
  0
LINE
  8
0
  6
CENTER
 62
       2
  5
24B
 10
47.36639385
 20
129.7388138
 30
0.0
 11
50.36639388
 21
129.7388138
 31
0.0
  0
LINE
  8
0
  6
CENTER
 62
       2
  5
24C
 10
57.79496536
 20
130.24675031
 30
0.0
 11
64.73147335
 21
130.24675031
 31
0.0
  0
LINE
  8
0
  6
CENTER
 62
       2
  5
24D
 10
55.36639391
 20
126.24675028
 30
0.0
 11
55.36639391
 21
119.24675022
 31
0.0
  0
LINE
  8
0
  6
CONTINUOUS
 62
       7
  5
24E
 10
16.366394
 20
133.24675033
 30
0.0
 11
44.36639383
 21
133.24675033
 31
0.0
  0
LINE
  8
0
  6
CONTINUOUS
 62
       7
  5
24F
 10
16.366394
 20
128.24675029
 30
0.0
 11
44.36639383
 21
128.24675029
 31
0.0
  0
LINE
  8
0
  6
CONTINUOUS
 62
       7
  5
250
 10
9.87433046
 20
126.24675028
 30
0.0
 11
50.87433039
 21
126.24675028
 31
0.0
  0
LINE
  8
0
  6
CONTINUOUS
 62
       7
  5
251
 10
9.87433046
 20
124.38960741
 30
0.0
 11
50.87433039
 21
124.38960741
 31
0.0
  0
LINE
  8
0
  6
CONTINUOUS
 62
       7
  5
252
 10
9.87433046
 20
121.08802008
 30
0.0
 11
50.87433039
 21
121.08802008
 31
0.0
  0
LINE
  8
0
  6
CONTINUOUS
 62
       7
  5
253
 10
66.366394
 20
133.24675033
 30
0.0
 11
165.37433007
 21
133.24675033
 31
0.0
  0
LINE
  8
0
  6
CONTINUOUS
 62
       7
  5
254
 10
66.366394
 20
128.24675029
 30
0.0
 11
154.37432999
 21
128.24675029
 31
0.0
  0
LINE
  8
0
  6
CONTINUOUS
 62
       7
  5
255
 10
59.87433046
 20
126.24675028
 30
0.0
 11
98.3743312
 21
126.24675028
 31
0.0
  0
LINE
  8
0
  6
CONTINUOUS
 62
       7
  5
256
 10
59.87433046
 20
124.38960741
 30
0.0
 11
98.3743312
 21
124.38960741
 31
0.0
  0
LINE
  8
0
  6
CONTINUOUS
 62
       7
  5
257
 10
59.87433046
 20
121.08802008
 30
0.0
 11
98.3743312
 21
121.08802008
 31
0.0
  0
ARC
  8
0
  6
CONTINUOUS
 62
       7
  5
258
 10
163.1894611
 20
94.03246432
 30
0.0
 40
6.18033646
 50
343.66637878
 51
16.33362122
  0
ARC
  8
0
  6
CONTINUOUS
 62
       7
  5
259
 10
144.21782
 20
99.23881356
 30
0.0
 40
25.14289912
 50
352.07124183
 51
7.92875817
  0
ARC
  8
0
  6
CONTINUOUS
 62
       7
  5
25A
 10
163.18930058
 20
104.44516281
 30
0.0
 40
6.1804905
 50
343.66679728
 51
16.33320272
  0
ARC
  8
0
  6
CONTINUOUS
 62
       7
  5
25B
 10
172.55915742
 20
94.03246432
 30
0.0
 40
6.19553047
 50
163.70755284
 51
196.29244716
  0
ARC
  8
0
  6
CONTINUOUS
 62
       7
  5
25C
 10
191.53079852
 20
99.23881356
 30
0.0
 40
25.15857923
 50
172.07621519
 51
187.92378481
  0
ARC
  8
0
  6
CONTINUOUS
 62
       7
  5
25D
 10
172.55936635
 20
104.44516281
 30
0.0
 40
6.19573101
 50
163.70809487
 51
196.29190513
  0
CIRCLE
  8
0
  6
CONTINUOUS
 62
       7
  5
25E
 10
7.87433017
 20
99.24675007
 30
0.0
 40
2.75000014
  0
CIRCLE
  8
0
  6
CONTINUOUS
 62
       7
  5
25F
 10
52.87433051
 20
99.24675007
 30
0.0
 40
2.75000014
  0
CIRCLE
  8
0
  6
CONTINUOUS
 62
       7
  5
260
 10
7.87433017
 20
99.24675007
 30
0.0
 40
4.74999901
  0
CIRCLE
  8
0
  6
CONTINUOUS
 62
       7
  5
261
 10
52.87433051
 20
99.24675007
 30
0.0
 40
4.74999901
  0
CIRCLE
  8
0
  6
CONTINUOUS
 62
       7
  5
262
 10
-44.62567667
 20
75.24672761
 30
0.0
 40
2.24999929
  0
CIRCLE
  8
0
  6
CONTINUOUS
 62
       7
  5
263
 10
-44.62567667
 20
123.24676091
 30
0.0
 40
2.24999929
  0
CIRCLE
  8
0
  6
CONTINUOUS
 62
       7
  5
264
 10
161.3743436
 20
75.24672761
 30
0.0
 40
2.24999929
  0
CIRCLE
  8
0
  6
CONTINUOUS
 62
       7
  5
265
 10
161.3743436
 20
123.24676091
 30
0.0
 40
2.24999929
  0
ARC
  8
0
  6
CONTINUOUS
 62
       7
  5
266
 10
104.55916629
 20
94.03246432
 30
0.0
 40
6.19553791
 50
163.70757295
 51
196.29242705
  0
ARC
  8
0
  6
CONTINUOUS
 62
       7
  5
267
 10
95.18946997
 20
94.03246432
 30
0.0
 40
6.18032902
 50
343.66635857
 51
16.33364143
  0
ARC
  8
0
  6
CONTINUOUS
 62
       7
  5
268
 10
76.21782887
 20
99.23881356
 30
0.0
 40
25.14289144
 50
352.07123939
 51
7.92876061
  0
ARC
  8
0
  6
CONTINUOUS
 62
       7
  5
269
 10
123.53083161
 20
99.23881356
 30
0.0
 40
25.15861089
 50
172.07622523
 51
187.92377477
  0
ARC
  8
0
  6
CONTINUOUS
 62
       7
  5
26A
 10
95.18928523
 20
104.44516281
 30
0.0
 40
6.18050631
 50
343.66684021
 51
16.33315979
  0
ARC
  8
0
  6
CONTINUOUS
 62
       7
  5
26B
 10
104.559351
 20
104.44516281
 30
0.0
 40
6.1957152
 50
163.70805214
 51
196.29194786
  0
CIRCLE
  8
0
  6
CONTINUOUS
 62
       7
  5
26C
 10
-43.62566891
 20
114.24673953
 30
0.0
 40
2.49999972
  0
CIRCLE
  8
0
  6
CONTINUOUS
 62
       7
  5
26D
 10
-43.62566891
 20
84.24674899
 30
0.0
 40
2.49999972
  0
CIRCLE
  8
0
  6
CONTINUOUS
 62
       7
  5
26E
 10
160.37433585
 20
114.24673953
 30
0.0
 40
2.49999972
  0
CIRCLE
  8
0
  6
CONTINUOUS
 62
       7
  5
26F
 10
160.37433585
 20
84.24674899
 30
0.0
 40
2.49999972
  0
CIRCLE
  8
0
  6
CONTINUOUS
 62
       7
  5
270
 10
11.37432078
 20
130.24674256
 30
0.0
 40
1.59999909
  0
CIRCLE
  8
0
  6
CONTINUOUS
 62
       7
  5
271
 10
11.37432078
 20
130.24674256
 30
0.0
 40
2.49999972
  0
CIRCLE
  8
0
  6
CONTINUOUS
 62
       7
  5
272
 10
-1.12567931
 20
129.74673868
 30
0.0
 40
1.10000004
  0
ARC
  8
0
  6
CONTINUOUS
 62
       7
  5
273
 10
2.87432265
 20
120.24674248
 30
0.0
 40
1.99999226
 50
179.99977796
 51
270.00022204
  0
ARC
  8
0
  6
CONTINUOUS
 62
       7
  5
274
 10
7.87433044
 20
120.24675023
 30
0.0
 40
2.00000002
 50
270.0
 51
360.0
  0
CIRCLE
  8
0
  6
CONTINUOUS
 62
       7
  5
275
 10
5.37432267
 20
122.74673281
 30
0.0
 40
2.74999863
  0
CIRCLE
  8
0
  6
CONTINUOUS
 62
       7
  5
276
 10
5.37432267
 20
122.74673281
 30
0.0
 40
2.99999905
  0
CIRCLE
  8
0
  6
CONTINUOUS
 62
       7
  5
277
 10
61.37432078
 20
130.24674256
 30
0.0
 40
1.59999909
  0
CIRCLE
  8
0
  6
CONTINUOUS
 62
       7
  5
278
 10
61.37432078
 20
130.24674256
 30
0.0
 40
2.49999972
  0
CIRCLE
  8
0
  6
CONTINUOUS
 62
       7
  5
279
 10
48.87432069
 20
129.74673868
 30
0.0
 40
1.10000004
  0
ARC
  8
0
  6
CONTINUOUS
 62
       7
  5
27A
 10
52.87432265
 20
120.24674248
 30
0.0
 40
1.99999226
 50
179.99977796
 51
270.00022204
  0
ARC
  8
0
  6
CONTINUOUS
 62
       7
  5
27B
 10
57.87433044
 20
120.24675023
 30
0.0
 40
2.00000002
 50
270.0
 51
360.0
  0
CIRCLE
  8
0
  6
CONTINUOUS
 62
       7
  5
27C
 10
55.37432267
 20
122.74673281
 30
0.0
 40
2.74999863
  0
CIRCLE
  8
0
  6
CONTINUOUS
 62
       7
  5
27D
 10
55.37432267
 20
122.74673281
 30
0.0
 40
2.99999905
  0
LINE
  8
0
  6
CONTINUOUS
 62
       7
  5
27E
 10
54.86639436
 20
67.24674983
 30
0.0
 11
54.86639436
 21
72.24674987
 31
0.0
  0
LINE
  8
0
  6
CONTINUOUS
 62
       7
  5
27F
 10
67.86639446
 20
64.7388133
 30
0.0
 11
67.86639446
 21
72.24674987
 31
0.0
  0
LINE
  8
0
  6
CONTINUOUS
 62
       2
  5
280
 10
-0.6079452
 20
99.24675007
 30
0.0
 11
180.4854413
 21
99.24675007
 31
0.0
  0
LINE
  8
0
  6
CONTINUOUS
 62
       7
  5
281
 10
282.09985352
 20
195.5
 30
0.0
 11
282.09985352
 21
-195.0
 31
0.0
  0
LINE
  8
0
  6
CONTINUOUS
 62
       7
  5
282
 10
-281.25
 20
195.5
 30
0.0
 11
282.09985352
 21
195.5
 31
0.0
  0
LINE
  8
0
  6
CONTINUOUS
 62
       7
  5
283
 10
-281.25
 20
195.5
 30
0.0
 11
-281.25
 21
-195.0
 31
0.0
  0
LINE
  8
0
  6
CONTINUOUS
 62
       7
  5
284
 10
-281.25
 20
-195.0
 30
0.0
 11
282.09985352
 21
-195.0
 31
0.0
  0
TEXT
  8
0
  6
CONTINUOUS
 62
       7
  5
285
 10
-269.30809639
 20
180.11428416
 30
0.0
 40
6.30000019
  1
MODEL:SUTK16*50-D-CS9HA2
 41
1.05109489
  7
MX_NOTE_STANDARD
 11
-269.30809639
 21
183.26428426
 31
0.0
 73
       2
  0
ENDSEC
  0
EOF
