  0
SECTION
  2
HEADER
  0
ENDSEC
  0
SECTION
  2
TABLES
  0
TABLE
  2
LTYPE
 70
     4
  0
LTYPE
  2
CONTINUOUS
 70
    64
  3
Solid line
 72
    65
 73
     0
 40
0.000000
  0
LTYPE
  2
DASHED
 70
    64
  3
__ __ __ __ __ __ __ __ __ __ __ __ __ __ __
 72
    65
 73
     2
 40
3.500000
 49
2.000000
 49
-1.500000
  0
LTYPE
  2
CENTER
 70
    64
  3
____ _ ____ _ ____ _ ____ _ ____ _ ____ _ ____
 72
    65
 73
     4
 40
17.500000
 49
13.000000
 49
-1.500000
 49
1.500000
 49
-1.500000
  0
LTYPE
  2
PHANTOM
 70
    64
  3
_____ _ _ _____ _ _ _____ _ _ _____ _ _ ____  
 72
    65
 73
     6
 40
15.500000
 49
8.000000
 49
-1.500000
 49
1.500000
 49
-1.500000
 49
1.500000
 49
-1.500000
  0
LTYPE
  2
DASHED1
 70
    64
  3
__ __ __ __ __ __ __ __ __ __ __ __ __ __ __
 72
    65
 73
     2
 40
1.500000
 49
1.000000
 49
-0.500000
  0
LTYPE
  2
DASHED2
 70
    64
  3
__ __ __ __ __ __ __ __ __ __ __ __ __ __ __
 72
    65
 73
     2
 40
3.500000
 49
2.500000
 49
-1.000000
  0
LTYPE
  2
DASHED3
 70
    64
  3
__ __ __ __ __ __ __ __ __ __ __ __ __ __ __
 72
    65
 73
     2
 40
6.000000
 49
4.000000
 49
-2.000000
  0
LTYPE
  2
DASHED4
 70
    64
  3
__ __ __ __ __ __ __ __ __ __ __ __ __ __ __
 72
    65
 73
     2
 40
12.000000
 49
10.000000
 49
-2.000000
  0
LTYPE
  2
DASHED5
 70
    64
  3
__ __ __ __ __ __ __ __ __ __ __ __ __ __ __
 72
    65
 73
     2
 40
17.000000
 49
15.000000
 49
-2.000000
  0
LTYPE
  2
DASHED6
 70
    64
  3
__ __ __ __ __ __ __ __ __ __ __ __ __ __ __
 72
    65
 73
     2
 40
29.000000
 49
27.000000
 49
-2.000000
  0
LTYPE
  2
PHANTOM1
 70
    64
  3
_____ _ _ _____ _ _ _____ _ _ _____ _ _ ____  
 72
    65
 73
     6
 40
31.000000
 49
25.000000
 49
-1.500000
 49
1.000000
 49
-1.000000
 49
1.000000
 49
-1.500000
  0
LTYPE
  2
PHANTOM2
 70
    64
  3
_____ _ _ _____ _ _ _____ _ _ _____ _ _ ____  
 72
    65
 73
     6
 40
36.000000
 49
27.000000
 49
-1.500000
 49
2.500000
 49
-1.000000
 49
2.500000
 49
-1.500000
  0
LTYPE
  2
PHANTOM3
 70
    64
  3
_____ _ _ _____ _ _ _____ _ _ _____ _ _ ____  
 72
    65
 73
     6
 40
78.000000
 49
64.000000
 49
-2.000000
 49
4.000000
 49
-2.000000
 49
4.000000
 49
-2.000000
  0
LTYPE
  2
CENTER1
 70
    64
  3
____ _ ____ _ ____ _ ____ _ ____ _ ____ _ ____
 72
    65
 73
     4
 40
19.000000
 49
14.000000
 49
-1.000000
 49
3.000000
 49
-1.000000
  0
LTYPE
  2
CENTER2
 70
    64
  3
____ _ ____ _ ____ _ ____ _ ____ _ ____ _ ____
 72
    65
 73
     4
 40
28.500000
 49
25.000000
 49
-1.000000
 49
1.500000
 49
-1.000000
  0
LTYPE
  2
CENTER3
 70
    64
  3
____ _ ____ _ ____ _ ____ _ ____ _ ____ _ ____
 72
    65
 73
     4
 40
31.500000
 49
27.000000
 49
-1.000000
 49
2.500000
 49
-1.000000
  0
LTYPE
  2
CENTER4
 70
    64
  3
____ _ ____ _ ____ _ ____ _ ____ _ ____ _ ____
 72
    65
 73
     4
 40
50.000000
 49
45.000000
 49
-1.000000
 49
3.000000
 49
-1.000000
  0
LTYPE
  2
CENTER5
 70
    64
  3
____ _ ____ _ ____ _ ____ _ ____ _ ____ _ ____
 72
    65
 73
     4
 40
100.000000
 49
92.000000
 49
-2.000000
 49
4.000000
 49
-2.000000
  0
LTYPE
  2
SBK1
 70
    64
  3
______ _ _ _ ______ _ _ _ ______ _ _ _ _____  
 72
    65
 73
     8
 40
60.500000
 49
45.000000
 49
-2.000000
 49
2.500000
 49
-2.000000
 49
2.500000
 49
-2.000000
 49
2.500000
 49
-2.000000
  0
LTYPE
  2
SBK2
 70
    64
  3
______ _ _ _ ______ _ _ _ ______ _ _ _ _____  
 72
    65
 73
     8
 40
84.000000
 49
64.000000
 49
-2.000000
 49
4.000000
 49
-2.000000
 49
4.000000
 49
-2.000000
 49
4.000000
 49
-2.000000
  0
LTYPE
  2
STCH
 70
    64
  3
__ __ __ __ __ __ __ __ __ __ __ __ __ __ __
 72
    65
 73
     2
 40
3.000000
 49
1.000000
 49
-2.000000
  0
LTYPE
  2
MTCH
 70
    64
  3
_____ _ _ _____ _ _ _____ _ _ _____ _ _ ____  
 72
    65
 73
     6
 40
80.000000
 49
66.000000
 49
-2.000000
 49
4.000000
 49
-2.000000
 49
4.000000
 49
-2.000000
  0
ENDTAB
  0
TABLE
  2
LAYER
 70
     1
  0
LAYER
  2
0
 70
     0
 62
     7
  6
CONTINUOUS
  0
ENDTAB
  0
TABLE
  2
STYLE
 70
     1
  0
STYLE
  2
STANDARD
 70
     0
 40
0.000000
 41
1.000000
 50
0.000000
 71
     0
 42
0.200000
  3
txt
  4
BIGFONT
  0
ENDTAB
  0
TABLE
  2
VIEW
 70
     0
  0
ENDTAB
  0
ENDSEC
  0
SECTION
  2
BLOCKS
  0
ENDSEC
  0
SECTION
  2
ENTITIES
  0
LINE
  8
0
 10
-194.250000
 20
132.600006
 11
194.800003
 21
132.600006
  0
LINE
  8
0
 10
194.800003
 20
132.600006
 11
194.800003
 21
-133.500000
  0
LINE
  8
0
 10
-194.250000
 20
132.600006
 11
-194.250000
 21
-133.500000
  0
LINE
  8
0
 10
-194.250000
 20
-133.500000
 11
194.800003
 21
-133.500000
  0
LINE
  8
0
 10
109.800003
 20
-118.500000
 11
109.800003
 21
-133.500000
  0
LINE
  8
0
 10
109.800003
 20
-118.500000
 11
194.800003
 21
-118.500000
  0
LINE
  8
0
 10
109.800003
 20
132.600006
 11
109.800003
 21
117.600006
  0
LINE
  8
0
 10
109.800003
 20
117.600006
 11
194.800003
 21
117.600006
  0
LINE
  8
0
 10
-194.250000
 20
117.600006
 11
-109.250000
 21
117.600006
  0
LINE
  8
0
 10
-109.250000
 20
132.600006
 11
-109.250000
 21
117.600006
  0
LINE
  8
0
  6
DASHED
 62
     4
 10
-69.096405
 20
-51.709522
 11
-47.096405
 21
-51.709522
  0
LINE
  8
0
  6
DASHED
 62
     4
 10
-69.096405
 20
-55.809521
 11
-47.096405
 21
-55.809521
  0
LINE
  8
0
  6
DASHED
 62
     4
 10
-69.096405
 20
-51.709522
 11
-69.096405
 21
-52.159523
  0
LINE
  8
0
  6
DASHED
 62
     4
 10
-47.096405
 20
-51.709522
 11
-47.096405
 21
-52.159523
  0
LINE
  8
0
  6
DASHED
 62
     4
 10
-69.096405
 20
-55.359520
 11
-69.096405
 21
-55.809521
  0
LINE
  8
0
  6
DASHED
 62
     4
 10
-47.096405
 20
-55.359520
 11
-47.096405
 21
-55.809521
  0
LINE
  8
0
  6
DASHED
 62
     4
 10
89.714737
 20
-50.759510
 11
106.628716
 21
-50.759510
  0
LINE
  8
0
  6
DASHED
 62
     4
 10
89.714737
 20
-46.659512
 11
106.628716
 21
-46.659512
  0
LINE
  8
0
  6
DASHED
 62
     4
 10
89.714737
 20
-47.109512
 11
89.714737
 21
-46.659512
  0
LINE
  8
0
  6
DASHED
 62
     4
 10
89.714737
 20
-50.309509
 11
89.714737
 21
-50.759510
  0
LINE
  8
0
  6
DASHED
 62
     4
 10
-69.096405
 20
-96.309525
 11
-47.096405
 21
-96.309525
  0
LINE
  8
0
  6
DASHED
 62
     4
 10
-64.396393
 20
-100.909523
 11
-47.096405
 21
-100.909523
  0
LINE
  8
0
  6
DASHED
 62
     4
 10
-47.096405
 20
-96.309525
 11
-47.096405
 21
-100.909523
  0
LINE
  8
0
  6
DASHED
 62
     4
 10
-69.096405
 20
-98.109520
 11
-69.096405
 21
-96.309525
  0
LINE
  8
0
  6
DASHED
 62
     4
 10
-64.396393
 20
-99.351486
 11
-64.396393
 21
-100.909523
  0
LINE
  8
0
  6
DASHED
 62
     4
 10
-69.096405
 20
-98.109520
 11
-64.846390
 21
-98.109520
  0
LINE
  8
0
  6
DASHED
 62
     4
 10
-64.846390
 20
-98.109520
 11
-64.846390
 21
-99.351486
  0
LINE
  8
0
  6
DASHED
 62
     4
 10
-65.096390
 20
-98.109520
 11
-65.096390
 21
-98.909523
  0
LINE
  8
0
  6
DASHED
 62
     4
 10
-69.096405
 20
-98.109520
 11
-69.096405
 21
-98.909523
  0
LINE
  8
0
  6
DASHED
 62
     4
 10
-69.096405
 20
-98.909523
 11
-65.096390
 21
-98.909523
  0
LINE
  8
0
  6
DASHED
 62
     4
 10
-64.896393
 20
-98.109520
 11
-64.896393
 21
-100.109520
  0
LINE
  8
0
  6
DASHED
 62
     4
 10
-64.896393
 20
-100.109520
 11
-64.396393
 21
-100.109520
  0
LINE
  8
0
  6
DASHED
 62
     4
 10
-64.846390
 20
-99.351486
 11
-64.396393
 21
-99.351486
  0
LINE
  8
0
  6
DASHED
 62
     4
 10
-38.596375
 20
-97.309509
 11
-38.596375
 21
-99.909515
  0
LINE
  8
0
  6
CENTER
 62
     1
 10
-40.319275
 20
-98.159439
 11
-28.387207
 21
-98.159439
  0
LINE
  8
0
  6
CENTER
 62
     1
 10
-40.268982
 20
-99.059433
 11
-28.345337
 21
-99.059433
  0
LINE
  8
0
  6
DASHED
 62
     4
 10
-28.596375
 20
-97.909454
 11
-28.596375
 21
-98.409454
  0
LINE
  8
0
  6
DASHED
 62
     4
 10
-28.596375
 20
-98.809448
 11
-28.596375
 21
-99.309448
  0
LINE
  8
0
  6
DASHED
 62
     4
 10
-31.596375
 20
-97.709442
 11
-31.596375
 21
-99.509460
  0
LINE
  8
0
  6
DASHED
 62
     4
 10
-38.596375
 20
-99.509445
 11
-34.590820
 21
-99.509445
  0
LINE
  8
0
  6
DASHED
 62
     4
 10
-38.596375
 20
-98.609421
 11
-35.110413
 21
-98.609421
  0
LINE
  8
0
  6
DASHED
 62
     4
 10
-33.610413
 20
-98.609421
 11
-31.596375
 21
-98.609421
  0
LINE
  8
0
  6
DASHED
 62
     4
 10
-33.090820
 20
-99.509445
 11
-31.596375
 21
-99.509445
  0
LINE
  8
0
  6
DASHED
 62
     4
 10
-38.596375
 20
-97.709427
 11
-35.630066
 21
-97.709427
  0
LINE
  8
0
  6
DASHED
 62
     4
 10
-34.130066
 20
-97.709427
 11
-31.596375
 21
-97.709427
  0
LINE
  8
0
  6
DASHED
 62
     4
 10
-31.596375
 20
-97.909439
 11
-28.596375
 21
-97.909439
  0
LINE
  8
0
  6
DASHED
 62
     4
 10
-31.596375
 20
-98.409439
 11
-28.596375
 21
-98.409439
  0
LINE
  8
0
  6
DASHED
 62
     4
 10
-31.596375
 20
-98.809433
 11
-28.596375
 21
-98.809433
  0
LINE
  8
0
  6
DASHED
 62
     4
 10
-31.596375
 20
-99.309433
 11
-28.596375
 21
-99.309433
  0
LINE
  8
0
 62
     1
 10
-34.860405
 20
-96.444527
 11
-32.360405
 21
-100.774651
  0
LINE
  8
0
  6
CENTER
 62
     1
 10
-48.410767
 20
-98.609512
 11
-38.596375
 21
-98.609512
  0
LINE
  8
0
 62
     1
 10
-36.360477
 20
-96.444496
 11
-33.860477
 21
-100.774628
  0
LINE
  8
0
 62
     1
 10
-43.841167
 20
-96.444473
 11
-41.341164
 21
-100.774605
  0
LINE
  8
0
 62
     1
 10
-45.341129
 20
-96.444534
 11
-42.841129
 21
-100.774658
  0
LINE
  8
0
  6
DASHED
 62
     4
 10
-68.121399
 20
-100.309525
 11
-66.071396
 21
-100.309525
  0
LINE
  8
0
  6
DASHED
 62
     4
 10
-66.070984
 20
-100.309975
 11
-65.845993
 21
-100.084969
  0
LINE
  8
0
  6
DASHED
 62
     4
 10
-68.121353
 20
-100.309540
 11
-68.346352
 21
-100.084549
  0
LINE
  8
0
  6
DASHED
 62
     4
 10
-68.346390
 20
-98.908707
 11
-68.346390
 21
-100.084526
  0
LINE
  8
0
 62
     1
 10
-68.121399
 20
-98.908707
 11
-68.121399
 21
-100.309525
  0
LINE
  8
0
 62
     1
 10
-66.071396
 20
-98.908707
 11
-66.071396
 21
-100.309525
  0
LINE
  8
0
  6
DASHED
 62
     4
 10
-65.846390
 20
-98.908707
 11
-65.846390
 21
-100.084518
  0
LINE
  8
0
  6
DASHED
 62
     4
 10
-68.346390
 20
-100.084526
 11
-65.846390
 21
-100.084526
  0
LINE
  8
0
  6
DASHED
 62
     4
 10
-69.096405
 20
-97.309525
 11
-47.096405
 21
-97.309525
  0
LINE
  8
0
  6
DASHED
 62
     4
 10
-69.096405
 20
-96.759506
 11
-47.096405
 21
-96.759506
  0
LINE
  8
0
  6
DASHED
 62
     4
 10
-47.096405
 20
-97.309509
 11
-44.841705
 21
-97.309509
  0
LINE
  8
0
  6
DASHED
 62
     4
 10
-47.096405
 20
-99.909515
 11
-43.340607
 21
-99.909515
  0
LINE
  8
0
  6
DASHED
 62
     4
 10
-43.341675
 20
-97.309509
 11
-38.596375
 21
-97.309509
  0
LINE
  8
0
  6
DASHED
 62
     4
 10
-41.840576
 20
-99.909515
 11
-38.596375
 21
-99.909515
  0
LINE
  8
0
  6
DASHED
 62
     4
 10
89.714737
 20
-96.309525
 11
105.814743
 21
-96.309525
  0
LINE
  8
0
  6
DASHED
 62
     4
 10
94.414719
 20
-100.909523
 11
111.714737
 21
-100.909523
  0
LINE
  8
0
  6
DASHED
 62
     4
 10
89.714737
 20
-98.909523
 11
89.714737
 21
-96.309525
  0
LINE
  8
0
  6
DASHED
 62
     4
 10
94.414719
 20
-99.291679
 11
94.414719
 21
-100.909523
  0
LINE
  8
0
  6
CENTER
 62
     1
 10
91.714737
 20
-95.579269
 11
91.714737
 21
-101.482193
  0
LINE
  8
0
  6
DASHED
 62
     4
 10
89.714737
 20
-98.109528
 11
93.988541
 21
-98.109528
  0
LINE
  8
0
  6
DASHED
 62
     4
 10
89.714737
 20
-98.909523
 11
93.714737
 21
-98.909523
  0
LINE
  8
0
  6
DASHED
 62
     4
 10
93.714737
 20
-98.109520
 11
93.714737
 21
-98.909523
  0
LINE
  8
0
  6
DASHED
 62
     4
 10
93.914719
 20
-100.109528
 11
94.414719
 21
-100.109528
  0
LINE
  8
0
  6
DASHED
 62
     4
 10
93.914719
 20
-98.109528
 11
93.914719
 21
-100.109528
  0
LINE
  8
0
  6
DASHED
 62
     4
 10
93.988541
 20
-99.291679
 11
94.414719
 21
-99.291679
  0
LINE
  8
0
  6
DASHED
 62
     4
 10
93.988541
 20
-98.109528
 11
93.988541
 21
-99.291679
  0
LINE
  8
0
  6
DASHED
 62
     4
 10
89.714737
 20
-97.309525
 11
111.714737
 21
-97.309525
  0
LINE
  8
0
  6
DASHED
 62
     4
 10
89.714737
 20
-96.759521
 11
111.714737
 21
-96.759521
  0
LINE
  8
0
  6
DASHED
 62
     4
 10
90.689713
 20
-100.309525
 11
92.739731
 21
-100.309525
  0
LINE
  8
0
  6
DASHED
 62
     4
 10
92.740295
 20
-100.310059
 11
92.965286
 21
-100.085060
  0
LINE
  8
0
  6
DASHED
 62
     4
 10
90.689796
 20
-100.309395
 11
90.464813
 21
-100.084404
  0
LINE
  8
0
  6
DASHED
 62
     4
 10
90.464737
 20
-98.909523
 11
90.464737
 21
-100.084526
  0
LINE
  8
0
 62
     1
 10
90.689713
 20
-98.909523
 11
90.689713
 21
-100.309525
  0
LINE
  8
0
 62
     1
 10
92.739731
 20
-98.909523
 11
92.739731
 21
-100.309525
  0
LINE
  8
0
  6
DASHED
 62
     4
 10
92.964737
 20
-98.909523
 11
92.964737
 21
-100.084518
  0
LINE
  8
0
  6
DASHED
 62
     4
 10
90.464737
 20
-100.084526
 11
92.964737
 21
-100.084526
  0
LINE
  8
0
 62
     1
 10
90.689713
 20
-95.809525
 11
90.689713
 21
-96.309525
  0
LINE
  8
0
 62
     1
 10
92.739731
 20
-95.809525
 11
92.739731
 21
-96.309525
  0
LINE
  8
0
  6
DASHED
 62
     4
 10
111.714737
 20
-96.309525
 11
111.714737
 21
-100.909523
  0
LINE
  8
0
 10
104.975525
 20
21.443623
 11
104.975525
 21
-14.556381
  0
LINE
  8
0
 10
116.975525
 20
21.443623
 11
116.975525
 21
-14.556381
  0
LINE
  8
0
 10
128.975525
 20
21.443623
 11
128.975525
 21
-14.556381
  0
LINE
  8
0
 10
140.975525
 20
21.443623
 11
140.975525
 21
-14.556381
  0
LINE
  8
0
 10
152.975525
 20
21.443623
 11
152.975525
 21
-14.556381
  0
LINE
  8
0
 10
164.975525
 20
21.443623
 11
164.975525
 21
-14.556381
  0
LINE
  8
0
 10
176.975525
 20
21.443623
 11
176.975525
 21
-14.556381
  0
LINE
  8
0
 10
188.975525
 20
21.443623
 11
188.975525
 21
-14.556381
  0
LINE
  8
0
 10
79.975525
 20
21.443623
 11
188.975525
 21
21.443623
  0
LINE
  8
0
 10
79.975525
 20
3.443623
 11
188.975525
 21
3.443623
  0
LINE
  8
0
 10
79.975525
 20
-2.556377
 11
188.975525
 21
-2.556377
  0
LINE
  8
0
 10
79.975525
 20
-14.556381
 11
188.975525
 21
-14.556381
  0
LINE
  8
0
 10
104.975525
 20
3.443623
 11
102.859604
 21
15.443623
  0
LINE
  8
0
 10
79.975525
 20
15.443623
 11
102.859604
 21
15.443623
  0
LINE
  8
0
 10
79.975525
 20
21.443623
 11
79.975525
 21
-14.556381
  0
LINE
  8
0
 10
79.975525
 20
-8.556381
 11
188.975525
 21
-8.556381
  0
LINE
  8
0
 10
-57.000000
 20
85.500000
 11
-57.000000
 21
44.500000
  0
LINE
  8
0
 10
-52.000000
 20
85.500000
 11
-52.000000
 21
44.500000
  0
LINE
  8
0
 10
-35.000000
 20
85.500000
 11
-35.000000
 21
44.500000
  0
LINE
  8
0
 10
21.000000
 20
85.500000
 11
21.000000
 21
44.500031
  0
LINE
  8
0
 10
20.999968
 20
85.499969
 11
20.499968
 21
85.999969
  0
LINE
  8
0
 10
20.999981
 20
44.500011
 11
20.499981
 21
44.000011
  0
LINE
  8
0
 10
-34.500000
 20
86.000000
 11
20.500000
 21
86.000000
  0
LINE
  8
0
 10
-34.500015
 20
44.000000
 11
20.500000
 21
44.000000
  0
LINE
  8
0
 10
-34.999985
 20
85.499992
 11
-34.499981
 21
85.999992
  0
LINE
  8
0
 10
-35.000015
 20
44.500000
 11
-34.500015
 21
44.000000
  0
LINE
  8
0
 10
-57.000000
 20
85.500000
 11
-52.000000
 21
85.500000
  0
LINE
  8
0
 10
-57.000000
 20
44.500000
 11
-52.000000
 21
44.500000
  0
LINE
  8
0
  6
CENTER
 62
     2
 10
-59.025002
 20
65.000000
 11
23.824997
 21
65.000000
  0
LINE
  8
0
  6
CENTER
 62
     2
 10
-53.625000
 20
56.000000
 11
-33.025009
 21
56.000000
  0
LINE
  8
0
  6
CENTER
 62
     2
 10
-53.606194
 20
74.000000
 11
-33.025009
 21
74.000000
  0
LINE
  8
0
 10
-52.000000
 20
77.000000
 11
-35.000000
 21
77.000000
  0
LINE
  8
0
 10
-52.000000
 20
71.000000
 11
-35.000000
 21
71.000000
  0
LINE
  8
0
 10
-52.000000
 20
59.000000
 11
-35.000000
 21
59.000000
  0
LINE
  8
0
 10
-52.000000
 20
53.000000
 11
-35.000000
 21
53.000000
  0
LINE
  8
0
 10
-36.800003
 20
67.780090
 11
-36.800003
 21
62.280090
  0
LINE
  8
0
 10
-42.000000
 20
67.411652
 11
-42.000000
 21
62.648514
  0
LINE
  8
0
 10
-42.000000
 20
67.780090
 11
-42.000000
 21
62.280075
  0
LINE
  8
0
 10
-40.000000
 20
68.205505
 11
-40.000000
 21
61.854660
  0
LINE
  8
0
 10
-41.754395
 20
68.205505
 11
-40.000000
 21
68.205505
  0
LINE
  8
0
 10
-41.754395
 20
61.854660
 11
-40.000000
 21
61.854660
  0
LINE
  8
0
 10
-41.754395
 20
66.617798
 11
-40.000000
 21
66.617798
  0
LINE
  8
0
 10
-41.754379
 20
63.442368
 11
-40.000000
 21
63.442368
  0
LINE
  8
0
 10
-36.799995
 20
67.780098
 11
-36.554379
 21
68.205528
  0
LINE
  8
0
 10
-36.554352
 20
61.854687
 11
-36.799969
 21
62.280102
  0
LINE
  8
0
 10
-42.000008
 20
67.780090
 11
-41.754387
 21
68.205521
  0
LINE
  8
0
 10
-41.754372
 20
61.854671
 11
-41.999985
 21
62.280083
  0
LINE
  8
0
 10
-34.999973
 20
67.780106
 11
-35.245594
 21
68.205536
  0
LINE
  8
0
 10
-35.245640
 20
61.854675
 11
-35.000023
 21
62.280090
  0
LINE
  8
0
 10
-36.554382
 20
68.205505
 11
-35.245621
 21
68.205505
  0
LINE
  8
0
 10
-36.554382
 20
61.854660
 11
-35.245636
 21
61.854660
  0
LINE
  8
0
 10
-36.554382
 20
63.442368
 11
-35.245621
 21
63.442368
  0
LINE
  8
0
 10
-36.554382
 20
66.617798
 11
-35.245621
 21
66.617798
  0
LINE
  8
0
 62
     2
 10
-40.000000
 20
66.310486
 11
-36.800003
 21
66.310486
  0
LINE
  8
0
 62
     2
 10
-40.000000
 20
63.689484
 11
-36.800003
 21
63.689484
  0
LINE
  8
0
 10
-40.000000
 20
66.500000
 11
-36.800003
 21
66.500000
  0
LINE
  8
0
 10
-40.000000
 20
63.500000
 11
-36.800003
 21
63.500000
  0
LINE
  8
0
  6
CENTER
 62
     2
 10
-56.750000
 20
78.000000
 11
-52.250000
 21
78.000000
  0
LINE
  8
0
  6
CENTER
 62
     2
 10
-56.750000
 20
52.000000
 11
-52.250000
 21
52.000000
  0
LINE
  8
0
  6
CENTER
 62
     2
 10
-54.500000
 20
54.250000
 11
-54.500000
 21
49.750000
  0
LINE
  8
0
  6
CENTER
 62
     2
 10
-54.500000
 20
80.250000
 11
-54.500000
 21
75.750000
  0
LINE
  8
0
  6
CENTER
 62
     2
 10
-9.000000
 20
82.000000
 11
-1.000000
 21
82.000000
  0
LINE
  8
0
  6
CENTER
 62
     2
 10
-9.000000
 20
48.000000
 11
-1.000000
 21
48.000000
  0
LINE
  8
0
  6
CENTER
 62
     2
 10
-20.000000
 20
69.000000
 11
-20.000000
 21
61.000000
  0
LINE
  8
0
  6
CENTER
 62
     2
 10
-5.000000
 20
86.000000
 11
-5.000000
 21
78.000000
  0
LINE
  8
0
  6
CENTER
 62
     2
 10
0.000000
 20
69.000000
 11
0.000000
 21
61.000000
  0
LINE
  8
0
  6
CENTER
 62
     2
 10
-5.000000
 20
52.000000
 11
-5.000000
 21
44.000000
  0
LINE
  8
0
 10
-49.500000
 20
75.496643
 11
-49.500000
 21
72.503342
  0
LINE
  8
0
 10
-52.000000
 20
75.496643
 11
-49.500000
 21
75.496643
  0
LINE
  8
0
 10
-52.000000
 20
72.503342
 11
-49.500000
 21
72.503342
  0
LINE
  8
0
 10
-52.000000
 20
57.496643
 11
-49.500000
 21
57.496643
  0
LINE
  8
0
 10
-52.000000
 20
54.503342
 11
-49.500000
 21
54.503342
  0
LINE
  8
0
 10
-49.500000
 20
57.496643
 11
-49.500000
 21
54.503342
  0
LINE
  8
0
 10
-51.999977
 20
54.503315
 11
-49.499977
 21
57.496616
  0
LINE
  8
0
 10
-52.000015
 20
57.496635
 11
-49.500008
 21
54.503323
  0
LINE
  8
0
 10
-49.499973
 20
75.496620
 11
-51.999973
 21
72.503326
  0
LINE
  8
0
 10
-52.000023
 20
75.496613
 11
-49.500027
 21
72.503311
  0
LINE
  8
0
 10
-35.000000
 20
68.378098
 11
21.000000
 21
68.378098
  0
LINE
  8
0
 10
-35.000000
 20
79.178085
 11
-6.018234
 21
79.178085
  0
LINE
  8
0
 10
-35.000000
 20
82.378098
 11
-7.976074
 21
82.378098
  0
LINE
  8
0
 10
-35.000000
 20
65.178101
 11
-22.994705
 21
65.178101
  0
LINE
  8
0
 10
-2.023926
 20
82.378098
 11
21.000000
 21
82.378098
  0
LINE
  8
0
 10
-3.981766
 20
79.178085
 11
21.000000
 21
79.178085
  0
LINE
  8
0
 10
-17.005295
 20
65.178101
 11
-2.994705
 21
65.178101
  0
LINE
  8
0
 10
2.994705
 20
65.178101
 11
21.000000
 21
65.178101
  0
LINE
  8
0
  6
PHANTOM
 62
     3
 10
-14.068991
 20
101.461090
 11
-14.068991
 21
31.024887
  0
LINE
  8
0
  6
PHANTOM
 62
     3
 10
-0.302494
 20
93.030197
 11
-0.302494
 21
74.113327
  0
LINE
  8
0
  6
PHANTOM
 62
     3
 10
-4.806511
 20
74.113327
 11
-4.806511
 21
56.247387
  0
LINE
  8
0
  6
PHANTOM
 62
     3
 10
-4.806511
 20
74.113327
 11
-0.302494
 21
74.113327
  0
LINE
  8
0
  6
PHANTOM
 62
     3
 10
-4.806511
 20
56.247387
 11
-0.302494
 21
56.247387
  0
LINE
  8
0
  6
PHANTOM
 62
     3
 10
-0.302494
 20
56.247387
 11
-0.302494
 21
31.024887
  0
LINE
  8
0
  6
PHANTOM
 62
     3
 10
-47.000000
 20
93.030197
 11
-47.000000
 21
31.024887
  0
LINE
  8
0
  6
CENTER
 62
     2
 10
-95.774994
 20
65.000000
 11
-117.375000
 21
65.000000
  0
LINE
  8
0
  6
CENTER
 62
     2
 10
-106.500000
 20
88.600006
 11
-106.500000
 21
41.800003
  0
LINE
  8
0
 10
-114.500000
 20
85.500000
 11
-114.500000
 21
44.500000
  0
LINE
  8
0
 10
-98.500000
 20
85.500000
 11
-98.500000
 21
44.500000
  0
LINE
  8
0
 10
-98.500000
 20
85.500000
 11
-114.500000
 21
85.500000
  0
LINE
  8
0
 10
-98.500000
 20
44.500000
 11
-114.500000
 21
44.500000
  0
LINE
  8
0
 10
-107.750000
 20
74.721695
 11
-107.750000
 21
73.278305
  0
LINE
  8
0
 10
-105.250000
 20
74.721680
 11
-105.250000
 21
73.278320
  0
LINE
  8
0
 10
-107.749969
 20
74.721733
 11
-106.499985
 21
75.443413
  0
LINE
  8
0
 10
-106.500000
 20
72.556656
 11
-105.250000
 21
73.278343
  0
LINE
  8
0
 10
-107.750008
 20
56.721722
 11
-106.500000
 21
57.443417
  0
LINE
  8
0
 10
-106.500008
 20
54.556660
 11
-105.250023
 21
55.278339
  0
LINE
  8
0
 10
-106.500008
 20
57.443382
 11
-105.250008
 21
56.721695
  0
LINE
  8
0
 10
-107.750000
 20
55.278313
 11
-106.500015
 21
54.556633
  0
LINE
  8
0
 10
-106.500015
 20
75.443375
 11
-105.250000
 21
74.721680
  0
LINE
  8
0
 10
-107.749992
 20
73.278313
 11
-106.500008
 21
72.556633
  0
LINE
  8
0
 10
-107.750000
 20
56.721680
 11
-107.750000
 21
55.278305
  0
LINE
  8
0
 10
-105.250000
 20
56.721680
 11
-105.250000
 21
55.278305
  0
LINE
  8
0
  6
CENTER
 62
     2
 10
-110.500000
 20
56.000000
 11
-102.500000
 21
56.000000
  0
LINE
  8
0
  6
CENTER
 62
     2
 10
-110.500000
 20
74.000000
 11
-102.500000
 21
74.000000
  0
LINE
  8
0
  6
CENTER
 62
     2
 10
-109.141571
 20
82.000000
 11
-104.250000
 21
82.000000
  0
LINE
  8
0
  6
CENTER
 62
     2
 10
-109.778595
 20
48.000000
 11
-104.250000
 21
48.000000
  0
LINE
  8
0
 10
-115.000000
 20
65.399979
 11
-115.000000
 21
44.500000
  0
LINE
  8
0
 10
-115.000000
 20
85.499985
 11
-115.000000
 21
82.599991
  0
LINE
  8
0
 10
-115.000000
 20
79.399979
 11
-115.000000
 21
68.599991
  0
LINE
  8
0
 10
-98.000000
 20
85.499985
 11
-98.000000
 21
82.599991
  0
LINE
  8
0
 10
-98.000107
 20
85.499863
 11
-98.500099
 21
85.999855
  0
LINE
  8
0
 10
-98.500008
 20
43.999928
 11
-98.000015
 21
44.499916
  0
LINE
  8
0
 10
-114.500000
 20
44.000000
 11
-98.500000
 21
44.000000
  0
LINE
  8
0
 10
-114.999893
 20
85.499870
 11
-114.499893
 21
85.999870
  0
LINE
  8
0
 10
-115.000069
 20
44.499973
 11
-114.500076
 21
43.999985
  0
LINE
  8
0
 10
-104.899994
 20
85.999985
 11
-98.500000
 21
85.999985
  0
LINE
  8
0
 10
-98.000000
 20
65.399994
 11
-98.000000
 21
44.500000
  0
LINE
  8
0
 10
-114.499802
 20
85.999985
 11
-108.100006
 21
85.999985
  0
LINE
  8
0
 10
-115.000000
 20
68.599991
 11
-114.500000
 21
68.599991
  0
LINE
  8
0
 10
-115.000000
 20
65.399979
 11
-114.500000
 21
65.399979
  0
LINE
  8
0
 10
-98.000000
 20
79.399979
 11
-98.000000
 21
68.599991
  0
LINE
  8
0
 10
-115.000000
 20
65.399994
 11
-114.500000
 21
65.399994
  0
LINE
  8
0
 10
-115.000000
 20
68.599991
 11
-114.500000
 21
68.599991
  0
LINE
  8
0
 10
-98.000000
 20
65.399994
 11
-98.500000
 21
65.399994
  0
LINE
  8
0
 10
-98.000000
 20
68.599991
 11
-98.500000
 21
68.599991
  0
LINE
  8
0
 10
-98.000000
 20
79.399979
 11
-98.500000
 21
79.399979
  0
LINE
  8
0
 10
-98.000000
 20
82.599991
 11
-98.500000
 21
82.599991
  0
LINE
  8
0
 10
-115.000000
 20
79.399979
 11
-114.500000
 21
79.399979
  0
LINE
  8
0
 10
-115.000000
 20
82.599991
 11
-114.500000
 21
82.599991
  0
LINE
  8
0
 10
-104.899994
 20
85.999985
 11
-104.899994
 21
85.500000
  0
LINE
  8
0
 10
-108.100006
 20
85.999985
 11
-108.100006
 21
85.500000
  0
LINE
  8
0
  6
CENTER
 62
     2
 10
-116.500000
 20
82.000000
 11
-113.500000
 21
82.000000
  0
LINE
  8
0
  6
CENTER
 62
     2
 10
-116.500000
 20
48.000000
 11
-113.500000
 21
48.000000
  0
LINE
  8
0
  6
CENTER
 62
     2
 10
76.499977
 20
88.150009
 11
76.499977
 21
40.900009
  0
LINE
  8
0
  6
CENTER
 62
     2
 10
68.966255
 20
74.000000
 11
84.416252
 21
74.000000
  0
LINE
  8
0
  6
CENTER
 62
     2
 10
69.171333
 20
56.000015
 11
84.006081
 21
56.000015
  0
LINE
  8
0
 10
67.999977
 20
85.499985
 11
67.999977
 21
82.599991
  0
LINE
  8
0
 10
84.999977
 20
85.499985
 11
84.999977
 21
82.599991
  0
LINE
  8
0
 10
84.999840
 20
85.499863
 11
84.499847
 21
85.999855
  0
LINE
  8
0
 10
84.499931
 20
43.999989
 11
84.999924
 21
44.499977
  0
LINE
  8
0
 10
68.499977
 20
85.999985
 11
74.899971
 21
85.999985
  0
LINE
  8
0
 10
68.499977
 20
44.000015
 11
84.499977
 21
44.000015
  0
LINE
  8
0
 10
68.000031
 20
85.499924
 11
68.500122
 21
86.000015
  0
LINE
  8
0
 10
67.999886
 20
44.499981
 11
68.499878
 21
43.999992
  0
LINE
  8
0
 10
78.099983
 20
85.999985
 11
84.499977
 21
85.999985
  0
LINE
  8
0
 10
67.999977
 20
65.399979
 11
67.999977
 21
44.500015
  0
LINE
  8
0
 10
84.999977
 20
65.399994
 11
84.999977
 21
44.500015
  0
LINE
  8
0
 10
78.599983
 20
84.967072
 11
78.599983
 21
83.367081
  0
LINE
  8
0
 10
78.099869
 20
85.466980
 11
78.599861
 21
84.966988
  0
LINE
  8
0
 10
74.900063
 20
85.466980
 11
74.400047
 21
84.966965
  0
LINE
  8
0
 10
74.399971
 20
84.967087
 11
74.399971
 21
83.367081
  0
LINE
  8
0
 10
67.999977
 20
79.399979
 11
67.999977
 21
68.599991
  0
LINE
  8
0
 10
84.999977
 20
79.399979
 11
84.999977
 21
68.599991
  0
LINE
  8
0
 10
83.999977
 20
78.899979
 11
82.399971
 21
78.899979
  0
LINE
  8
0
 10
84.500000
 20
79.399940
 11
84.000008
 21
78.899948
  0
LINE
  8
0
 10
84.499847
 20
82.599930
 11
83.999855
 21
83.099915
  0
LINE
  8
0
 10
83.999977
 20
83.099991
 11
82.399971
 21
83.099991
  0
LINE
  8
0
 10
84.499809
 20
68.599838
 11
83.999817
 21
69.099823
  0
LINE
  8
0
 10
83.999977
 20
69.099991
 11
82.399971
 21
69.099991
  0
LINE
  8
0
 10
83.999809
 20
64.899994
 11
82.399971
 21
64.899994
  0
LINE
  8
0
 10
84.499809
 20
65.399994
 11
83.999886
 21
64.900070
  0
LINE
  8
0
 10
74.899971
 20
85.999985
 11
74.899971
 21
85.467087
  0
LINE
  8
0
 10
78.099983
 20
85.999985
 11
78.099983
 21
85.467072
  0
LINE
  8
0
 10
84.999977
 20
82.599991
 11
84.499977
 21
82.599991
  0
LINE
  8
0
 10
84.999977
 20
79.399979
 11
84.499977
 21
79.399979
  0
LINE
  8
0
 10
84.999977
 20
68.599991
 11
84.499977
 21
68.599991
  0
LINE
  8
0
 10
84.999977
 20
65.399994
 11
84.499977
 21
65.399994
  0
LINE
  8
0
  6
CENTER
 62
     2
 10
62.500587
 20
65.000000
 11
88.500587
 21
65.000000
  0
LINE
  8
0
 10
69.000099
 20
83.099991
 11
70.599983
 21
83.099991
  0
LINE
  8
0
 10
67.999977
 20
82.599991
 11
68.500084
 21
82.599991
  0
LINE
  8
0
 10
67.999977
 20
79.399979
 11
68.499809
 21
79.399979
  0
LINE
  8
0
 10
68.999825
 20
78.899979
 11
70.599983
 21
78.899979
  0
LINE
  8
0
 10
68.500023
 20
82.599930
 11
69.000038
 21
83.099937
  0
LINE
  8
0
 10
68.499840
 20
79.399933
 11
68.999870
 21
78.899902
  0
LINE
  8
0
 10
69.000099
 20
64.899994
 11
70.599983
 21
64.899994
  0
LINE
  8
0
 10
67.999977
 20
65.399994
 11
68.500099
 21
65.399994
  0
LINE
  8
0
 10
67.999977
 20
68.600006
 11
68.499763
 21
68.600006
  0
LINE
  8
0
 10
68.999825
 20
69.100006
 11
70.599983
 21
69.100006
  0
LINE
  8
0
 10
68.500000
 20
65.400085
 11
69.000000
 21
64.900085
  0
LINE
  8
0
 10
68.499847
 20
68.600105
 11
68.999863
 21
69.100121
  0
LINE
  8
0
  6
CENTER
 62
     2
 10
65.564171
 20
80.999985
 11
87.542061
 21
80.999985
  0
LINE
  8
0
  6
CENTER
 62
     2
 10
65.564171
 20
67.000000
 11
87.839714
 21
67.000000
  0
LINE
  8
0
  6
CENTER
 62
     2
 10
83.499977
 20
82.000000
 11
86.499977
 21
82.000000
  0
LINE
  8
0
  6
CENTER
 62
     2
 10
83.499977
 20
48.000000
 11
86.499977
 21
48.000000
  0
LINE
  8
0
 10
-34.499985
 20
-5.000000
 11
20.500000
 21
-5.000000
  0
LINE
  8
0
 10
-34.499985
 20
12.000000
 11
20.500000
 21
12.000000
  0
LINE
  8
0
 10
-56.999985
 20
11.500000
 11
-56.999985
 21
-4.500000
  0
LINE
  8
0
 10
-51.999985
 20
11.500000
 11
-51.999985
 21
6.100006
  0
LINE
  8
0
 10
21.000000
 20
11.500000
 11
21.000000
 21
-4.500000
  0
LINE
  8
0
 10
20.999977
 20
11.499977
 11
20.499975
 21
11.999978
  0
LINE
  8
0
 10
20.999975
 20
-4.499985
 11
20.499975
 21
-4.999985
  0
LINE
  8
0
 10
-35.000004
 20
11.500010
 11
-34.500000
 21
12.000010
  0
LINE
  8
0
 10
-34.999981
 20
-4.500002
 11
-34.499981
 21
-5.000002
  0
LINE
  8
0
  6
CENTER
 62
     2
 10
-59.024986
 20
3.500000
 11
24.275009
 21
3.500000
  0
LINE
  8
0
 10
-49.499985
 20
6.500000
 11
-34.999985
 21
6.500000
  0
LINE
  8
0
 10
-49.499985
 20
0.500000
 11
-35.000000
 21
0.500000
  0
LINE
  8
0
 10
-52.499985
 20
6.100006
 11
-52.499985
 21
0.900009
  0
LINE
  8
0
 10
-52.499985
 20
6.100006
 11
-49.499985
 21
6.100006
  0
LINE
  8
0
 10
-52.499985
 20
0.900009
 11
-49.499985
 21
0.900009
  0
LINE
  8
0
 10
-51.999985
 20
0.900009
 11
-51.999985
 21
-4.500000
  0
LINE
  8
0
 10
-49.499985
 20
6.500000
 11
-49.499985
 21
6.100006
  0
LINE
  8
0
 10
-49.499985
 20
0.900009
 11
-49.499985
 21
0.500000
  0
LINE
  8
0
 10
-36.799988
 20
0.500000
 11
-36.799988
 21
-0.824600
  0
LINE
  8
0
 10
-39.999985
 20
0.500000
 11
-39.999985
 21
-1.250000
  0
LINE
  8
0
 10
-41.754379
 20
-1.250000
 11
-39.999985
 21
-1.250000
  0
LINE
  8
0
 10
-36.799992
 20
-0.824581
 11
-36.554386
 21
-1.249982
  0
LINE
  8
0
 10
-36.554382
 20
-1.250000
 11
-35.245605
 21
-1.250000
  0
LINE
  8
0
 10
-41.999985
 20
0.500000
 11
-41.999985
 21
-0.824600
  0
LINE
  8
0
 10
-41.999992
 20
-0.824598
 11
-41.754387
 21
-1.249999
  0
LINE
  8
0
 10
-35.000000
 20
11.500000
 11
-35.000000
 21
-4.500000
  0
LINE
  8
0
 10
-35.000019
 20
-0.824575
 11
-35.245625
 21
-1.249976
  0
LINE
  8
0
 10
-39.999985
 20
0.000000
 11
-36.799988
 21
0.000000
  0
LINE
  8
0
 62
     2
 10
-39.999985
 20
0.189499
 11
-36.799988
 21
0.189499
  0
LINE
  8
0
  6
CENTER
 62
     2
 10
-12.999985
 20
7.000000
 11
-12.999985
 21
0.000000
  0
LINE
  8
0
  6
CENTER
 62
     2
 10
11.000000
 20
7.000000
 11
11.000000
 21
0.000000
  0
LINE
  8
0
 10
-56.999985
 20
-4.500000
 11
-51.999985
 21
-4.500000
  0
LINE
  8
0
 10
-56.999985
 20
11.500000
 11
-51.999985
 21
11.500000
  0
LINE
  8
0
  6
CENTER
 62
     2
 10
-42.822250
 20
1.500000
 11
-28.819305
 21
1.500000
  0
LINE
  8
0
  6
CENTER
 62
     2
 10
-20.000000
 20
-2.000000
 11
-20.000000
 21
-8.000000
  0
LINE
  8
0
  6
CENTER
 62
     2
 10
0.000000
 20
-2.000000
 11
0.000000
 21
-8.000000
  0
LINE
  8
0
  6
CENTER
 62
     2
 10
-5.000000
 20
-2.000000
 11
-5.000000
 21
-8.000000
  0
LINE
  8
0
  6
PHANTOM
 62
     3
 10
-14.068991
 20
31.024887
 11
-8.191849
 21
31.024887
  0
LINE
  8
0
  6
PHANTOM
 62
     3
 10
-8.191849
 20
31.024887
 11
-8.191849
 21
-12.856800
  0
LINE
  8
0
  6
PHANTOM
 62
     3
 10
-2.661076
 20
31.024887
 11
-2.661076
 21
-12.856800
  0
LINE
  8
0
  6
PHANTOM
 62
     3
 10
-0.302494
 20
31.024887
 11
-2.661076
 21
31.024887
  0
LINE
  8
0
  6
PHANTOM
 62
     3
 10
-46.999985
 20
31.024887
 11
-46.999985
 21
-12.856800
  0
LINE
  8
0
  6
CENTER
 62
     1
 10
-67.096390
 20
-95.502808
 11
-67.096390
 21
-100.578644
  0
LINE
  8
0
 62
     4
 10
-68.346390
 20
-95.809525
 11
-68.346390
 21
-96.309525
  0
LINE
  8
0
 62
     1
 10
-68.121399
 20
-95.809525
 11
-68.121399
 21
-96.309525
  0
LINE
  8
0
 62
     1
 10
-66.071396
 20
-95.809525
 11
-66.071396
 21
-96.309525
  0
LINE
  8
0
 62
     4
 10
-65.846390
 20
-95.809525
 11
-65.846390
 21
-96.309525
  0
LINE
  8
0
 62
     4
 10
-68.346390
 20
-95.809525
 11
-65.846390
 21
-95.809525
  0
LINE
  8
0
  6
CENTER
 62
     1
 10
-113.639130
 20
-94.256554
 11
-113.639130
 21
-101.786888
  0
LINE
  8
0
 62
     4
 10
-115.689117
 20
-97.309525
 11
-115.689117
 21
-98.859520
  0
LINE
  8
0
 62
     4
 10
-115.689171
 20
-97.309471
 11
-115.139183
 21
-96.759483
  0
LINE
  8
0
 62
     4
 10
-115.139130
 20
-96.309525
 11
-115.139130
 21
-96.759521
  0
LINE
  8
0
 62
     4
 10
-115.139130
 20
-96.309525
 11
-112.139130
 21
-96.309525
  0
LINE
  8
0
 62
     4
 10
-112.139130
 20
-96.309525
 11
-112.139130
 21
-96.759521
  0
LINE
  8
0
 62
     4
 10
-111.589142
 20
-97.309486
 11
-112.139137
 21
-96.759483
  0
LINE
  8
0
 62
     4
 10
-111.589127
 20
-97.309525
 11
-111.589127
 21
-98.859520
  0
LINE
  8
0
 62
     4
 10
-115.689117
 20
-98.109520
 11
-111.589127
 21
-98.109520
  0
LINE
  8
0
 62
     4
 10
-115.689133
 20
-98.908707
 11
-111.589127
 21
-98.908707
  0
LINE
  8
0
 62
     4
 10
-114.664139
 20
-100.309525
 11
-112.614136
 21
-100.309525
  0
LINE
  8
0
 62
     4
 10
-112.613678
 20
-100.309975
 11
-112.388680
 21
-100.084969
  0
LINE
  8
0
 62
     4
 10
-114.664131
 20
-100.309578
 11
-114.889130
 21
-100.084579
  0
LINE
  8
0
 62
     4
 10
-114.889130
 20
-98.908707
 11
-114.889130
 21
-100.084526
  0
LINE
  8
0
 62
     1
 10
-114.664139
 20
-98.908707
 11
-114.664139
 21
-100.309525
  0
LINE
  8
0
 62
     1
 10
-112.614136
 20
-98.908707
 11
-112.614136
 21
-100.309525
  0
LINE
  8
0
 62
     4
 10
-112.389130
 20
-98.908707
 11
-112.389130
 21
-100.084518
  0
LINE
  8
0
 62
     4
 10
-114.889130
 20
-100.084526
 11
-112.389130
 21
-100.084526
  0
LINE
  8
0
 62
     4
 10
-114.889130
 20
-95.809525
 11
-114.889130
 21
-96.309525
  0
LINE
  8
0
 62
     1
 10
-114.664139
 20
-95.809525
 11
-114.664139
 21
-96.309525
  0
LINE
  8
0
 62
     1
 10
-112.614136
 20
-95.809525
 11
-112.614136
 21
-96.309525
  0
LINE
  8
0
 62
     4
 10
-112.389130
 20
-95.809525
 11
-112.389130
 21
-96.309525
  0
LINE
  8
0
 62
     4
 10
-114.889130
 20
-95.809525
 11
-112.389130
 21
-95.809525
  0
LINE
  8
0
  6
CENTER
 62
     1
 10
-71.896942
 20
-53.759521
 11
-41.688889
 21
-53.759521
  0
LINE
  8
0
 62
     4
 10
-69.096405
 20
-55.259521
 11
-47.096405
 21
-55.259521
  0
LINE
  8
0
 62
     4
 10
-69.096405
 20
-52.259521
 11
-47.096405
 21
-52.259521
  0
LINE
  8
0
  6
CENTER
 62
     1
 10
-67.096390
 20
-50.923019
 11
-67.096390
 21
-56.512344
  0
LINE
  8
0
 62
     1
 10
-46.007175
 20
-51.594425
 11
-43.507175
 21
-55.924549
  0
LINE
  8
0
 62
     4
 10
-47.096405
 20
-52.459518
 11
-45.507751
 21
-52.459518
  0
LINE
  8
0
 62
     4
 10
-47.096405
 20
-55.059525
 11
-44.006622
 21
-55.059525
  0
LINE
  8
0
 62
     4
 10
-68.105858
 20
-54.486172
 11
-66.360855
 21
-52.741169
  0
LINE
  8
0
 62
     4
 10
-67.823044
 20
-54.768990
 11
-66.078041
 21
-53.023987
  0
LINE
  8
0
 62
     4
 10
-69.096405
 20
-52.159523
 11
-69.096405
 21
-55.359520
  0
LINE
  8
0
 62
     4
 10
-47.096405
 20
-52.159523
 11
-47.096405
 21
-55.359520
  0
LINE
  8
0
 62
     4
 10
111.714737
 20
-89.409523
 11
111.714737
 21
-96.309525
  0
LINE
  8
0
  6
CENTER
 62
     1
 10
91.714737
 20
-95.579269
 11
91.714737
 21
-98.806557
  0
LINE
  8
0
 62
     4
 10
105.814713
 20
-89.409523
 11
105.814713
 21
-96.309525
  0
LINE
  8
0
 62
     4
 10
105.814743
 20
-89.409523
 11
111.714737
 21
-89.409523
  0
LINE
  8
0
 62
     4
 10
105.814713
 20
-95.159508
 11
111.714737
 21
-95.159508
  0
LINE
  8
0
 62
     4
 10
105.814713
 20
-95.909508
 11
111.714737
 21
-95.909508
  0
LINE
  8
0
 62
     4
 10
105.814713
 20
-90.909523
 11
111.714737
 21
-90.909523
  0
LINE
  8
0
 62
     4
 10
107.822098
 20
-80.909485
 11
110.422073
 21
-80.909485
  0
LINE
  8
0
  6
CENTER
 62
     1
 10
108.672012
 20
-82.632416
 11
108.672012
 21
-70.700333
  0
LINE
  8
0
  6
CENTER
 62
     1
 10
109.572006
 20
-82.582123
 11
109.572006
 21
-70.658478
  0
LINE
  8
0
 62
     4
 10
108.422012
 20
-70.909485
 11
108.922012
 21
-70.909485
  0
LINE
  8
0
 62
     4
 10
109.322006
 20
-70.909485
 11
109.822006
 21
-70.909485
  0
LINE
  8
0
 62
     4
 10
108.222000
 20
-73.909485
 11
110.022018
 21
-73.909485
  0
LINE
  8
0
 62
     4
 10
110.022018
 20
-80.909485
 11
110.022018
 21
-76.903938
  0
LINE
  8
0
 62
     4
 10
109.121994
 20
-80.909485
 11
109.121994
 21
-77.423553
  0
LINE
  8
0
 62
     4
 10
109.121994
 20
-75.923553
 11
109.121994
 21
-73.909485
  0
LINE
  8
0
 62
     4
 10
110.022018
 20
-75.403938
 11
110.022018
 21
-73.909485
  0
LINE
  8
0
 62
     4
 10
108.222000
 20
-80.909485
 11
108.222000
 21
-77.943176
  0
LINE
  8
0
 62
     4
 10
108.222000
 20
-76.443176
 11
108.222000
 21
-73.909485
  0
LINE
  8
0
 62
     4
 10
108.422012
 20
-73.909485
 11
108.422012
 21
-70.909485
  0
LINE
  8
0
 62
     4
 10
108.922012
 20
-73.909485
 11
108.922012
 21
-70.909485
  0
LINE
  8
0
 62
     4
 10
109.322006
 20
-73.909485
 11
109.322006
 21
-70.909485
  0
LINE
  8
0
 62
     4
 10
109.822006
 20
-73.909485
 11
109.822006
 21
-70.909485
  0
LINE
  8
0
 62
     1
 10
106.957138
 20
-77.173645
 11
111.287285
 21
-74.673630
  0
LINE
  8
0
  6
CENTER
 62
     1
 10
109.122086
 20
-90.723892
 11
109.122086
 21
-80.909485
  0
LINE
  8
0
 62
     1
 10
106.957047
 20
-78.673637
 11
111.287201
 21
-76.173622
  0
LINE
  8
0
 62
     1
 10
106.957031
 20
-86.154343
 11
111.287163
 21
-83.654343
  0
LINE
  8
0
 62
     1
 10
106.957077
 20
-87.654343
 11
111.287193
 21
-85.154350
  0
LINE
  8
0
 62
     4
 10
90.464737
 20
-95.809525
 11
90.464737
 21
-96.309525
  0
LINE
  8
0
 62
     1
 10
90.689713
 20
-95.809525
 11
90.689713
 21
-96.309525
  0
LINE
  8
0
 62
     1
 10
92.739731
 20
-95.809525
 11
92.739731
 21
-96.309525
  0
LINE
  8
0
 62
     4
 10
92.964737
 20
-95.809525
 11
92.964737
 21
-96.309525
  0
LINE
  8
0
 62
     4
 10
90.464737
 20
-95.809525
 11
92.964737
 21
-95.809525
  0
LINE
  8
0
 62
     4
 10
110.422073
 20
-89.409523
 11
110.422073
 21
-85.653687
  0
LINE
  8
0
 62
     4
 10
107.822098
 20
-89.409523
 11
107.822098
 21
-87.154778
  0
LINE
  8
0
 62
     4
 10
107.822098
 20
-85.654793
 11
107.822098
 21
-80.909485
  0
LINE
  8
0
 62
     4
 10
110.422073
 20
-84.153694
 11
110.422073
 21
-80.909485
  0
LINE
  8
0
 62
     4
 10
44.422012
 20
-90.909523
 11
48.922012
 21
-90.909523
  0
LINE
  8
0
 62
     4
 10
44.422012
 20
-89.409523
 11
44.422012
 21
-95.159523
  0
LINE
  8
0
 62
     4
 10
45.171951
 20
-95.909485
 11
44.421989
 21
-95.159523
  0
LINE
  8
0
 62
     4
 10
45.172012
 20
-96.759521
 11
45.172012
 21
-95.909523
  0
LINE
  8
0
 62
     4
 10
44.621998
 20
-97.309471
 11
45.172009
 21
-96.759460
  0
LINE
  8
0
 62
     4
 10
44.621994
 20
-97.309525
 11
44.621994
 21
-98.859520
  0
LINE
  8
0
 62
     4
 10
48.722000
 20
-97.309525
 11
48.722000
 21
-98.859520
  0
LINE
  8
0
 62
     4
 10
48.721989
 20
-97.309563
 11
48.171982
 21
-96.759552
  0
LINE
  8
0
 62
     4
 10
48.172012
 20
-96.759521
 11
48.172012
 21
-95.909523
  0
LINE
  8
0
 62
     4
 10
48.172073
 20
-95.909622
 11
48.922070
 21
-95.159622
  0
LINE
  8
0
 62
     4
 10
48.922012
 20
-89.409523
 11
48.922012
 21
-95.159523
  0
LINE
  8
0
  6
CENTER
 62
     1
 10
46.672012
 20
-83.748566
 11
46.672012
 21
-101.464691
  0
LINE
  8
0
 62
     4
 10
45.172012
 20
-96.309525
 11
48.172012
 21
-96.309525
  0
LINE
  8
0
 62
     4
 10
44.621994
 20
-98.109520
 11
48.722000
 21
-98.109520
  0
LINE
  8
0
 62
     4
 10
44.621994
 20
-98.911972
 11
48.722000
 21
-98.911972
  0
LINE
  8
0
 62
     4
 10
44.422012
 20
-89.409523
 11
48.922012
 21
-89.409523
  0
LINE
  8
0
 62
     1
 10
44.507027
 20
-87.654343
 11
48.837154
 21
-85.154343
  0
LINE
  8
0
 62
     4
 10
45.646988
 20
-100.309525
 11
47.697006
 21
-100.309525
  0
LINE
  8
0
 62
     4
 10
47.697529
 20
-100.310059
 11
47.922520
 21
-100.085060
  0
LINE
  8
0
 62
     4
 10
45.647053
 20
-100.309448
 11
45.422047
 21
-100.084442
  0
LINE
  8
0
 62
     4
 10
45.422012
 20
-98.911972
 11
45.422012
 21
-100.084526
  0
LINE
  8
0
 62
     1
 10
45.646988
 20
-98.911972
 11
45.646988
 21
-100.309525
  0
LINE
  8
0
 62
     1
 10
47.697006
 20
-98.911972
 11
47.697006
 21
-100.309525
  0
LINE
  8
0
 62
     4
 10
47.922012
 20
-98.911972
 11
47.922012
 21
-100.084518
  0
LINE
  8
0
 62
     4
 10
45.422012
 20
-100.084526
 11
47.922012
 21
-100.084526
  0
LINE
  8
0
 62
     4
 10
45.422012
 20
-95.809525
 11
45.422012
 21
-96.309525
  0
LINE
  8
0
 62
     1
 10
45.646988
 20
-95.809525
 11
45.646988
 21
-96.309525
  0
LINE
  8
0
 62
     1
 10
47.697006
 20
-95.809525
 11
47.697006
 21
-96.309525
  0
LINE
  8
0
 62
     4
 10
47.922012
 20
-95.809525
 11
47.922012
 21
-96.309525
  0
LINE
  8
0
 62
     4
 10
45.422012
 20
-95.809525
 11
47.922012
 21
-95.809525
  0
LINE
  8
0
 62
     4
 10
45.372025
 20
-87.154800
 11
45.372025
 21
-89.409523
  0
LINE
  8
0
 62
     4
 10
47.972000
 20
-85.653702
 11
47.972000
 21
-89.409523
  0
LINE
  8
0
  6
CENTER
 62
     1
 10
88.385544
 20
-48.709511
 11
113.294724
 21
-48.709511
  0
LINE
  8
0
 62
     4
 10
89.714737
 20
-50.209511
 11
106.275345
 21
-50.209511
  0
LINE
  8
0
 62
     4
 10
89.714737
 20
-47.209511
 11
106.275345
 21
-47.209511
  0
LINE
  8
0
 62
     4
 10
89.714737
 20
-47.109512
 11
89.714737
 21
-50.309509
  0
LINE
  8
0
  6
CENTER
 62
     1
 10
91.714737
 20
-45.873001
 11
91.714737
 21
-51.462326
  0
LINE
  8
0
 62
     4
 10
106.800705
 20
-46.459511
 11
111.714737
 21
-46.459511
  0
LINE
  8
0
 62
     4
 10
106.800705
 20
-50.959511
 11
111.714737
 21
-50.959511
  0
LINE
  8
0
 62
     4
 10
111.714737
 20
-46.459503
 11
111.714737
 21
-50.959503
  0
LINE
  8
0
 62
     4
 10
90.705276
 20
-49.436161
 11
92.450272
 21
-47.691162
  0
LINE
  8
0
 62
     4
 10
90.988098
 20
-49.718975
 11
92.733093
 21
-47.973972
  0
CIRCLE
  8
0
 10
-20.000000
 20
65.000000
 40
1.700000
  0
CIRCLE
  8
0
 10
-5.000000
 20
82.000000
 40
1.700000
  0
CIRCLE
  8
0
 10
0.000000
 20
65.000000
 40
1.700000
  0
CIRCLE
  8
0
 10
-5.000000
 20
48.000000
 40
1.700000
  0
ARC
  8
0
 10
-35.394287
 20
67.411652
 40
1.405722
 50
145.616058
 51
214.383682
  0
ARC
  8
0
 10
-31.547409
 20
65.030090
 40
5.252677
 50
162.406143
 51
197.593781
  0
ARC
  8
0
 10
-35.394302
 20
62.648514
 40
1.405708
 50
145.616058
 51
214.383942
  0
ARC
  8
0
 10
-40.594284
 20
67.411652
 40
1.405722
 50
145.616058
 51
214.383682
  0
ARC
  8
0
 10
-36.747421
 20
65.030090
 40
5.252677
 50
162.406143
 51
197.593781
  0
ARC
  8
0
 10
-40.594299
 20
62.648514
 40
1.405708
 50
145.616058
 51
214.383942
  0
ARC
  8
0
 10
-36.405731
 20
67.411652
 40
1.405722
 50
325.616058
 51
34.383682
  0
ARC
  8
0
 10
-40.252594
 20
65.030090
 40
5.252676
 50
342.406189
 51
17.593782
  0
ARC
  8
0
 10
-36.405716
 20
62.648514
 40
1.405708
 50
325.616058
 51
34.383945
  0
CIRCLE
  8
0
 10
-54.500000
 20
78.000000
 40
1.310499
  0
CIRCLE
  8
0
 10
-54.500000
 20
52.000000
 40
1.310499
  0
CIRCLE
  8
0
 62
     2
 10
-54.500000
 20
78.000000
 40
1.500000
  0
CIRCLE
  8
0
 62
     2
 10
-54.500000
 20
52.000000
 40
1.500000
  0
CIRCLE
  8
0
 10
-5.000000
 20
48.000000
 40
3.000000
  0
CIRCLE
  8
0
 10
-5.000000
 20
82.000000
 40
3.000000
  0
CIRCLE
  8
0
 10
-20.000000
 20
65.000000
 40
3.000000
  0
CIRCLE
  8
0
 10
0.000000
 20
65.000000
 40
3.000000
  0
CIRCLE
  8
0
 10
-106.500000
 20
82.000000
 40
1.310499
  0
CIRCLE
  8
0
 10
-106.500000
 20
48.000000
 40
1.310499
  0
CIRCLE
  8
0
 62
     2
 10
-106.500000
 20
82.000000
 40
1.500000
  0
CIRCLE
  8
0
 62
     2
 10
-106.500000
 20
48.000000
 40
1.500000
  0
CIRCLE
  8
0
 10
-106.500000
 20
74.000000
 40
3.250000
  0
CIRCLE
  8
0
 10
-106.500000
 20
56.000000
 40
3.250000
  0
CIRCLE
  8
0
 10
-106.500000
 20
56.000000
 40
2.750000
  0
CIRCLE
  8
0
 10
-106.500000
 20
74.000000
 40
2.750000
  0
CIRCLE
  8
0
 10
-106.500000
 20
74.000000
 40
2.403587
  0
CIRCLE
  8
0
 10
-106.500000
 20
56.000000
 40
2.403595
  0
CIRCLE
  8
0
 10
76.499977
 20
74.000000
 40
6.000000
  0
CIRCLE
  8
0
 10
76.499977
 20
56.000015
 40
6.000000
  0
ARC
  8
0
 10
76.499977
 20
83.367065
 40
2.099998
 50
180.000000
 51
0.000000
  0
ARC
  8
0
 10
82.399971
 20
80.999985
 40
2.099998
 50
90.000000
 51
270.000000
  0
ARC
  8
0
 10
82.399971
 20
66.999985
 40
2.099998
 50
90.000000
 51
270.000000
  0
ARC
  8
0
 10
70.599983
 20
80.999985
 40
2.099998
 50
270.000000
 51
90.000000
  0
ARC
  8
0
 10
70.599983
 20
67.000000
 40
2.099998
 50
270.000000
 51
90.000000
  0
ARC
  8
0
 10
-32.828278
 20
0.125000
 40
3.971711
 50
174.582199
 51
200.254913
  0
ARC
  8
0
 10
-38.028275
 20
0.125000
 40
3.971711
 50
174.582199
 51
200.254913
  0
ARC
  8
0
 10
-38.971710
 20
0.125000
 40
3.971710
 50
339.745026
 51
5.417809
  0
CIRCLE
  8
0
 62
     2
 10
-12.999985
 20
3.500000
 40
2.500000
  0
CIRCLE
  8
0
 62
     2
 10
11.000000
 20
3.500000
 40
2.500000
  0
CIRCLE
  8
0
 10
-12.999985
 20
3.500000
 40
2.229500
  0
CIRCLE
  8
0
 10
11.000000
 20
3.500000
 40
2.229500
  0
ARC
  8
0
 62
     4
 10
-113.639130
 20
-98.859520
 40
2.050003
 50
180.000000
 51
270.000000
  0
ARC
  8
0
 62
     4
 10
-113.639130
 20
-98.859520
 40
2.050003
 50
270.000000
 51
0.000000
  0
CIRCLE
  8
0
 62
     1
 10
-67.096390
 20
-53.765808
 40
1.000000
  0
CIRCLE
  8
0
 62
     4
 10
-67.096390
 20
-53.765808
 40
1.250000
  0
ARC
  8
0
 62
     4
 10
46.672012
 20
-98.859520
 40
2.049999
 50
180.000000
 51
270.000000
  0
ARC
  8
0
 62
     4
 10
46.672012
 20
-98.859520
 40
2.050003
 50
271.259888
 51
0.000000
  0
ARC
  8
0
 62
     4
 10
109.214737
 20
-48.709511
 40
3.300002
 50
137.014145
 51
222.985855
  0
CIRCLE
  8
0
 62
     4
 10
109.122086
 20
-48.709511
 40
1.300000
  0
CIRCLE
  8
0
 62
     4
 10
109.443893
 20
-49.050514
 40
0.450000
  0
CIRCLE
  8
0
 62
     4
 10
108.832016
 20
-48.391357
 40
0.450000
  0
CIRCLE
  8
0
 62
     4
 10
109.443893
 20
-49.050514
 40
0.250000
  0
CIRCLE
  8
0
 62
     4
 10
108.832016
 20
-48.391357
 40
0.250000
  0
CIRCLE
  8
0
 62
     1
 10
91.714737
 20
-48.715797
 40
1.000000
  0
CIRCLE
  8
0
 62
     4
 10
91.714737
 20
-48.715797
 40
1.250000
  0
TEXT
  8
0
 10
115.907150
 20
122.050003
 40
4.500000
  1
DATE : APR ,1994
 50
0.000000
 41
1.052631
 51
0.000000
  7
STANDARD
  0
TEXT
  8
0
 10
113.700279
 20
-130.669998
 40
6.300000
  1
KOGANEI CORP.
 50
0.000000
 41
1.052632
 51
0.000000
  7
STANDARD
  0
TEXT
  8
0
 10
-190.392654
 20
122.050003
 40
4.500000
  1
TWIN ROD CYLINDER
 50
0.000000
 41
1.052632
 51
0.000000
  7
STANDARD
  0
TEXT
  8
0
 10
-186.892654
 20
104.550003
 40
4.500000
  1
MODEL:TBDA10*ST(10)
 50
0.000000
 41
1.052632
 51
0.000000
  7
STANDARD
  0
TEXT
  8
0
 62
     3
 10
-18.985195
 20
103.757652
 40
3.200000
  1
STRETCH LINE A
 50
0.000000
 41
1.052632
 51
0.000000
  7
STANDARD
  0
TEXT
  8
0
 62
     3
 10
-4.643832
 20
94.034691
 40
3.200000
  1
STRETCH LINE B
 50
0.000000
 41
1.052632
 51
0.000000
  7
STANDARD
  0
TEXT
  8
0
 10
109.168526
 20
-13.436378
 40
3.200000
  1
0
 50
0.000000
 41
1.052632
 51
0.000000
  7
STANDARD
  0
TEXT
  8
0
 10
119.568527
 20
-13.436378
 40
3.200000
  1
10
 50
0.000000
 41
1.052632
 51
0.000000
  7
STANDARD
  0
TEXT
  8
0
 10
131.568527
 20
-13.436378
 40
3.200000
  1
20
 50
0.000000
 41
1.052632
 51
0.000000
  7
STANDARD
  0
TEXT
  8
0
 10
143.568527
 20
-13.436378
 40
3.200000
  1
30
 50
0.000000
 41
1.052632
 51
0.000000
  7
STANDARD
  0
TEXT
  8
0
 10
155.568527
 20
-13.436378
 40
3.200000
  1
40
 50
0.000000
 41
1.052632
 51
0.000000
  7
STANDARD
  0
TEXT
  8
0
 10
167.568527
 20
-13.436378
 40
3.200000
  1
50
 50
0.000000
 41
1.052632
 51
0.000000
  7
STANDARD
  0
TEXT
  8
0
 10
179.568527
 20
-13.436378
 40
3.200000
  1
60
 50
0.000000
 41
1.052632
 51
0.000000
  7
STANDARD
  0
TEXT
  8
0
 10
83.668526
 20
16.563622
 40
3.200000
  1
STROKE
 50
0.000000
 41
1.052632
 51
0.000000
  7
STANDARD
  0
TEXT
  8
0
 10
115.568527
 20
22.563623
 40
3.200000
  1
STRETCH LIST
 50
0.000000
 41
1.052632
 51
0.000000
  7
STANDARD
  0
TEXT
  8
0
 10
167.568527
 20
10.563622
 40
3.200000
  1
60
 50
0.000000
 41
1.052632
 51
0.000000
  7
STANDARD
  0
TEXT
  8
0
 10
179.568527
 20
10.563622
 40
3.200000
  1
70
 50
0.000000
 41
1.052632
 51
0.000000
  7
STANDARD
  0
TEXT
  8
0
 10
155.568527
 20
10.563622
 40
3.200000
  1
50
 50
0.000000
 41
1.052632
 51
0.000000
  7
STANDARD
  0
TEXT
  8
0
 10
143.568527
 20
10.563622
 40
3.200000
  1
40
 50
0.000000
 41
1.052632
 51
0.000000
  7
STANDARD
  0
TEXT
  8
0
 10
131.568527
 20
10.563622
 40
3.200000
  1
30
 50
0.000000
 41
1.052632
 51
0.000000
  7
STANDARD
  0
TEXT
  8
0
 10
119.568527
 20
10.563622
 40
3.200000
  1
20
 50
0.000000
 41
1.052632
 51
0.000000
  7
STANDARD
  0
TEXT
  8
0
 10
107.568527
 20
10.563622
 40
3.200000
  1
10
 50
0.000000
 41
1.052632
 51
0.000000
  7
STANDARD
  0
TEXT
  8
0
 10
167.568527
 20
-1.436378
 40
3.200000
  1
20
 50
0.000000
 41
1.052632
 51
0.000000
  7
STANDARD
  0
TEXT
  8
0
 10
179.568527
 20
-1.436378
 40
3.200000
  1
25
 50
0.000000
 41
1.052632
 51
0.000000
  7
STANDARD
  0
TEXT
  8
0
 10
155.568527
 20
-1.436378
 40
3.200000
  1
15
 50
0.000000
 41
1.052632
 51
0.000000
  7
STANDARD
  0
TEXT
  8
0
 10
143.568527
 20
-1.436378
 40
3.200000
  1
10
 50
0.000000
 41
1.052632
 51
0.000000
  7
STANDARD
  0
TEXT
  8
0
 10
133.168518
 20
-1.436378
 40
3.200000
  1
5
 50
0.000000
 41
1.052632
 51
0.000000
  7
STANDARD
  0
TEXT
  8
0
 10
121.168526
 20
-1.436378
 40
3.200000
  1
0
 50
0.000000
 41
1.052632
 51
0.000000
  7
STANDARD
  0
TEXT
  8
0
 10
109.168526
 20
-1.436378
 40
3.200000
  1
0
 50
0.000000
 41
1.052632
 51
0.000000
  7
STANDARD
  0
TEXT
  8
0
 10
176.368530
 20
22.563623
 40
3.200000
  1
(mm)
 50
0.000000
 41
1.052632
 51
0.000000
  7
STANDARD
  0
TEXT
  8
0
 10
80.465004
 20
9.943625
 40
3.200000
  1
STRETCH
 50
0.000000
 41
1.052632
 51
0.000000
  7
STANDARD
  0
TEXT
  8
0
 10
80.465004
 20
5.143625
 40
3.200000
  1
  PLACE
 50
0.000000
 41
1.052632
 51
0.000000
  7
STANDARD
  0
TEXT
  8
0
 10
90.668526
 20
-1.436378
 40
3.200000
  1
A
 50
0.000000
 41
1.052632
 51
0.000000
  7
STANDARD
  0
TEXT
  8
0
 10
90.668526
 20
-7.436379
 40
3.200000
  1
B
 50
0.000000
 41
1.052632
 51
0.000000
  7
STANDARD
  0
TEXT
  8
0
 62
     3
 10
-73.520203
 20
97.114067
 40
3.200000
  1
STRETCH LINE C
 50
0.000000
 41
1.052632
 51
0.000000
  7
STANDARD
  0
TEXT
  8
0
 10
90.668526
 20
-13.436379
 40
3.200000
  1
C
 50
0.000000
 41
1.052632
 51
0.000000
  7
STANDARD
  0
TEXT
  8
0
 10
179.568527
 20
-7.436378
 40
3.200000
  1
35
 50
0.000000
 41
1.052632
 51
0.000000
  7
STANDARD
  0
TEXT
  8
0
 10
167.568527
 20
-7.436378
 40
3.200000
  1
30
 50
0.000000
 41
1.052632
 51
0.000000
  7
STANDARD
  0
TEXT
  8
0
 10
155.568527
 20
-7.436378
 40
3.200000
  1
25
 50
0.000000
 41
1.052632
 51
0.000000
  7
STANDARD
  0
TEXT
  8
0
 10
143.568527
 20
-7.436378
 40
3.200000
  1
20
 50
0.000000
 41
1.052632
 51
0.000000
  7
STANDARD
  0
TEXT
  8
0
 10
131.568527
 20
-7.436378
 40
3.200000
  1
15
 50
0.000000
 41
1.052632
 51
0.000000
  7
STANDARD
  0
TEXT
  8
0
 10
119.568527
 20
-7.436378
 40
3.200000
  1
10
 50
0.000000
 41
1.052632
 51
0.000000
  7
STANDARD
  0
TEXT
  8
0
 10
109.168526
 20
-7.436378
 40
3.200000
  1
0
 50
0.000000
 41
1.052632
 51
0.000000
  7
STANDARD
  0
TEXT
  8
0
 10
-2.469286
 20
-36.427006
 40
4.500000
  1
SENSOR
 50
0.000000
 41
1.052632
 51
0.000000
  7
STANDARD
  0
TEXT
  8
0
 10
-2.469288
 20
-43.177006
 40
4.500000
  1
 SWITCH:ZE235
 50
0.000000
 41
1.052632
 51
0.000000
  7
STANDARD
  0
TEXT
  8
0
 10
33.530712
 20
-49.777004
 40
4.500000
  1
ZE255
 50
0.000000
 41
1.052632
 51
0.000000
  7
STANDARD
  0
TEXT
  8
0
 10
33.530712
 20
-55.777000
 40
4.500000
  1
ZE201
 50
0.000000
 41
1.052632
 51
0.000000
  7
STANDARD
  0
TEXT
  8
0
 10
33.530712
 20
-61.777000
 40
4.500000
  1
ZE202
 50
0.000000
 41
1.052632
 51
0.000000
  7
STANDARD
  0
TEXT
  8
0
 10
-123.469284
 20
-61.777000
 40
4.500000
  1
ZE102
 50
0.000000
 41
1.052632
 51
0.000000
  7
STANDARD
  0
TEXT
  8
0
 10
-159.469284
 20
-36.427006
 40
4.500000
  1
SENSOR
 50
0.000000
 41
1.052632
 51
0.000000
  7
STANDARD
  0
TEXT
  8
0
 10
-159.469284
 20
-43.177006
 40
4.500000
  1
 SWITCH:ZE135
 50
0.000000
 41
1.052632
 51
0.000000
  7
STANDARD
  0
TEXT
  8
0
 10
-123.469284
 20
-49.777004
 40
4.500000
  1
ZE155
 50
0.000000
 41
1.052632
 51
0.000000
  7
STANDARD
  0
TEXT
  8
0
 10
-123.469284
 20
-55.777000
 40
4.500000
  1
ZE101
 50
0.000000
 41
1.052632
 51
0.000000
  7
STANDARD
  0
ENDSEC
  0
EOF
