  0
SECTION
  2
HEADER
  0
ENDSEC
  0
SECTION
  2
TABLES
  0
TABLE
  2
LTYPE
 70
     4
  0
LTYPE
  2
CONTINUOUS
 70
    64
  3
Solid line
 72
    65
 73
     0
 40
0.000000
  0
LTYPE
  2
DASHED
 70
    64
  3
__ __ __ __ __ __ __ __ __ __ __ __ __ __ __
 72
    65
 73
     2
 40
3.500000
 49
2.000000
 49
-1.500000
  0
LTYPE
  2
CENTER
 70
    64
  3
____ _ ____ _ ____ _ ____ _ ____ _ ____ _ ____
 72
    65
 73
     4
 40
17.500000
 49
13.000000
 49
-1.500000
 49
1.500000
 49
-1.500000
  0
LTYPE
  2
PHANTOM
 70
    64
  3
_____ _ _ _____ _ _ _____ _ _ _____ _ _ ____  
 72
    65
 73
     6
 40
15.500000
 49
8.000000
 49
-1.500000
 49
1.500000
 49
-1.500000
 49
1.500000
 49
-1.500000
  0
LTYPE
  2
DASHED1
 70
    64
  3
__ __ __ __ __ __ __ __ __ __ __ __ __ __ __
 72
    65
 73
     2
 40
1.500000
 49
1.000000
 49
-0.500000
  0
LTYPE
  2
DASHED2
 70
    64
  3
__ __ __ __ __ __ __ __ __ __ __ __ __ __ __
 72
    65
 73
     2
 40
3.500000
 49
2.500000
 49
-1.000000
  0
LTYPE
  2
DASHED3
 70
    64
  3
__ __ __ __ __ __ __ __ __ __ __ __ __ __ __
 72
    65
 73
     2
 40
6.000000
 49
4.000000
 49
-2.000000
  0
LTYPE
  2
DASHED4
 70
    64
  3
__ __ __ __ __ __ __ __ __ __ __ __ __ __ __
 72
    65
 73
     2
 40
12.000000
 49
10.000000
 49
-2.000000
  0
LTYPE
  2
DASHED5
 70
    64
  3
__ __ __ __ __ __ __ __ __ __ __ __ __ __ __
 72
    65
 73
     2
 40
17.000000
 49
15.000000
 49
-2.000000
  0
LTYPE
  2
DASHED6
 70
    64
  3
__ __ __ __ __ __ __ __ __ __ __ __ __ __ __
 72
    65
 73
     2
 40
29.000000
 49
27.000000
 49
-2.000000
  0
LTYPE
  2
PHANTOM1
 70
    64
  3
_____ _ _ _____ _ _ _____ _ _ _____ _ _ ____  
 72
    65
 73
     6
 40
31.000000
 49
25.000000
 49
-1.500000
 49
1.000000
 49
-1.000000
 49
1.000000
 49
-1.500000
  0
LTYPE
  2
PHANTOM2
 70
    64
  3
_____ _ _ _____ _ _ _____ _ _ _____ _ _ ____  
 72
    65
 73
     6
 40
36.000000
 49
27.000000
 49
-1.500000
 49
2.500000
 49
-1.000000
 49
2.500000
 49
-1.500000
  0
LTYPE
  2
PHANTOM3
 70
    64
  3
_____ _ _ _____ _ _ _____ _ _ _____ _ _ ____  
 72
    65
 73
     6
 40
78.000000
 49
64.000000
 49
-2.000000
 49
4.000000
 49
-2.000000
 49
4.000000
 49
-2.000000
  0
LTYPE
  2
CENTER1
 70
    64
  3
____ _ ____ _ ____ _ ____ _ ____ _ ____ _ ____
 72
    65
 73
     4
 40
19.000000
 49
14.000000
 49
-1.000000
 49
3.000000
 49
-1.000000
  0
LTYPE
  2
CENTER2
 70
    64
  3
____ _ ____ _ ____ _ ____ _ ____ _ ____ _ ____
 72
    65
 73
     4
 40
28.500000
 49
25.000000
 49
-1.000000
 49
1.500000
 49
-1.000000
  0
LTYPE
  2
CENTER3
 70
    64
  3
____ _ ____ _ ____ _ ____ _ ____ _ ____ _ ____
 72
    65
 73
     4
 40
31.500000
 49
27.000000
 49
-1.000000
 49
2.500000
 49
-1.000000
  0
LTYPE
  2
CENTER4
 70
    64
  3
____ _ ____ _ ____ _ ____ _ ____ _ ____ _ ____
 72
    65
 73
     4
 40
50.000000
 49
45.000000
 49
-1.000000
 49
3.000000
 49
-1.000000
  0
LTYPE
  2
CENTER5
 70
    64
  3
____ _ ____ _ ____ _ ____ _ ____ _ ____ _ ____
 72
    65
 73
     4
 40
100.000000
 49
92.000000
 49
-2.000000
 49
4.000000
 49
-2.000000
  0
LTYPE
  2
SBK1
 70
    64
  3
______ _ _ _ ______ _ _ _ ______ _ _ _ _____  
 72
    65
 73
     8
 40
60.500000
 49
45.000000
 49
-2.000000
 49
2.500000
 49
-2.000000
 49
2.500000
 49
-2.000000
 49
2.500000
 49
-2.000000
  0
LTYPE
  2
SBK2
 70
    64
  3
______ _ _ _ ______ _ _ _ ______ _ _ _ _____  
 72
    65
 73
     8
 40
84.000000
 49
64.000000
 49
-2.000000
 49
4.000000
 49
-2.000000
 49
4.000000
 49
-2.000000
 49
4.000000
 49
-2.000000
  0
LTYPE
  2
STCH
 70
    64
  3
__ __ __ __ __ __ __ __ __ __ __ __ __ __ __
 72
    65
 73
     2
 40
3.000000
 49
1.000000
 49
-2.000000
  0
LTYPE
  2
MTCH
 70
    64
  3
_____ _ _ _____ _ _ _____ _ _ _____ _ _ ____  
 72
    65
 73
     6
 40
80.000000
 49
66.000000
 49
-2.000000
 49
4.000000
 49
-2.000000
 49
4.000000
 49
-2.000000
  0
ENDTAB
  0
TABLE
  2
LAYER
 70
     1
  0
LAYER
  2
0
 70
     0
 62
     7
  6
CONTINUOUS
  0
ENDTAB
  0
TABLE
  2
STYLE
 70
     1
  0
STYLE
  2
STANDARD
 70
     0
 40
0.000000
 41
1.000000
 50
0.000000
 71
     0
 42
0.200000
  3
txt
  4
BIGFONT
  0
ENDTAB
  0
TABLE
  2
VIEW
 70
     0
  0
ENDTAB
  0
ENDSEC
  0
SECTION
  2
BLOCKS
  0
ENDSEC
  0
SECTION
  2
ENTITIES
  0
LINE
  8
0
 10
-194.250000
 20
132.600006
 11
194.800003
 21
132.600006
  0
LINE
  8
0
 10
194.800003
 20
132.600006
 11
194.800003
 21
-133.500000
  0
LINE
  8
0
 10
-194.250000
 20
132.600006
 11
-194.250000
 21
-133.500000
  0
LINE
  8
0
 10
-194.250000
 20
-133.500000
 11
194.800003
 21
-133.500000
  0
LINE
  8
0
 10
109.800003
 20
-118.500000
 11
109.800003
 21
-133.500000
  0
LINE
  8
0
 10
109.800003
 20
-118.500000
 11
194.800003
 21
-118.500000
  0
LINE
  8
0
 10
109.800003
 20
132.600006
 11
109.800003
 21
117.600006
  0
LINE
  8
0
 10
109.800003
 20
117.600006
 11
194.800003
 21
117.600006
  0
LINE
  8
0
 10
-194.250000
 20
117.600006
 11
-109.250000
 21
117.600006
  0
LINE
  8
0
 10
-109.250000
 20
132.600006
 11
-109.250000
 21
117.600006
  0
LINE
  8
0
  6
DASHED
 62
     4
 10
-63.096405
 20
-51.709522
 11
-41.096405
 21
-51.709522
  0
LINE
  8
0
  6
DASHED
 62
     4
 10
-63.096405
 20
-55.809521
 11
-41.096405
 21
-55.809521
  0
LINE
  8
0
  6
DASHED
 62
     4
 10
-63.096405
 20
-51.709522
 11
-63.096405
 21
-52.159523
  0
LINE
  8
0
  6
DASHED
 62
     4
 10
-41.096405
 20
-51.709522
 11
-41.096405
 21
-52.159523
  0
LINE
  8
0
  6
DASHED
 62
     4
 10
-63.096405
 20
-55.359520
 11
-63.096405
 21
-55.809521
  0
LINE
  8
0
  6
DASHED
 62
     4
 10
-41.096405
 20
-55.359520
 11
-41.096405
 21
-55.809521
  0
LINE
  8
0
  6
DASHED
 62
     4
 10
89.714737
 20
-50.759510
 11
106.628716
 21
-50.759510
  0
LINE
  8
0
  6
DASHED
 62
     4
 10
89.714737
 20
-46.659512
 11
106.628716
 21
-46.659512
  0
LINE
  8
0
  6
DASHED
 62
     4
 10
89.714737
 20
-47.109512
 11
89.714737
 21
-46.659512
  0
LINE
  8
0
  6
DASHED
 62
     4
 10
89.714737
 20
-50.309509
 11
89.714737
 21
-50.759510
  0
LINE
  8
0
  6
DASHED
 62
     4
 10
-63.096405
 20
-96.309525
 11
-41.096405
 21
-96.309525
  0
LINE
  8
0
  6
DASHED
 62
     4
 10
-58.396393
 20
-100.909523
 11
-41.096405
 21
-100.909523
  0
LINE
  8
0
  6
DASHED
 62
     4
 10
-41.096405
 20
-96.309525
 11
-41.096405
 21
-100.909523
  0
LINE
  8
0
  6
DASHED
 62
     4
 10
-63.096405
 20
-98.109520
 11
-63.096405
 21
-96.309525
  0
LINE
  8
0
  6
DASHED
 62
     4
 10
-58.396393
 20
-99.351486
 11
-58.396393
 21
-100.909523
  0
LINE
  8
0
  6
DASHED
 62
     4
 10
-63.096405
 20
-98.109520
 11
-58.846390
 21
-98.109520
  0
LINE
  8
0
  6
DASHED
 62
     4
 10
-58.846390
 20
-98.109520
 11
-58.846390
 21
-99.351486
  0
LINE
  8
0
  6
DASHED
 62
     4
 10
-59.096390
 20
-98.109520
 11
-59.096390
 21
-98.909523
  0
LINE
  8
0
  6
DASHED
 62
     4
 10
-63.096405
 20
-98.109520
 11
-63.096405
 21
-98.909523
  0
LINE
  8
0
  6
DASHED
 62
     4
 10
-63.096405
 20
-98.909523
 11
-59.096390
 21
-98.909523
  0
LINE
  8
0
  6
DASHED
 62
     4
 10
-58.896393
 20
-98.109520
 11
-58.896393
 21
-100.109520
  0
LINE
  8
0
  6
DASHED
 62
     4
 10
-58.896393
 20
-100.109520
 11
-58.396393
 21
-100.109520
  0
LINE
  8
0
  6
DASHED
 62
     4
 10
-58.846390
 20
-99.351486
 11
-58.396393
 21
-99.351486
  0
LINE
  8
0
  6
DASHED
 62
     4
 10
-32.596375
 20
-97.309509
 11
-32.596375
 21
-99.909515
  0
LINE
  8
0
  6
CENTER
 62
     1
 10
-34.319275
 20
-98.159439
 11
-22.387207
 21
-98.159439
  0
LINE
  8
0
  6
CENTER
 62
     1
 10
-34.268982
 20
-99.059433
 11
-22.345337
 21
-99.059433
  0
LINE
  8
0
  6
DASHED
 62
     4
 10
-22.596375
 20
-97.909454
 11
-22.596375
 21
-98.409454
  0
LINE
  8
0
  6
DASHED
 62
     4
 10
-22.596375
 20
-98.809448
 11
-22.596375
 21
-99.309448
  0
LINE
  8
0
  6
DASHED
 62
     4
 10
-25.596375
 20
-97.709442
 11
-25.596375
 21
-99.509460
  0
LINE
  8
0
  6
DASHED
 62
     4
 10
-32.596375
 20
-99.509445
 11
-28.590820
 21
-99.509445
  0
LINE
  8
0
  6
DASHED
 62
     4
 10
-32.596375
 20
-98.609421
 11
-29.110413
 21
-98.609421
  0
LINE
  8
0
  6
DASHED
 62
     4
 10
-27.610413
 20
-98.609421
 11
-25.596375
 21
-98.609421
  0
LINE
  8
0
  6
DASHED
 62
     4
 10
-27.090820
 20
-99.509445
 11
-25.596375
 21
-99.509445
  0
LINE
  8
0
  6
DASHED
 62
     4
 10
-32.596375
 20
-97.709427
 11
-29.630066
 21
-97.709427
  0
LINE
  8
0
  6
DASHED
 62
     4
 10
-28.130066
 20
-97.709427
 11
-25.596375
 21
-97.709427
  0
LINE
  8
0
  6
DASHED
 62
     4
 10
-25.596375
 20
-97.909439
 11
-22.596375
 21
-97.909439
  0
LINE
  8
0
  6
DASHED
 62
     4
 10
-25.596375
 20
-98.409439
 11
-22.596375
 21
-98.409439
  0
LINE
  8
0
  6
DASHED
 62
     4
 10
-25.596375
 20
-98.809433
 11
-22.596375
 21
-98.809433
  0
LINE
  8
0
  6
DASHED
 62
     4
 10
-25.596375
 20
-99.309433
 11
-22.596375
 21
-99.309433
  0
LINE
  8
0
 62
     1
 10
-28.860405
 20
-96.444527
 11
-26.360405
 21
-100.774651
  0
LINE
  8
0
  6
CENTER
 62
     1
 10
-42.410767
 20
-98.609512
 11
-32.596375
 21
-98.609512
  0
LINE
  8
0
 62
     1
 10
-30.360479
 20
-96.444496
 11
-27.860479
 21
-100.774628
  0
LINE
  8
0
 62
     1
 10
-37.841137
 20
-96.444466
 11
-35.341137
 21
-100.774590
  0
LINE
  8
0
 62
     1
 10
-39.341122
 20
-96.444534
 11
-36.841122
 21
-100.774658
  0
LINE
  8
0
  6
DASHED
 62
     4
 10
-62.121399
 20
-100.309525
 11
-60.071396
 21
-100.309525
  0
LINE
  8
0
  6
DASHED
 62
     4
 10
-60.070988
 20
-100.309990
 11
-59.845997
 21
-100.084991
  0
LINE
  8
0
  6
DASHED
 62
     4
 10
-62.121353
 20
-100.309540
 11
-62.346348
 21
-100.084549
  0
LINE
  8
0
  6
DASHED
 62
     4
 10
-62.346390
 20
-98.908707
 11
-62.346390
 21
-100.084526
  0
LINE
  8
0
 62
     1
 10
-62.121399
 20
-98.908707
 11
-62.121399
 21
-100.309525
  0
LINE
  8
0
 62
     1
 10
-60.071396
 20
-98.908707
 11
-60.071396
 21
-100.309525
  0
LINE
  8
0
  6
DASHED
 62
     4
 10
-59.846390
 20
-98.908707
 11
-59.846390
 21
-100.084518
  0
LINE
  8
0
  6
DASHED
 62
     4
 10
-62.346390
 20
-100.084526
 11
-59.846390
 21
-100.084526
  0
LINE
  8
0
  6
DASHED
 62
     4
 10
-63.096405
 20
-97.309525
 11
-41.096405
 21
-97.309525
  0
LINE
  8
0
  6
DASHED
 62
     4
 10
-63.096405
 20
-96.759506
 11
-41.096405
 21
-96.759506
  0
LINE
  8
0
  6
DASHED
 62
     4
 10
-41.096405
 20
-97.309509
 11
-38.841705
 21
-97.309509
  0
LINE
  8
0
  6
DASHED
 62
     4
 10
-41.096405
 20
-99.909515
 11
-37.340607
 21
-99.909515
  0
LINE
  8
0
  6
DASHED
 62
     4
 10
-37.341675
 20
-97.309509
 11
-32.596375
 21
-97.309509
  0
LINE
  8
0
  6
DASHED
 62
     4
 10
-35.840576
 20
-99.909515
 11
-32.596375
 21
-99.909515
  0
LINE
  8
0
  6
DASHED
 62
     4
 10
89.714737
 20
-96.309525
 11
105.814743
 21
-96.309525
  0
LINE
  8
0
  6
DASHED
 62
     4
 10
94.414719
 20
-100.909523
 11
111.714737
 21
-100.909523
  0
LINE
  8
0
  6
DASHED
 62
     4
 10
89.714737
 20
-98.909523
 11
89.714737
 21
-96.309525
  0
LINE
  8
0
  6
DASHED
 62
     4
 10
94.414719
 20
-99.291679
 11
94.414719
 21
-100.909523
  0
LINE
  8
0
  6
CENTER
 62
     1
 10
91.714737
 20
-95.579269
 11
91.714737
 21
-101.482193
  0
LINE
  8
0
  6
DASHED
 62
     4
 10
89.714737
 20
-98.109528
 11
93.988541
 21
-98.109528
  0
LINE
  8
0
  6
DASHED
 62
     4
 10
89.714737
 20
-98.909523
 11
93.714737
 21
-98.909523
  0
LINE
  8
0
  6
DASHED
 62
     4
 10
93.714737
 20
-98.109520
 11
93.714737
 21
-98.909523
  0
LINE
  8
0
  6
DASHED
 62
     4
 10
93.914719
 20
-100.109528
 11
94.414719
 21
-100.109528
  0
LINE
  8
0
  6
DASHED
 62
     4
 10
93.914719
 20
-98.109528
 11
93.914719
 21
-100.109528
  0
LINE
  8
0
  6
DASHED
 62
     4
 10
93.988541
 20
-99.291679
 11
94.414719
 21
-99.291679
  0
LINE
  8
0
  6
DASHED
 62
     4
 10
93.988541
 20
-98.109528
 11
93.988541
 21
-99.291679
  0
LINE
  8
0
  6
DASHED
 62
     4
 10
89.714737
 20
-97.309525
 11
111.714737
 21
-97.309525
  0
LINE
  8
0
  6
DASHED
 62
     4
 10
89.714737
 20
-96.759521
 11
111.714737
 21
-96.759521
  0
LINE
  8
0
  6
DASHED
 62
     4
 10
90.689713
 20
-100.309525
 11
92.739731
 21
-100.309525
  0
LINE
  8
0
  6
DASHED
 62
     4
 10
92.740288
 20
-100.310043
 11
92.965279
 21
-100.085045
  0
LINE
  8
0
  6
DASHED
 62
     4
 10
90.689812
 20
-100.309402
 11
90.464828
 21
-100.084412
  0
LINE
  8
0
  6
DASHED
 62
     4
 10
90.464737
 20
-98.909523
 11
90.464737
 21
-100.084526
  0
LINE
  8
0
 62
     1
 10
90.689713
 20
-98.909523
 11
90.689713
 21
-100.309525
  0
LINE
  8
0
 62
     1
 10
92.739731
 20
-98.909523
 11
92.739731
 21
-100.309525
  0
LINE
  8
0
  6
DASHED
 62
     4
 10
92.964737
 20
-98.909523
 11
92.964737
 21
-100.084518
  0
LINE
  8
0
  6
DASHED
 62
     4
 10
90.464737
 20
-100.084526
 11
92.964737
 21
-100.084526
  0
LINE
  8
0
 62
     1
 10
90.689713
 20
-95.809525
 11
90.689713
 21
-96.309525
  0
LINE
  8
0
 62
     1
 10
92.739731
 20
-95.809525
 11
92.739731
 21
-96.309525
  0
LINE
  8
0
  6
DASHED
 62
     4
 10
111.714737
 20
-96.309525
 11
111.714737
 21
-100.909523
  0
LINE
  8
0
 10
68.975525
 20
21.443623
 11
68.975525
 21
-14.556381
  0
LINE
  8
0
 10
80.975525
 20
21.443623
 11
80.975525
 21
-14.556381
  0
LINE
  8
0
 10
92.975525
 20
21.443623
 11
92.975525
 21
-14.556381
  0
LINE
  8
0
 10
104.975525
 20
21.443623
 11
104.975525
 21
-14.556381
  0
LINE
  8
0
 10
116.975525
 20
21.443623
 11
116.975525
 21
-14.556381
  0
LINE
  8
0
 10
128.975525
 20
21.443623
 11
128.975525
 21
-14.556381
  0
LINE
  8
0
 10
140.975525
 20
21.443623
 11
140.975525
 21
-14.556381
  0
LINE
  8
0
 10
188.975525
 20
21.443623
 11
188.975525
 21
-14.556381
  0
LINE
  8
0
 10
43.975525
 20
21.443623
 11
188.975525
 21
21.443623
  0
LINE
  8
0
 10
43.975525
 20
3.443623
 11
188.975525
 21
3.443623
  0
LINE
  8
0
 10
43.975525
 20
-2.556377
 11
188.975525
 21
-2.556377
  0
LINE
  8
0
 10
43.975525
 20
-14.556381
 11
188.975525
 21
-14.556381
  0
LINE
  8
0
 10
68.975533
 20
3.443624
 11
66.859612
 21
15.443624
  0
LINE
  8
0
 10
43.975525
 20
15.443623
 11
66.859604
 21
15.443623
  0
LINE
  8
0
 10
43.975525
 20
21.443623
 11
43.975525
 21
-14.556381
  0
LINE
  8
0
 10
43.975525
 20
-8.556381
 11
188.975525
 21
-8.556381
  0
LINE
  8
0
 10
152.975525
 20
21.443623
 11
152.975525
 21
-14.556381
  0
LINE
  8
0
 10
164.975525
 20
21.443623
 11
164.975525
 21
-14.556381
  0
LINE
  8
0
 10
176.975525
 20
21.443623
 11
176.975525
 21
-14.556381
  0
LINE
  8
0
 10
-49.500000
 20
43.000000
 11
12.500000
 21
43.000000
  0
LINE
  8
0
 10
-50.000000
 20
96.500000
 11
-50.000000
 21
43.500000
  0
LINE
  8
0
 10
13.000000
 20
96.500000
 11
13.000000
 21
43.500000
  0
LINE
  8
0
 10
-67.000000
 20
96.500000
 11
-67.000000
 21
43.500000
  0
LINE
  8
0
 10
-75.000000
 20
96.500000
 11
-75.000000
 21
43.500000
  0
LINE
  8
0
 10
-49.500000
 20
97.000000
 11
12.500000
 21
97.000000
  0
LINE
  8
0
 10
-75.000000
 20
96.500000
 11
-67.000000
 21
96.500000
  0
LINE
  8
0
 10
-75.000000
 20
43.500000
 11
-67.000000
 21
43.500000
  0
LINE
  8
0
 10
12.999877
 20
96.499886
 11
12.499880
 21
96.999893
  0
LINE
  8
0
 10
12.499979
 20
43.000004
 11
12.999981
 21
43.500004
  0
LINE
  8
0
 10
-50.000004
 20
43.499981
 11
-49.500004
 21
42.999977
  0
LINE
  8
0
 10
-49.999996
 20
96.499962
 11
-49.499992
 21
96.999962
  0
LINE
  8
0
 10
-67.000000
 20
86.000000
 11
-50.000000
 21
86.000000
  0
LINE
  8
0
 10
-67.000000
 20
78.000000
 11
-50.000000
 21
78.000000
  0
LINE
  8
0
 10
-67.000000
 20
62.000000
 11
-50.000000
 21
62.000000
  0
LINE
  8
0
 10
-67.000000
 20
54.000000
 11
-50.000000
 21
54.000000
  0
LINE
  8
0
  6
CENTER
 62
     2
 10
-77.833328
 20
82.000000
 11
-47.467102
 21
82.000000
  0
LINE
  8
0
  6
CENTER
 62
     2
 10
-77.500000
 20
70.000000
 11
15.166656
 21
70.000000
  0
LINE
  8
0
  6
CENTER
 62
     2
 10
-77.500000
 20
58.000000
 11
-48.008636
 21
58.000000
  0
LINE
  8
0
  6
CENTER
 62
     2
 10
-25.000000
 20
46.500000
 11
-15.000000
 21
46.500000
  0
LINE
  8
0
  6
CENTER
 62
     2
 10
-25.000000
 20
93.500000
 11
-15.000000
 21
93.500000
  0
LINE
  8
0
  6
CENTER
 62
     2
 10
-35.000000
 20
75.000000
 11
-35.000000
 21
65.000000
  0
LINE
  8
0
  6
CENTER
 62
     2
 10
-20.000000
 20
98.500000
 11
-20.000000
 21
88.500000
  0
LINE
  8
0
  6
CENTER
 62
     2
 10
-5.000000
 20
75.000000
 11
-5.000000
 21
65.000000
  0
LINE
  8
0
  6
CENTER
 62
     2
 10
-20.000000
 20
51.500000
 11
-20.000000
 21
41.500000
  0
LINE
  8
0
  6
CENTER
 62
     2
 10
-71.000000
 20
56.000000
 11
-71.000000
 21
50.000000
  0
LINE
  8
0
  6
CENTER
 62
     2
 10
-71.000000
 20
90.000000
 11
-71.000000
 21
84.000000
  0
LINE
  8
0
  6
CENTER
 62
     2
 10
-74.000000
 20
53.000000
 11
-68.000000
 21
53.000000
  0
LINE
  8
0
  6
CENTER
 62
     2
 10
-74.000000
 20
87.000000
 11
-68.000000
 21
87.000000
  0
LINE
  8
0
 10
-52.400009
 20
73.500000
 11
-52.400009
 21
66.500000
  0
LINE
  8
0
 10
-56.000000
 20
73.500000
 11
-56.000000
 21
66.500000
  0
LINE
  8
0
 10
-55.687393
 20
74.041443
 11
-53.200012
 21
74.041443
  0
LINE
  8
0
 10
-55.687393
 20
72.020721
 11
-53.200012
 21
72.020721
  0
LINE
  8
0
 10
-55.687393
 20
67.979263
 11
-53.200012
 21
67.979263
  0
LINE
  8
0
 10
-55.687393
 20
65.958542
 11
-53.200012
 21
65.958542
  0
LINE
  8
0
 10
-53.200012
 20
74.041443
 11
-53.200012
 21
65.958542
  0
LINE
  8
0
 10
-52.399990
 20
73.499985
 11
-52.087383
 21
74.041435
  0
LINE
  8
0
 10
-52.400078
 20
66.499939
 11
-52.087471
 21
65.958488
  0
LINE
  8
0
 10
-55.999989
 20
73.499977
 11
-55.687382
 21
74.041428
  0
LINE
  8
0
 10
-56.000069
 20
66.499962
 11
-55.687454
 21
65.958496
  0
LINE
  8
0
 10
-50.000069
 20
73.499947
 11
-50.312675
 21
74.041397
  0
LINE
  8
0
 10
-49.999992
 20
66.499985
 11
-50.312599
 21
65.958534
  0
LINE
  8
0
 10
-52.087402
 20
74.041443
 11
-50.312622
 21
74.041443
  0
LINE
  8
0
 10
-52.087402
 20
65.958542
 11
-50.312607
 21
65.958542
  0
LINE
  8
0
 10
-52.087402
 20
67.979263
 11
-50.312607
 21
67.979263
  0
LINE
  8
0
 10
-52.087402
 20
72.020721
 11
-50.312607
 21
72.020721
  0
LINE
  8
0
 10
-53.200012
 20
72.000000
 11
-52.400009
 21
72.000000
  0
LINE
  8
0
 10
-53.200012
 20
68.000000
 11
-52.400009
 21
68.000000
  0
LINE
  8
0
 62
     2
 10
-53.200012
 20
71.729492
 11
-52.400009
 21
71.729492
  0
LINE
  8
0
 62
     2
 10
-53.200012
 20
68.270493
 11
-52.400009
 21
68.270493
  0
LINE
  8
0
 10
-65.000000
 20
84.527847
 11
-65.000000
 21
79.472153
  0
LINE
  8
0
 10
-67.000000
 20
55.472137
 11
-65.000000
 21
55.472137
  0
LINE
  8
0
 10
-67.000000
 20
60.527832
 11
-65.000000
 21
60.527832
  0
LINE
  8
0
 10
-67.000000
 20
84.527832
 11
-65.000000
 21
84.527832
  0
LINE
  8
0
 10
-67.000000
 20
79.472137
 11
-65.000000
 21
79.472137
  0
LINE
  8
0
 10
-65.000000
 20
60.527847
 11
-65.000000
 21
55.472137
  0
LINE
  8
0
 10
-64.999977
 20
60.527840
 11
-66.999977
 21
55.472141
  0
LINE
  8
0
 10
-65.000000
 20
55.472145
 11
-67.000000
 21
60.527847
  0
LINE
  8
0
 10
-67.000023
 20
84.527832
 11
-65.000023
 21
79.472137
  0
LINE
  8
0
 10
-64.999954
 20
84.527824
 11
-66.999954
 21
79.472130
  0
LINE
  8
0
 10
-67.000000
 20
72.750000
 11
-66.000000
 21
72.750000
  0
LINE
  8
0
 10
-67.000000
 20
67.250000
 11
-66.000000
 21
67.250000
  0
LINE
  8
0
 10
-13.000000
 20
97.000000
 11
9.000000
 21
97.000000
  0
LINE
  8
0
 10
-66.000000
 20
72.750000
 11
-66.000000
 21
67.250000
  0
LINE
  8
0
 10
-50.000000
 20
74.399994
 11
13.000000
 21
74.399994
  0
LINE
  8
0
 10
-50.000000
 20
71.199997
 11
-38.815765
 21
71.199997
  0
LINE
  8
0
 10
-50.000000
 20
89.699997
 11
-21.249023
 21
89.699997
  0
LINE
  8
0
 10
-50.000000
 20
92.899994
 11
-23.954742
 21
92.899994
  0
LINE
  8
0
 10
-31.184250
 20
71.199997
 11
-8.815765
 21
71.199997
  0
LINE
  8
0
 10
-16.045258
 20
92.899994
 11
13.000000
 21
92.899994
  0
LINE
  8
0
 10
-1.184250
 20
71.199997
 11
13.000000
 21
71.199997
  0
LINE
  8
0
 10
-18.750992
 20
89.699997
 11
13.000000
 21
89.699997
  0
LINE
  8
0
  6
PHANTOM
 62
     3
 10
-27.500000
 20
111.429161
 11
-27.500000
 21
32.965553
  0
LINE
  8
0
  6
PHANTOM
 62
     3
 10
-12.500000
 20
103.051460
 11
-12.500000
 21
32.965553
  0
LINE
  8
0
  6
PHANTOM
 62
     3
 10
-62.000000
 20
103.251740
 11
-62.000000
 21
32.965553
  0
LINE
  8
0
 10
-119.500000
 20
96.500000
 11
-119.500000
 21
43.500000
  0
LINE
  8
0
 10
-139.500000
 20
96.500000
 11
-139.500000
 21
43.500000
  0
LINE
  8
0
 10
-139.500000
 20
96.500000
 11
-119.500000
 21
96.500000
  0
LINE
  8
0
 10
-139.500000
 20
43.500000
 11
-119.500000
 21
43.500000
  0
LINE
  8
0
  6
CENTER
 62
     2
 10
-134.589233
 20
82.000000
 11
-124.701828
 21
82.000000
  0
LINE
  8
0
  6
CENTER
 62
     2
 10
-141.000000
 20
70.000000
 11
-117.333328
 21
70.000000
  0
LINE
  8
0
  6
CENTER
 62
     2
 10
-134.472229
 20
58.000000
 11
-124.643311
 21
58.000000
  0
LINE
  8
0
  6
CENTER
 62
     2
 10
-129.500000
 20
99.666672
 11
-129.500000
 21
39.333328
  0
LINE
  8
0
 10
-119.000000
 20
71.199982
 11
-119.000000
 21
43.500000
  0
LINE
  8
0
 10
-131.100006
 20
97.000000
 11
-139.500015
 21
97.000000
  0
LINE
  8
0
 10
-119.000000
 20
96.500000
 11
-119.000000
 21
92.900009
  0
LINE
  8
0
 10
-140.000000
 20
96.500000
 11
-140.000000
 21
92.900009
  0
LINE
  8
0
 10
-119.500000
 20
97.000000
 11
-127.899994
 21
97.000000
  0
LINE
  8
0
 10
-119.500000
 20
43.000000
 11
-139.500000
 21
43.000000
  0
LINE
  8
0
 10
-119.500008
 20
96.999992
 11
-119.000023
 21
96.500008
  0
LINE
  8
0
 10
-139.999969
 20
96.499977
 11
-139.499985
 21
96.999977
  0
LINE
  8
0
 10
-139.999969
 20
43.500034
 11
-139.499969
 21
43.000023
  0
LINE
  8
0
 10
-118.999969
 20
43.499989
 11
-119.499962
 21
43.000000
  0
LINE
  8
0
 10
-140.000000
 20
71.199982
 11
-140.000000
 21
43.500000
  0
LINE
  8
0
  6
CENTER
 62
     2
 10
-132.500000
 20
46.500000
 11
-126.500000
 21
46.500000
  0
LINE
  8
0
  6
CENTER
 62
     2
 10
-132.500000
 20
93.500000
 11
-126.500000
 21
93.500000
  0
LINE
  8
0
 10
-131.000000
 20
82.866013
 11
-131.000000
 21
81.133972
  0
LINE
  8
0
 10
-128.000000
 20
82.866028
 11
-128.000000
 21
81.133972
  0
LINE
  8
0
 10
-130.999985
 20
82.866074
 11
-129.499985
 21
83.732101
  0
LINE
  8
0
 10
-129.500000
 20
80.267975
 11
-127.999992
 21
81.134003
  0
LINE
  8
0
 10
-131.000015
 20
58.866039
 11
-129.500015
 21
59.732059
  0
LINE
  8
0
 10
-129.500015
 20
56.267971
 11
-128.000031
 21
57.133991
  0
LINE
  8
0
 10
-129.500015
 20
83.732056
 11
-128.000000
 21
82.866028
  0
LINE
  8
0
 10
-131.000015
 20
81.133980
 11
-129.500000
 21
80.267952
  0
LINE
  8
0
 10
-129.500015
 20
59.732059
 11
-128.000000
 21
58.866032
  0
LINE
  8
0
 10
-131.000015
 20
57.133976
 11
-129.500000
 21
56.267948
  0
LINE
  8
0
 10
-131.000000
 20
58.866028
 11
-131.000000
 21
57.133972
  0
LINE
  8
0
 10
-128.000000
 20
58.866028
 11
-128.000000
 21
57.133972
  0
LINE
  8
0
 10
-140.000000
 20
74.400009
 11
-139.500000
 21
74.400009
  0
LINE
  8
0
 10
-140.000000
 20
71.199982
 11
-139.500000
 21
71.199982
  0
LINE
  8
0
 10
-118.999985
 20
74.400009
 11
-119.500000
 21
74.400009
  0
LINE
  8
0
 10
-118.999985
 20
71.199982
 11
-119.500000
 21
71.199982
  0
LINE
  8
0
 10
-127.899994
 20
97.000000
 11
-127.899994
 21
96.500000
  0
LINE
  8
0
 10
-131.100006
 20
97.000000
 11
-131.100006
 21
96.500000
  0
LINE
  8
0
 10
-119.000000
 20
92.900009
 11
-119.500000
 21
92.900009
  0
LINE
  8
0
 10
-119.000000
 20
89.699997
 11
-119.500000
 21
89.699997
  0
LINE
  8
0
 10
-119.000000
 20
89.699997
 11
-119.000000
 21
74.400009
  0
LINE
  8
0
 10
-140.000000
 20
92.900009
 11
-139.500000
 21
92.900009
  0
LINE
  8
0
 10
-140.000000
 20
89.699997
 11
-139.500000
 21
89.699997
  0
LINE
  8
0
 10
-140.000000
 20
89.699997
 11
-140.000000
 21
74.400009
  0
LINE
  8
0
  6
CENTER
 62
     2
 10
-142.000000
 20
93.500000
 11
-138.000000
 21
93.500000
  0
LINE
  8
0
  6
CENTER
 62
     2
 10
-142.000000
 20
46.500000
 11
-138.000000
 21
46.500000
  0
LINE
  8
0
 10
59.000000
 20
96.500000
 11
59.000000
 21
92.900009
  0
LINE
  8
0
 10
80.000000
 20
96.500000
 11
80.000000
 21
92.900009
  0
LINE
  8
0
 10
59.500000
 20
97.000000
 11
67.899994
 21
97.000000
  0
LINE
  8
0
 10
59.500000
 20
43.000000
 11
79.500000
 21
43.000000
  0
LINE
  8
0
 10
59.499981
 20
97.000008
 11
58.999992
 21
96.500023
  0
LINE
  8
0
 10
79.999992
 20
96.499931
 11
79.500000
 21
96.999939
  0
LINE
  8
0
 10
79.999962
 20
43.500019
 11
79.499969
 21
43.000031
  0
LINE
  8
0
 10
58.999966
 20
43.499958
 11
59.499954
 21
42.999969
  0
LINE
  8
0
  6
CENTER
 62
     2
 10
57.500000
 20
82.000000
 11
82.500000
 21
82.000000
  0
LINE
  8
0
  6
CENTER
 62
     2
 10
57.166656
 20
70.000000
 11
82.500000
 21
70.000000
  0
LINE
  8
0
  6
CENTER
 62
     2
 10
57.166656
 20
58.000000
 11
82.833344
 21
58.000000
  0
LINE
  8
0
  6
CENTER
 62
     2
 10
69.500000
 20
100.333328
 11
69.500000
 21
40.666656
  0
LINE
  8
0
 10
71.100006
 20
97.000000
 11
79.499969
 21
97.000000
  0
LINE
  8
0
 10
59.000000
 20
71.199997
 11
59.000000
 21
43.500000
  0
LINE
  8
0
 10
80.000000
 20
71.199982
 11
80.000000
 21
43.500000
  0
LINE
  8
0
 10
71.600006
 20
95.983536
 11
71.600006
 21
94.383545
  0
LINE
  8
0
 10
71.099945
 20
96.483391
 11
71.599930
 21
95.983398
  0
LINE
  8
0
 10
67.399994
 20
95.983551
 11
67.399994
 21
94.383545
  0
LINE
  8
0
 10
79.000000
 20
70.699982
 11
77.399994
 21
70.699982
  0
LINE
  8
0
 10
79.500038
 20
71.199944
 11
79.000046
 21
70.699951
  0
LINE
  8
0
 10
79.499863
 20
74.399925
 11
78.999870
 21
74.899918
  0
LINE
  8
0
 10
79.000000
 20
74.900009
 11
77.399994
 21
74.900009
  0
LINE
  8
0
 10
67.899994
 20
97.000000
 11
67.899994
 21
96.483551
  0
LINE
  8
0
 10
71.100006
 20
97.000000
 11
71.100006
 21
96.483536
  0
LINE
  8
0
 10
80.000000
 20
74.400009
 11
79.500000
 21
74.400009
  0
LINE
  8
0
 10
80.000000
 20
71.199982
 11
79.500000
 21
71.199982
  0
LINE
  8
0
 10
59.999817
 20
74.900009
 11
61.599976
 21
74.900009
  0
LINE
  8
0
 10
67.400017
 20
95.983566
 11
67.900017
 21
96.483566
  0
LINE
  8
0
  6
CENTER
 62
     2
 10
57.166656
 20
72.799988
 11
81.666611
 21
72.799988
  0
LINE
  8
0
  6
CENTER
 62
     2
 10
57.166656
 20
91.300003
 11
81.333282
 21
91.300003
  0
LINE
  8
0
 10
60.000122
 20
93.400009
 11
61.599976
 21
93.400009
  0
LINE
  8
0
 10
59.000000
 20
92.900009
 11
59.500092
 21
92.900009
  0
LINE
  8
0
 10
59.000000
 20
89.699997
 11
59.499817
 21
89.699997
  0
LINE
  8
0
 10
59.999817
 20
89.199997
 11
61.599976
 21
89.199997
  0
LINE
  8
0
 10
59.500019
 20
92.899948
 11
60.000031
 21
93.399963
  0
LINE
  8
0
 10
59.499863
 20
89.699913
 11
59.999897
 21
89.199883
  0
LINE
  8
0
 10
59.000000
 20
89.699997
 11
59.000000
 21
74.400009
  0
LINE
  8
0
 10
79.000000
 20
89.199997
 11
77.399994
 21
89.199997
  0
LINE
  8
0
 10
79.500053
 20
89.699944
 11
79.000061
 21
89.199951
  0
LINE
  8
0
 10
79.499878
 20
92.899925
 11
78.999893
 21
93.399918
  0
LINE
  8
0
 10
79.000000
 20
93.400009
 11
77.399994
 21
93.400009
  0
LINE
  8
0
 10
80.000000
 20
92.900009
 11
79.500000
 21
92.900009
  0
LINE
  8
0
 10
80.000000
 20
89.699997
 11
79.500000
 21
89.699997
  0
LINE
  8
0
 10
80.000000
 20
89.699997
 11
80.000000
 21
74.400009
  0
LINE
  8
0
 10
60.000122
 20
70.699997
 11
61.599976
 21
70.699997
  0
LINE
  8
0
 10
59.000000
 20
71.199997
 11
59.500092
 21
71.199997
  0
LINE
  8
0
 10
59.000000
 20
74.400009
 11
59.499771
 21
74.400009
  0
LINE
  8
0
 10
59.499992
 20
71.200058
 11
59.999992
 21
70.700058
  0
LINE
  8
0
 10
59.499851
 20
74.400085
 11
59.999882
 21
74.900124
  0
LINE
  8
0
  6
CENTER
 62
     2
 10
78.500000
 20
93.500000
 11
81.500000
 21
93.500000
  0
LINE
  8
0
  6
CENTER
 62
     2
 10
78.500000
 20
46.500000
 11
81.500000
 21
46.500000
  0
LINE
  8
0
 10
-49.500000
 20
21.135014
 11
12.500000
 21
21.135014
  0
LINE
  8
0
 10
-49.500000
 20
0.135014
 11
12.500000
 21
0.135014
  0
LINE
  8
0
 10
-75.000000
 20
20.635014
 11
-67.000000
 21
20.635014
  0
LINE
  8
0
 10
-75.000000
 20
0.635014
 11
-67.000000
 21
0.635014
  0
LINE
  8
0
 10
-75.000000
 20
20.635014
 11
-75.000000
 21
0.635014
  0
LINE
  8
0
 10
-67.000000
 20
20.635014
 11
-67.000000
 21
0.635014
  0
LINE
  8
0
 10
-50.000000
 20
20.635014
 11
-50.000000
 21
0.635014
  0
LINE
  8
0
 10
13.000000
 20
20.635014
 11
13.000000
 21
0.635014
  0
LINE
  8
0
 10
12.999968
 20
20.634991
 11
12.499978
 21
21.134981
  0
LINE
  8
0
 10
12.999960
 20
0.635054
 11
12.499959
 21
0.135053
  0
LINE
  8
0
 10
-50.000004
 20
20.635019
 11
-49.500004
 21
21.135019
  0
LINE
  8
0
 10
-49.999996
 20
0.635023
 11
-49.499996
 21
0.135023
  0
LINE
  8
0
  6
CENTER
 62
     2
 10
-76.833328
 20
10.635014
 11
16.166656
 21
10.635014
  0
LINE
  8
0
 10
-65.000000
 20
14.635014
 11
-50.000000
 21
14.635014
  0
LINE
  8
0
 10
-65.000000
 20
6.635014
 11
-50.000000
 21
6.635014
  0
LINE
  8
0
 10
-52.400009
 20
6.635014
 11
-52.400009
 21
3.676472
  0
LINE
  8
0
 10
-53.200012
 20
6.635014
 11
-53.200012
 21
3.135014
  0
LINE
  8
0
 10
-56.000000
 20
6.635014
 11
-56.000000
 21
3.676472
  0
LINE
  8
0
 10
-55.687393
 20
3.135014
 11
-53.200012
 21
3.135014
  0
LINE
  8
0
 10
-52.087399
 20
3.135027
 11
-52.400005
 21
3.676478
  0
LINE
  8
0
 10
-55.687397
 20
3.135023
 11
-56.000004
 21
3.676474
  0
LINE
  8
0
 10
-50.312626
 20
3.135029
 11
-50.000023
 21
3.676480
  0
LINE
  8
0
 10
-52.087402
 20
3.135014
 11
-50.312622
 21
3.135014
  0
LINE
  8
0
 10
-53.200012
 20
4.635014
 11
-52.400009
 21
4.635014
  0
LINE
  8
0
 62
     2
 10
-53.200012
 20
4.905521
 11
-52.400009
 21
4.905521
  0
LINE
  8
0
 10
-65.000000
 20
14.635014
 11
-65.000000
 21
13.735020
  0
LINE
  8
0
 10
-67.000000
 20
13.735020
 11
-65.000000
 21
13.735020
  0
LINE
  8
0
 10
-67.000000
 20
7.535023
 11
-65.000000
 21
7.535023
  0
LINE
  8
0
 10
-65.000000
 20
7.535023
 11
-65.000000
 21
6.635014
  0
LINE
  8
0
 10
-67.000000
 20
3.885014
 11
-66.000000
 21
3.885014
  0
LINE
  8
0
 10
-21.936493
 20
21.135014
 11
-21.936493
 21
15.635029
  0
LINE
  8
0
 10
-18.063507
 20
21.135014
 11
-18.063507
 21
15.635029
  0
LINE
  8
0
 10
-21.936493
 20
5.635029
 11
-21.936493
 21
0.135014
  0
LINE
  8
0
 10
-18.063507
 20
5.635029
 11
-18.063507
 21
0.135014
  0
LINE
  8
0
 10
-66.000000
 20
7.535023
 11
-66.000000
 21
3.885014
  0
LINE
  8
0
  6
CENTER
 62
     2
 10
-28.000000
 20
14.135014
 11
-28.000000
 21
7.135014
  0
LINE
  8
0
  6
CENTER
 62
     2
 10
3.000000
 20
14.135014
 11
3.000000
 21
7.135014
  0
LINE
  8
0
  6
CENTER
 62
     2
 10
-50.000000
 20
6.635014
 11
-41.786514
 21
6.635014
  0
LINE
  8
0
 10
-21.936493
 20
5.635029
 11
-18.063507
 21
5.635029
  0
LINE
  8
0
 10
-21.936493
 20
15.635029
 11
-18.063507
 21
15.635029
  0
LINE
  8
0
  6
CENTER
 62
     2
 10
-35.000000
 20
3.135014
 11
-35.000000
 21
-2.864986
  0
LINE
  8
0
  6
CENTER
 62
     2
 10
-20.000000
 20
3.135014
 11
-20.000000
 21
-2.864986
  0
LINE
  8
0
  6
CENTER
 62
     2
 10
-5.000000
 20
3.135014
 11
-5.000000
 21
-2.864986
  0
LINE
  8
0
  6
PHANTOM
 62
     3
 10
-24.252304
 20
32.965553
 11
-24.252304
 21
-6.915432
  0
LINE
  8
0
  6
PHANTOM
 62
     3
 10
-27.500000
 20
32.965553
 11
-24.252304
 21
32.965553
  0
LINE
  8
0
  6
PHANTOM
 62
     3
 10
-12.500000
 20
32.965553
 11
-12.500000
 21
-6.915432
  0
LINE
  8
0
  6
PHANTOM
 62
     3
 10
-62.000000
 20
32.965553
 11
-62.000000
 21
-7.199940
  0
LINE
  8
0
  6
CENTER
 62
     1
 10
-61.096390
 20
-95.502808
 11
-61.096390
 21
-100.121109
  0
LINE
  8
0
 62
     4
 10
-62.346390
 20
-95.809525
 11
-62.346390
 21
-96.309525
  0
LINE
  8
0
 62
     1
 10
-62.121399
 20
-95.809525
 11
-62.121399
 21
-96.309525
  0
LINE
  8
0
 62
     1
 10
-60.071396
 20
-95.809525
 11
-60.071396
 21
-96.309525
  0
LINE
  8
0
 62
     4
 10
-59.846390
 20
-95.809525
 11
-59.846390
 21
-96.309525
  0
LINE
  8
0
 62
     4
 10
-62.346390
 20
-95.809525
 11
-59.846390
 21
-95.809525
  0
LINE
  8
0
  6
CENTER
 62
     1
 10
-107.639130
 20
-94.256554
 11
-107.639130
 21
-101.342644
  0
LINE
  8
0
 62
     4
 10
-109.689117
 20
-97.309525
 11
-109.689117
 21
-98.859520
  0
LINE
  8
0
 62
     4
 10
-109.689194
 20
-97.309486
 11
-109.139183
 21
-96.759476
  0
LINE
  8
0
 62
     4
 10
-109.139130
 20
-96.309525
 11
-109.139130
 21
-96.759521
  0
LINE
  8
0
 62
     4
 10
-109.139130
 20
-96.309525
 11
-106.139130
 21
-96.309525
  0
LINE
  8
0
 62
     4
 10
-106.139130
 20
-96.309525
 11
-106.139130
 21
-96.759521
  0
LINE
  8
0
 62
     4
 10
-105.589134
 20
-97.309479
 11
-106.139137
 21
-96.759483
  0
LINE
  8
0
 62
     4
 10
-105.589127
 20
-97.309525
 11
-105.589127
 21
-98.859520
  0
LINE
  8
0
 62
     4
 10
-109.689117
 20
-98.109520
 11
-105.589127
 21
-98.109520
  0
LINE
  8
0
 62
     4
 10
-109.689133
 20
-98.908707
 11
-105.589127
 21
-98.908707
  0
LINE
  8
0
 62
     4
 10
-108.664139
 20
-100.309525
 11
-106.614136
 21
-100.309525
  0
LINE
  8
0
 62
     4
 10
-106.613678
 20
-100.309975
 11
-106.388680
 21
-100.084969
  0
LINE
  8
0
 62
     4
 10
-108.664131
 20
-100.309570
 11
-108.889122
 21
-100.084579
  0
LINE
  8
0
 62
     4
 10
-108.889130
 20
-98.908707
 11
-108.889130
 21
-100.084526
  0
LINE
  8
0
 62
     1
 10
-108.664139
 20
-98.908707
 11
-108.664139
 21
-100.309525
  0
LINE
  8
0
 62
     1
 10
-106.614136
 20
-98.908707
 11
-106.614136
 21
-100.309525
  0
LINE
  8
0
 62
     4
 10
-106.389130
 20
-98.908707
 11
-106.389130
 21
-100.084518
  0
LINE
  8
0
 62
     4
 10
-108.889130
 20
-100.084526
 11
-106.389130
 21
-100.084526
  0
LINE
  8
0
 62
     4
 10
-108.889130
 20
-95.809525
 11
-108.889130
 21
-96.309525
  0
LINE
  8
0
 62
     1
 10
-108.664139
 20
-95.809525
 11
-108.664139
 21
-96.309525
  0
LINE
  8
0
 62
     1
 10
-106.614136
 20
-95.809525
 11
-106.614136
 21
-96.309525
  0
LINE
  8
0
 62
     4
 10
-106.389130
 20
-95.809525
 11
-106.389130
 21
-96.309525
  0
LINE
  8
0
 62
     4
 10
-108.889130
 20
-95.809525
 11
-106.389130
 21
-95.809525
  0
LINE
  8
0
  6
CENTER
 62
     1
 10
-65.896942
 20
-53.759521
 11
-35.688889
 21
-53.759521
  0
LINE
  8
0
 62
     4
 10
-63.096405
 20
-55.259521
 11
-41.096405
 21
-55.259521
  0
LINE
  8
0
 62
     4
 10
-63.096405
 20
-52.259521
 11
-41.096405
 21
-52.259521
  0
LINE
  8
0
  6
CENTER
 62
     1
 10
-61.096390
 20
-50.923019
 11
-61.096390
 21
-56.512344
  0
LINE
  8
0
 62
     1
 10
-40.007172
 20
-51.594421
 11
-37.507172
 21
-55.924549
  0
LINE
  8
0
 62
     4
 10
-41.096405
 20
-52.459518
 11
-39.507751
 21
-52.459518
  0
LINE
  8
0
 62
     4
 10
-41.096405
 20
-55.059525
 11
-38.006622
 21
-55.059525
  0
LINE
  8
0
 62
     4
 10
-62.105858
 20
-54.486176
 11
-60.360859
 21
-52.741177
  0
LINE
  8
0
 62
     4
 10
-61.823044
 20
-54.768990
 11
-60.078045
 21
-53.023991
  0
LINE
  8
0
 62
     4
 10
-63.096405
 20
-52.159523
 11
-63.096405
 21
-55.359520
  0
LINE
  8
0
 62
     4
 10
-41.096405
 20
-52.159523
 11
-41.096405
 21
-55.359520
  0
LINE
  8
0
 62
     4
 10
111.714737
 20
-89.409523
 11
111.714737
 21
-96.309525
  0
LINE
  8
0
  6
CENTER
 62
     1
 10
91.714737
 20
-95.579269
 11
91.714737
 21
-99.413589
  0
LINE
  8
0
 62
     4
 10
105.814713
 20
-89.409523
 11
105.814713
 21
-96.309525
  0
LINE
  8
0
 62
     4
 10
105.814743
 20
-89.409523
 11
111.714737
 21
-89.409523
  0
LINE
  8
0
 62
     4
 10
105.814713
 20
-95.159508
 11
111.714737
 21
-95.159508
  0
LINE
  8
0
 62
     4
 10
105.814713
 20
-95.909508
 11
111.714737
 21
-95.909508
  0
LINE
  8
0
 62
     4
 10
105.814713
 20
-90.909523
 11
111.714737
 21
-90.909523
  0
LINE
  8
0
 62
     4
 10
107.822098
 20
-80.909485
 11
110.422073
 21
-80.909485
  0
LINE
  8
0
  6
CENTER
 62
     1
 10
108.672012
 20
-82.632416
 11
108.672012
 21
-70.700333
  0
LINE
  8
0
  6
CENTER
 62
     1
 10
109.572006
 20
-82.582123
 11
109.572006
 21
-70.658478
  0
LINE
  8
0
 62
     4
 10
108.422012
 20
-70.909485
 11
108.922012
 21
-70.909485
  0
LINE
  8
0
 62
     4
 10
109.322006
 20
-70.909485
 11
109.822006
 21
-70.909485
  0
LINE
  8
0
 62
     4
 10
108.222000
 20
-73.909485
 11
110.022018
 21
-73.909485
  0
LINE
  8
0
 62
     4
 10
110.022018
 20
-80.909485
 11
110.022018
 21
-76.903938
  0
LINE
  8
0
 62
     4
 10
109.121994
 20
-80.909485
 11
109.121994
 21
-77.423553
  0
LINE
  8
0
 62
     4
 10
109.121994
 20
-75.923553
 11
109.121994
 21
-73.909485
  0
LINE
  8
0
 62
     4
 10
110.022018
 20
-75.403938
 11
110.022018
 21
-73.909485
  0
LINE
  8
0
 62
     4
 10
108.222000
 20
-80.909485
 11
108.222000
 21
-77.943176
  0
LINE
  8
0
 62
     4
 10
108.222000
 20
-76.443176
 11
108.222000
 21
-73.909485
  0
LINE
  8
0
 62
     4
 10
108.422012
 20
-73.909485
 11
108.422012
 21
-70.909485
  0
LINE
  8
0
 62
     4
 10
108.922012
 20
-73.909485
 11
108.922012
 21
-70.909485
  0
LINE
  8
0
 62
     4
 10
109.322006
 20
-73.909485
 11
109.322006
 21
-70.909485
  0
LINE
  8
0
 62
     4
 10
109.822006
 20
-73.909485
 11
109.822006
 21
-70.909485
  0
LINE
  8
0
 62
     1
 10
106.957138
 20
-77.173645
 11
111.287285
 21
-74.673630
  0
LINE
  8
0
  6
CENTER
 62
     1
 10
109.122086
 20
-90.723892
 11
109.122086
 21
-80.909485
  0
LINE
  8
0
 62
     1
 10
106.957047
 20
-78.673637
 11
111.287201
 21
-76.173622
  0
LINE
  8
0
 62
     1
 10
106.957031
 20
-86.154343
 11
111.287163
 21
-83.654343
  0
LINE
  8
0
 62
     1
 10
106.957077
 20
-87.654343
 11
111.287193
 21
-85.154350
  0
LINE
  8
0
 62
     4
 10
90.464737
 20
-95.809525
 11
90.464737
 21
-96.309525
  0
LINE
  8
0
 62
     1
 10
90.689713
 20
-95.809525
 11
90.689713
 21
-96.309525
  0
LINE
  8
0
 62
     1
 10
92.739731
 20
-95.809525
 11
92.739731
 21
-96.309525
  0
LINE
  8
0
 62
     4
 10
92.964737
 20
-95.809525
 11
92.964737
 21
-96.309525
  0
LINE
  8
0
 62
     4
 10
90.464737
 20
-95.809525
 11
92.964737
 21
-95.809525
  0
LINE
  8
0
 62
     4
 10
110.422073
 20
-89.409523
 11
110.422073
 21
-85.653687
  0
LINE
  8
0
 62
     4
 10
107.822098
 20
-89.409523
 11
107.822098
 21
-87.154778
  0
LINE
  8
0
 62
     4
 10
107.822098
 20
-85.654793
 11
107.822098
 21
-80.909485
  0
LINE
  8
0
 62
     4
 10
110.422073
 20
-84.153694
 11
110.422073
 21
-80.909485
  0
LINE
  8
0
 62
     4
 10
44.422012
 20
-90.909523
 11
48.922012
 21
-90.909523
  0
LINE
  8
0
 62
     4
 10
44.422012
 20
-89.409523
 11
44.422012
 21
-95.159523
  0
LINE
  8
0
 62
     4
 10
45.171951
 20
-95.909485
 11
44.421989
 21
-95.159523
  0
LINE
  8
0
 62
     4
 10
45.172012
 20
-96.759521
 11
45.172012
 21
-95.909523
  0
LINE
  8
0
 62
     4
 10
44.621998
 20
-97.309471
 11
45.172009
 21
-96.759460
  0
LINE
  8
0
 62
     4
 10
44.621994
 20
-97.309525
 11
44.621994
 21
-98.859520
  0
LINE
  8
0
 62
     4
 10
48.722000
 20
-97.309525
 11
48.722000
 21
-98.859520
  0
LINE
  8
0
 62
     4
 10
48.721989
 20
-97.309563
 11
48.171982
 21
-96.759552
  0
LINE
  8
0
 62
     4
 10
48.172012
 20
-96.759521
 11
48.172012
 21
-95.909523
  0
LINE
  8
0
 62
     4
 10
48.172073
 20
-95.909622
 11
48.922070
 21
-95.159622
  0
LINE
  8
0
 62
     4
 10
48.922012
 20
-89.409523
 11
48.922012
 21
-95.159523
  0
LINE
  8
0
  6
CENTER
 62
     1
 10
46.672012
 20
-83.748566
 11
46.672012
 21
-101.477119
  0
LINE
  8
0
 62
     4
 10
45.172012
 20
-96.309525
 11
48.172012
 21
-96.309525
  0
LINE
  8
0
 62
     4
 10
44.621994
 20
-98.109520
 11
48.722000
 21
-98.109520
  0
LINE
  8
0
 62
     4
 10
44.621994
 20
-98.911972
 11
48.722000
 21
-98.911972
  0
LINE
  8
0
 62
     4
 10
44.422012
 20
-89.409523
 11
48.922012
 21
-89.409523
  0
LINE
  8
0
 62
     1
 10
44.507027
 20
-87.654343
 11
48.837154
 21
-85.154343
  0
LINE
  8
0
 62
     4
 10
45.646988
 20
-100.309525
 11
47.697006
 21
-100.309525
  0
LINE
  8
0
 62
     4
 10
47.697529
 20
-100.310059
 11
47.922520
 21
-100.085060
  0
LINE
  8
0
 62
     4
 10
45.647053
 20
-100.309448
 11
45.422047
 21
-100.084442
  0
LINE
  8
0
 62
     4
 10
45.422012
 20
-98.911972
 11
45.422012
 21
-100.084526
  0
LINE
  8
0
 62
     1
 10
45.646988
 20
-98.911972
 11
45.646988
 21
-100.309525
  0
LINE
  8
0
 62
     1
 10
47.697006
 20
-98.911972
 11
47.697006
 21
-100.309525
  0
LINE
  8
0
 62
     4
 10
47.922012
 20
-98.911972
 11
47.922012
 21
-100.084518
  0
LINE
  8
0
 62
     4
 10
45.422012
 20
-100.084526
 11
47.922012
 21
-100.084526
  0
LINE
  8
0
 62
     4
 10
45.422012
 20
-95.809525
 11
45.422012
 21
-96.309525
  0
LINE
  8
0
 62
     1
 10
45.646988
 20
-95.809525
 11
45.646988
 21
-96.309525
  0
LINE
  8
0
 62
     1
 10
47.697006
 20
-95.809525
 11
47.697006
 21
-96.309525
  0
LINE
  8
0
 62
     4
 10
47.922012
 20
-95.809525
 11
47.922012
 21
-96.309525
  0
LINE
  8
0
 62
     4
 10
45.422012
 20
-95.809525
 11
47.922012
 21
-95.809525
  0
LINE
  8
0
 62
     4
 10
45.372025
 20
-87.154800
 11
45.372025
 21
-89.409523
  0
LINE
  8
0
 62
     4
 10
47.972000
 20
-85.653702
 11
47.972000
 21
-89.409523
  0
LINE
  8
0
  6
CENTER
 62
     1
 10
88.385544
 20
-48.709511
 11
113.294724
 21
-48.709511
  0
LINE
  8
0
 62
     4
 10
89.714737
 20
-50.209511
 11
106.275345
 21
-50.209511
  0
LINE
  8
0
 62
     4
 10
89.714737
 20
-47.209511
 11
106.275345
 21
-47.209511
  0
LINE
  8
0
 62
     4
 10
89.714737
 20
-47.109512
 11
89.714737
 21
-50.309509
  0
LINE
  8
0
  6
CENTER
 62
     1
 10
91.714737
 20
-45.873001
 11
91.714737
 21
-51.462326
  0
LINE
  8
0
 62
     4
 10
106.800705
 20
-46.459511
 11
111.714737
 21
-46.459511
  0
LINE
  8
0
 62
     4
 10
106.800705
 20
-50.959511
 11
111.714737
 21
-50.959511
  0
LINE
  8
0
 62
     4
 10
111.714737
 20
-46.459503
 11
111.714737
 21
-50.959503
  0
LINE
  8
0
 62
     4
 10
90.705276
 20
-49.436161
 11
92.450272
 21
-47.691162
  0
LINE
  8
0
 62
     4
 10
90.988098
 20
-49.718975
 11
92.733093
 21
-47.973972
  0
CIRCLE
  8
0
 10
-35.000000
 20
70.000000
 40
2.250000
  0
CIRCLE
  8
0
 10
-20.000000
 20
93.500000
 40
2.250000
  0
CIRCLE
  8
0
 10
-5.000000
 20
70.000000
 40
2.250000
  0
CIRCLE
  8
0
 10
-20.000000
 20
46.500000
 40
2.250000
  0
CIRCLE
  8
0
 10
-35.000000
 20
70.000000
 40
4.000000
  0
CIRCLE
  8
0
 10
-5.000000
 20
70.000000
 40
4.000000
  0
ARC
  8
0
 10
-20.000000
 20
46.500000
 40
4.000000
 50
0.000000
 51
241.044937
  0
ARC
  8
0
 10
-20.000000
 20
93.500000
 40
4.000001
 50
118.955063
 51
61.044937
  0
ARC
  8
0
 10
-20.000000
 20
46.500000
 40
4.000000
 50
298.955048
 51
0.000000
  0
CIRCLE
  8
0
 62
     2
 10
-71.000000
 20
87.000000
 40
2.000000
  0
CIRCLE
  8
0
 62
     2
 10
-71.000000
 20
53.000000
 40
2.000000
  0
CIRCLE
  8
0
 10
-71.000000
 20
87.000000
 40
1.729500
  0
CIRCLE
  8
0
 10
-71.000000
 20
53.000000
 40
1.729500
  0
ARC
  8
0
 10
-50.610931
 20
73.031082
 40
1.789073
 50
145.615784
 51
214.384216
  0
ARC
  8
0
 10
-45.712616
 20
70.000000
 40
6.687389
 50
162.412079
 51
197.587921
  0
ARC
  8
0
 10
-50.610931
 20
66.968903
 40
1.789077
 50
145.615860
 51
214.384140
  0
ARC
  8
0
 10
-54.210922
 20
73.031082
 40
1.789073
 50
145.615784
 51
214.384216
  0
ARC
  8
0
 10
-49.312622
 20
70.000000
 40
6.687389
 50
162.412079
 51
197.587921
  0
ARC
  8
0
 10
-54.210922
 20
66.968903
 40
1.789077
 50
145.615860
 51
214.384140
  0
ARC
  8
0
 10
-51.789078
 20
73.031082
 40
1.789073
 50
325.615784
 51
34.384212
  0
ARC
  8
0
 10
-56.687393
 20
70.000000
 40
6.687391
 50
342.412018
 51
17.587914
  0
ARC
  8
0
 10
-51.789078
 20
66.968903
 40
1.789077
 50
325.615845
 51
34.384144
  0
CIRCLE
  8
0
 62
     2
 10
-129.500000
 20
93.500000
 40
2.000000
  0
CIRCLE
  8
0
 62
     2
 10
-129.500000
 20
46.500000
 40
2.000000
  0
CIRCLE
  8
0
 10
-129.500000
 20
93.500000
 40
1.729500
  0
CIRCLE
  8
0
 10
-129.500000
 20
46.500000
 40
1.729500
  0
CIRCLE
  8
0
 10
-129.500000
 20
82.000000
 40
3.500000
  0
CIRCLE
  8
0
 10
-129.500000
 20
58.000000
 40
3.500000
  0
CIRCLE
  8
0
 10
-129.500000
 20
82.000000
 40
2.980377
  0
CIRCLE
  8
0
 10
-129.500000
 20
58.000000
 40
2.980381
  0
CIRCLE
  8
0
 10
-129.500000
 20
58.000000
 40
3.900000
  0
CIRCLE
  8
0
 10
-129.500000
 20
82.000000
 40
3.900000
  0
CIRCLE
  8
0
 10
69.500000
 20
82.000000
 40
9.000000
  0
CIRCLE
  8
0
 10
69.500000
 20
58.000000
 40
9.000000
  0
ARC
  8
0
 10
69.500000
 20
94.383530
 40
2.099998
 50
180.000000
 51
0.000000
  0
ARC
  8
0
 10
77.399994
 20
72.799988
 40
2.099998
 50
90.000000
 51
270.000000
  0
ARC
  8
0
 10
61.599976
 20
91.300003
 40
2.099998
 50
270.000000
 51
90.000000
  0
ARC
  8
0
 10
77.399994
 20
91.300003
 40
2.099998
 50
90.000000
 51
270.000000
  0
ARC
  8
0
 10
61.599976
 20
72.800003
 40
2.099998
 50
270.000000
 51
89.999893
  0
CIRCLE
  8
0
 62
     2
 10
-28.000000
 20
10.635014
 40
2.500000
  0
CIRCLE
  8
0
 62
     2
 10
3.000000
 20
10.635014
 40
2.500000
  0
CIRCLE
  8
0
 10
-28.000000
 20
10.635014
 40
2.229500
  0
CIRCLE
  8
0
 10
3.000000
 20
10.635014
 40
2.229500
  0
ARC
  8
0
 10
-47.345398
 20
4.885014
 40
5.054613
 50
159.743805
 51
200.256119
  0
ARC
  8
0
 10
-50.945389
 20
4.885014
 40
5.054613
 50
159.743805
 51
200.256119
  0
ARC
  8
0
 10
-55.054626
 20
4.885014
 40
5.054616
 50
339.743835
 51
20.256126
  0
ARC
  8
0
 62
     4
 10
-107.639130
 20
-98.859520
 40
2.050003
 50
180.000000
 51
270.000000
  0
ARC
  8
0
 62
     4
 10
-107.639130
 20
-98.859520
 40
2.050003
 50
270.000000
 51
0.000000
  0
CIRCLE
  8
0
 62
     1
 10
-61.096390
 20
-53.765808
 40
1.000000
  0
CIRCLE
  8
0
 62
     4
 10
-61.096390
 20
-53.765808
 40
1.250000
  0
ARC
  8
0
 62
     4
 10
46.672012
 20
-98.859520
 40
2.049999
 50
180.000000
 51
270.000000
  0
ARC
  8
0
 62
     4
 10
46.672012
 20
-98.859520
 40
2.050003
 50
271.259888
 51
0.000000
  0
ARC
  8
0
 62
     4
 10
109.214737
 20
-48.709511
 40
3.300002
 50
137.014145
 51
222.985855
  0
CIRCLE
  8
0
 62
     4
 10
109.122086
 20
-48.709511
 40
1.300000
  0
CIRCLE
  8
0
 62
     4
 10
109.443893
 20
-49.050514
 40
0.450000
  0
CIRCLE
  8
0
 62
     4
 10
108.832016
 20
-48.391357
 40
0.450000
  0
CIRCLE
  8
0
 62
     4
 10
109.443893
 20
-49.050514
 40
0.250000
  0
CIRCLE
  8
0
 62
     4
 10
108.832016
 20
-48.391357
 40
0.250000
  0
CIRCLE
  8
0
 62
     1
 10
91.714737
 20
-48.715797
 40
1.000000
  0
CIRCLE
  8
0
 62
     4
 10
91.714737
 20
-48.715797
 40
1.250000
  0
TEXT
  8
0
 10
115.907150
 20
122.050003
 40
4.500000
  1
DATE : APR ,1994
 50
0.000000
 41
1.052631
 51
0.000000
  7
STANDARD
  0
TEXT
  8
0
 10
113.700279
 20
-130.669998
 40
6.300000
  1
KOGANEI CORP.
 50
0.000000
 41
1.052632
 51
0.000000
  7
STANDARD
  0
TEXT
  8
0
 10
-190.392654
 20
122.050003
 40
4.500000
  1
TWIN ROD CYLINDER
 50
0.000000
 41
1.052632
 51
0.000000
  7
STANDARD
  0
TEXT
  8
0
 10
-186.892654
 20
104.550003
 40
4.500000
  1
MODEL:TBDA16*ST(10)
 50
0.000000
 41
1.052632
 51
0.000000
  7
STANDARD
  0
TEXT
  8
0
 62
     3
 10
-28.648369
 20
113.514717
 40
3.200000
  1
STRETCH LINE A
 50
0.000000
 41
1.052632
 51
0.000000
  7
STANDARD
  0
TEXT
  8
0
 62
     3
 10
-12.784866
 20
105.142311
 40
3.200000
  1
STRETCH LINE B
 50
0.000000
 41
1.052632
 51
0.000000
  7
STANDARD
  0
TEXT
  8
0
 62
     3
 10
-96.068245
 20
106.023621
 40
3.200000
  1
STRETCH LINE C
 50
0.000000
 41
1.052632
 51
0.000000
  7
STANDARD
  0
TEXT
  8
0
 10
73.168526
 20
-13.436378
 40
3.200000
  1
0
 50
0.000000
 41
1.052632
 51
0.000000
  7
STANDARD
  0
TEXT
  8
0
 10
83.568527
 20
-13.436378
 40
3.200000
  1
10
 50
0.000000
 41
1.052632
 51
0.000000
  7
STANDARD
  0
TEXT
  8
0
 10
95.568527
 20
-13.436378
 40
3.200000
  1
20
 50
0.000000
 41
1.052632
 51
0.000000
  7
STANDARD
  0
TEXT
  8
0
 10
107.568527
 20
-13.436378
 40
3.200000
  1
30
 50
0.000000
 41
1.052632
 51
0.000000
  7
STANDARD
  0
TEXT
  8
0
 10
119.568527
 20
-13.436378
 40
3.200000
  1
40
 50
0.000000
 41
1.052632
 51
0.000000
  7
STANDARD
  0
TEXT
  8
0
 10
131.568527
 20
-13.436378
 40
3.200000
  1
50
 50
0.000000
 41
1.052632
 51
0.000000
  7
STANDARD
  0
TEXT
  8
0
 10
155.568527
 20
-13.436378
 40
3.200000
  1
70
 50
0.000000
 41
1.052632
 51
0.000000
  7
STANDARD
  0
TEXT
  8
0
 10
47.668526
 20
16.563622
 40
3.200000
  1
STROKE
 50
0.000000
 41
1.052632
 51
0.000000
  7
STANDARD
  0
TEXT
  8
0
 10
97.068527
 20
22.563623
 40
3.200000
  1
STRETCH LIST
 50
0.000000
 41
1.052632
 51
0.000000
  7
STANDARD
  0
TEXT
  8
0
 10
131.568527
 20
10.563622
 40
3.200000
  1
60
 50
0.000000
 41
1.052632
 51
0.000000
  7
STANDARD
  0
TEXT
  8
0
 10
177.968521
 20
10.563622
 40
3.200000
  1
100
 50
0.000000
 41
1.052632
 51
0.000000
  7
STANDARD
  0
TEXT
  8
0
 10
119.568527
 20
10.563622
 40
3.200000
  1
50
 50
0.000000
 41
1.052632
 51
0.000000
  7
STANDARD
  0
TEXT
  8
0
 10
107.568527
 20
10.563622
 40
3.200000
  1
40
 50
0.000000
 41
1.052632
 51
0.000000
  7
STANDARD
  0
TEXT
  8
0
 10
95.568527
 20
10.563622
 40
3.200000
  1
30
 50
0.000000
 41
1.052632
 51
0.000000
  7
STANDARD
  0
TEXT
  8
0
 10
83.568527
 20
10.563622
 40
3.200000
  1
20
 50
0.000000
 41
1.052632
 51
0.000000
  7
STANDARD
  0
TEXT
  8
0
 10
71.568527
 20
10.563622
 40
3.200000
  1
10
 50
0.000000
 41
1.052632
 51
0.000000
  7
STANDARD
  0
TEXT
  8
0
 10
131.568527
 20
-1.436378
 40
3.200000
  1
25
 50
0.000000
 41
1.052632
 51
0.000000
  7
STANDARD
  0
TEXT
  8
0
 10
155.568527
 20
-1.436378
 40
3.200000
  1
35
 50
0.000000
 41
1.052632
 51
0.000000
  7
STANDARD
  0
TEXT
  8
0
 10
119.568527
 20
-1.436378
 40
3.200000
  1
20
 50
0.000000
 41
1.052632
 51
0.000000
  7
STANDARD
  0
TEXT
  8
0
 10
107.568527
 20
-1.436378
 40
3.200000
  1
15
 50
0.000000
 41
1.052632
 51
0.000000
  7
STANDARD
  0
TEXT
  8
0
 10
95.568527
 20
-1.436378
 40
3.200000
  1
10
 50
0.000000
 41
1.052632
 51
0.000000
  7
STANDARD
  0
TEXT
  8
0
 10
85.168526
 20
-1.436378
 40
3.200000
  1
5
 50
0.000000
 41
1.052632
 51
0.000000
  7
STANDARD
  0
TEXT
  8
0
 10
73.168526
 20
-1.436378
 40
3.200000
  1
0
 50
0.000000
 41
1.052632
 51
0.000000
  7
STANDARD
  0
TEXT
  8
0
 10
176.368530
 20
22.563623
 40
3.200000
  1
(mm)
 50
0.000000
 41
1.052632
 51
0.000000
  7
STANDARD
  0
TEXT
  8
0
 10
44.465000
 20
9.943625
 40
3.200000
  1
STRETCH
 50
0.000000
 41
1.052632
 51
0.000000
  7
STANDARD
  0
TEXT
  8
0
 10
44.465000
 20
5.143625
 40
3.200000
  1
  PLACE
 50
0.000000
 41
1.052632
 51
0.000000
  7
STANDARD
  0
TEXT
  8
0
 10
54.668526
 20
-1.436378
 40
3.200000
  1
A
 50
0.000000
 41
1.052632
 51
0.000000
  7
STANDARD
  0
TEXT
  8
0
 10
54.668526
 20
-7.436379
 40
3.200000
  1
B
 50
0.000000
 41
1.052632
 51
0.000000
  7
STANDARD
  0
TEXT
  8
0
 10
54.668526
 20
-13.436379
 40
3.200000
  1
C
 50
0.000000
 41
1.052632
 51
0.000000
  7
STANDARD
  0
TEXT
  8
0
 10
155.568527
 20
-7.436378
 40
3.200000
  1
35
 50
0.000000
 41
1.052632
 51
0.000000
  7
STANDARD
  0
TEXT
  8
0
 10
131.568527
 20
-7.436378
 40
3.200000
  1
25
 50
0.000000
 41
1.052632
 51
0.000000
  7
STANDARD
  0
TEXT
  8
0
 10
119.568527
 20
-7.436378
 40
3.200000
  1
20
 50
0.000000
 41
1.052632
 51
0.000000
  7
STANDARD
  0
TEXT
  8
0
 10
107.568527
 20
-7.436378
 40
3.200000
  1
15
 50
0.000000
 41
1.052632
 51
0.000000
  7
STANDARD
  0
TEXT
  8
0
 10
95.568527
 20
-7.436378
 40
3.200000
  1
10
 50
0.000000
 41
1.052632
 51
0.000000
  7
STANDARD
  0
TEXT
  8
0
 10
85.168526
 20
-7.436378
 40
3.200000
  1
5
 50
0.000000
 41
1.052632
 51
0.000000
  7
STANDARD
  0
TEXT
  8
0
 10
73.168526
 20
-7.436378
 40
3.200000
  1
0
 50
0.000000
 41
1.052632
 51
0.000000
  7
STANDARD
  0
TEXT
  8
0
 10
143.568527
 20
10.563622
 40
3.200000
  1
70
 50
0.000000
 41
1.052632
 51
0.000000
  7
STANDARD
  0
TEXT
  8
0
 10
155.568527
 20
10.563622
 40
3.200000
  1
80
 50
0.000000
 41
1.052632
 51
0.000000
  7
STANDARD
  0
TEXT
  8
0
 10
167.568527
 20
10.563622
 40
3.200000
  1
90
 50
0.000000
 41
1.052632
 51
0.000000
  7
STANDARD
  0
TEXT
  8
0
 10
143.568527
 20
-1.436378
 40
3.200000
  1
30
 50
0.000000
 41
1.052632
 51
0.000000
  7
STANDARD
  0
TEXT
  8
0
 10
143.568527
 20
-7.436378
 40
3.200000
  1
30
 50
0.000000
 41
1.052632
 51
0.000000
  7
STANDARD
  0
TEXT
  8
0
 10
143.568527
 20
-13.436378
 40
3.200000
  1
60
 50
0.000000
 41
1.052632
 51
0.000000
  7
STANDARD
  0
TEXT
  8
0
 10
179.568527
 20
-1.436378
 40
3.200000
  1
45
 50
0.000000
 41
1.052632
 51
0.000000
  7
STANDARD
  0
TEXT
  8
0
 10
179.568527
 20
-7.436378
 40
3.200000
  1
45
 50
0.000000
 41
1.052632
 51
0.000000
  7
STANDARD
  0
TEXT
  8
0
 10
179.568527
 20
-13.436378
 40
3.200000
  1
90
 50
0.000000
 41
1.052632
 51
0.000000
  7
STANDARD
  0
TEXT
  8
0
 10
167.568527
 20
-1.436378
 40
3.200000
  1
40
 50
0.000000
 41
1.052632
 51
0.000000
  7
STANDARD
  0
TEXT
  8
0
 10
167.568527
 20
-7.436378
 40
3.200000
  1
40
 50
0.000000
 41
1.052632
 51
0.000000
  7
STANDARD
  0
TEXT
  8
0
 10
167.568527
 20
-13.436378
 40
3.200000
  1
80
 50
0.000000
 41
1.052632
 51
0.000000
  7
STANDARD
  0
TEXT
  8
0
 10
-125.892876
 20
-63.980263
 40
4.500000
  1
ZE102
 50
0.000000
 41
1.052632
 51
0.000000
  7
STANDARD
  0
TEXT
  8
0
 10
-161.892883
 20
-38.630268
 40
4.500000
  1
SENSOR
 50
0.000000
 41
1.052632
 51
0.000000
  7
STANDARD
  0
TEXT
  8
0
 10
-161.892883
 20
-45.380268
 40
4.500000
  1
 SWITCH:ZE135
 50
0.000000
 41
1.052632
 51
0.000000
  7
STANDARD
  0
TEXT
  8
0
 10
-125.892876
 20
-51.980267
 40
4.500000
  1
ZE155
 50
0.000000
 41
1.052632
 51
0.000000
  7
STANDARD
  0
TEXT
  8
0
 10
-125.892876
 20
-57.980263
 40
4.500000
  1
ZE101
 50
0.000000
 41
1.052632
 51
0.000000
  7
STANDARD
  0
TEXT
  8
0
 10
-4.892878
 20
-38.630268
 40
4.500000
  1
SENSOR
 50
0.000000
 41
1.052632
 51
0.000000
  7
STANDARD
  0
TEXT
  8
0
 10
-4.892879
 20
-45.380268
 40
4.500000
  1
 SWITCH:ZE235
 50
0.000000
 41
1.052632
 51
0.000000
  7
STANDARD
  0
TEXT
  8
0
 10
31.107121
 20
-51.980267
 40
4.500000
  1
ZE255
 50
0.000000
 41
1.052632
 51
0.000000
  7
STANDARD
  0
TEXT
  8
0
 10
31.107121
 20
-57.980263
 40
4.500000
  1
ZE201
 50
0.000000
 41
1.052632
 51
0.000000
  7
STANDARD
  0
TEXT
  8
0
 10
31.107121
 20
-63.980263
 40
4.500000
  1
ZE202
 50
0.000000
 41
1.052632
 51
0.000000
  7
STANDARD
  0
ENDSEC
  0
EOF
