  0
SECTION
  2
HEADER
  0
ENDSEC
  0
SECTION
  2
TABLES
  0
TABLE
  2
LTYPE
 70
     4
  0
LTYPE
  2
CONTINUOUS
 70
    64
  3
Solid line
 72
    65
 73
     0
 40
0.000000
  0
LTYPE
  2
DASHED
 70
    64
  3
__ __ __ __ __ __ __ __ __ __ __ __ __ __ __
 72
    65
 73
     2
 40
3.500000
 49
2.000000
 49
-1.500000
  0
LTYPE
  2
CENTER
 70
    64
  3
____ _ ____ _ ____ _ ____ _ ____ _ ____ _ ____
 72
    65
 73
     4
 40
17.500000
 49
13.000000
 49
-1.500000
 49
1.500000
 49
-1.500000
  0
LTYPE
  2
PHANTOM
 70
    64
  3
_____ _ _ _____ _ _ _____ _ _ _____ _ _ ____  
 72
    65
 73
     6
 40
15.500000
 49
8.000000
 49
-1.500000
 49
1.500000
 49
-1.500000
 49
1.500000
 49
-1.500000
  0
LTYPE
  2
DASHED1
 70
    64
  3
__ __ __ __ __ __ __ __ __ __ __ __ __ __ __
 72
    65
 73
     2
 40
1.500000
 49
1.000000
 49
-0.500000
  0
LTYPE
  2
DASHED2
 70
    64
  3
__ __ __ __ __ __ __ __ __ __ __ __ __ __ __
 72
    65
 73
     2
 40
3.500000
 49
2.500000
 49
-1.000000
  0
LTYPE
  2
DASHED3
 70
    64
  3
__ __ __ __ __ __ __ __ __ __ __ __ __ __ __
 72
    65
 73
     2
 40
6.000000
 49
4.000000
 49
-2.000000
  0
LTYPE
  2
DASHED4
 70
    64
  3
__ __ __ __ __ __ __ __ __ __ __ __ __ __ __
 72
    65
 73
     2
 40
12.000000
 49
10.000000
 49
-2.000000
  0
LTYPE
  2
DASHED5
 70
    64
  3
__ __ __ __ __ __ __ __ __ __ __ __ __ __ __
 72
    65
 73
     2
 40
17.000000
 49
15.000000
 49
-2.000000
  0
LTYPE
  2
DASHED6
 70
    64
  3
__ __ __ __ __ __ __ __ __ __ __ __ __ __ __
 72
    65
 73
     2
 40
29.000000
 49
27.000000
 49
-2.000000
  0
LTYPE
  2
PHANTOM1
 70
    64
  3
_____ _ _ _____ _ _ _____ _ _ _____ _ _ ____  
 72
    65
 73
     6
 40
31.000000
 49
25.000000
 49
-1.500000
 49
1.000000
 49
-1.000000
 49
1.000000
 49
-1.500000
  0
LTYPE
  2
PHANTOM2
 70
    64
  3
_____ _ _ _____ _ _ _____ _ _ _____ _ _ ____  
 72
    65
 73
     6
 40
36.000000
 49
27.000000
 49
-1.500000
 49
2.500000
 49
-1.000000
 49
2.500000
 49
-1.500000
  0
LTYPE
  2
PHANTOM3
 70
    64
  3
_____ _ _ _____ _ _ _____ _ _ _____ _ _ ____  
 72
    65
 73
     6
 40
78.000000
 49
64.000000
 49
-2.000000
 49
4.000000
 49
-2.000000
 49
4.000000
 49
-2.000000
  0
LTYPE
  2
CENTER1
 70
    64
  3
____ _ ____ _ ____ _ ____ _ ____ _ ____ _ ____
 72
    65
 73
     4
 40
19.000000
 49
14.000000
 49
-1.000000
 49
3.000000
 49
-1.000000
  0
LTYPE
  2
CENTER2
 70
    64
  3
____ _ ____ _ ____ _ ____ _ ____ _ ____ _ ____
 72
    65
 73
     4
 40
28.500000
 49
25.000000
 49
-1.000000
 49
1.500000
 49
-1.000000
  0
LTYPE
  2
CENTER3
 70
    64
  3
____ _ ____ _ ____ _ ____ _ ____ _ ____ _ ____
 72
    65
 73
     4
 40
31.500000
 49
27.000000
 49
-1.000000
 49
2.500000
 49
-1.000000
  0
LTYPE
  2
CENTER4
 70
    64
  3
____ _ ____ _ ____ _ ____ _ ____ _ ____ _ ____
 72
    65
 73
     4
 40
50.000000
 49
45.000000
 49
-1.000000
 49
3.000000
 49
-1.000000
  0
LTYPE
  2
CENTER5
 70
    64
  3
____ _ ____ _ ____ _ ____ _ ____ _ ____ _ ____
 72
    65
 73
     4
 40
100.000000
 49
92.000000
 49
-2.000000
 49
4.000000
 49
-2.000000
  0
LTYPE
  2
SBK1
 70
    64
  3
______ _ _ _ ______ _ _ _ ______ _ _ _ _____  
 72
    65
 73
     8
 40
60.500000
 49
45.000000
 49
-2.000000
 49
2.500000
 49
-2.000000
 49
2.500000
 49
-2.000000
 49
2.500000
 49
-2.000000
  0
LTYPE
  2
SBK2
 70
    64
  3
______ _ _ _ ______ _ _ _ ______ _ _ _ _____  
 72
    65
 73
     8
 40
84.000000
 49
64.000000
 49
-2.000000
 49
4.000000
 49
-2.000000
 49
4.000000
 49
-2.000000
 49
4.000000
 49
-2.000000
  0
LTYPE
  2
STCH
 70
    64
  3
__ __ __ __ __ __ __ __ __ __ __ __ __ __ __
 72
    65
 73
     2
 40
3.000000
 49
1.000000
 49
-2.000000
  0
LTYPE
  2
MTCH
 70
    64
  3
_____ _ _ _____ _ _ _____ _ _ _____ _ _ ____  
 72
    65
 73
     6
 40
80.000000
 49
66.000000
 49
-2.000000
 49
4.000000
 49
-2.000000
 49
4.000000
 49
-2.000000
  0
ENDTAB
  0
TABLE
  2
LAYER
 70
     1
  0
LAYER
  2
0
 70
     0
 62
     7
  6
CONTINUOUS
  0
ENDTAB
  0
TABLE
  2
STYLE
 70
     1
  0
STYLE
  2
STANDARD
 70
     0
 40
0.000000
 41
1.000000
 50
0.000000
 71
     0
 42
0.200000
  3
txt
  4
BIGFONT
  0
ENDTAB
  0
TABLE
  2
VIEW
 70
     0
  0
ENDTAB
  0
ENDSEC
  0
SECTION
  2
BLOCKS
  0
ENDSEC
  0
SECTION
  2
ENTITIES
  0
LINE
  8
0
 10
-194.250000
 20
132.600006
 11
194.800003
 21
132.600006
  0
LINE
  8
0
 10
194.800003
 20
132.600006
 11
194.800003
 21
-133.500000
  0
LINE
  8
0
 10
-194.250000
 20
132.600006
 11
-194.250000
 21
-133.500000
  0
LINE
  8
0
 10
-194.250000
 20
-133.500000
 11
194.800003
 21
-133.500000
  0
LINE
  8
0
 10
109.800003
 20
-118.500000
 11
109.800003
 21
-133.500000
  0
LINE
  8
0
 10
109.800003
 20
-118.500000
 11
194.800003
 21
-118.500000
  0
LINE
  8
0
 10
109.800003
 20
132.600006
 11
109.800003
 21
117.600006
  0
LINE
  8
0
 10
109.800003
 20
117.600006
 11
194.800003
 21
117.600006
  0
LINE
  8
0
 10
-194.250000
 20
117.600006
 11
-109.250000
 21
117.600006
  0
LINE
  8
0
 10
-109.250000
 20
132.600006
 11
-109.250000
 21
117.600006
  0
LINE
  8
0
  6
DASHED
 62
     4
 10
-73.096405
 20
-61.709522
 11
-51.096405
 21
-61.709522
  0
LINE
  8
0
  6
DASHED
 62
     4
 10
-73.096405
 20
-65.809525
 11
-51.096405
 21
-65.809525
  0
LINE
  8
0
  6
DASHED
 62
     4
 10
-73.096405
 20
-61.709522
 11
-73.096405
 21
-62.159523
  0
LINE
  8
0
  6
DASHED
 62
     4
 10
-51.096405
 20
-61.709522
 11
-51.096405
 21
-62.159523
  0
LINE
  8
0
  6
DASHED
 62
     4
 10
-73.096405
 20
-65.359520
 11
-73.096405
 21
-65.809525
  0
LINE
  8
0
  6
DASHED
 62
     4
 10
-51.096405
 20
-65.359520
 11
-51.096405
 21
-65.809525
  0
LINE
  8
0
  6
DASHED
 62
     4
 10
79.714737
 20
-60.759510
 11
96.628716
 21
-60.759510
  0
LINE
  8
0
  6
DASHED
 62
     4
 10
79.714737
 20
-56.659512
 11
96.628716
 21
-56.659512
  0
LINE
  8
0
  6
DASHED
 62
     4
 10
79.714737
 20
-57.109512
 11
79.714737
 21
-56.659512
  0
LINE
  8
0
  6
DASHED
 62
     4
 10
79.714737
 20
-60.309509
 11
79.714737
 21
-60.759510
  0
LINE
  8
0
  6
DASHED
 62
     4
 10
-73.096405
 20
-106.309525
 11
-51.096405
 21
-106.309525
  0
LINE
  8
0
  6
DASHED
 62
     4
 10
-68.396393
 20
-110.909523
 11
-51.096405
 21
-110.909523
  0
LINE
  8
0
  6
DASHED
 62
     4
 10
-51.096405
 20
-106.309525
 11
-51.096405
 21
-110.909523
  0
LINE
  8
0
  6
DASHED
 62
     4
 10
-73.096405
 20
-108.109520
 11
-73.096405
 21
-106.309525
  0
LINE
  8
0
  6
DASHED
 62
     4
 10
-68.396393
 20
-109.351486
 11
-68.396393
 21
-110.909523
  0
LINE
  8
0
  6
DASHED
 62
     4
 10
-73.096405
 20
-108.109520
 11
-68.846390
 21
-108.109520
  0
LINE
  8
0
  6
DASHED
 62
     4
 10
-68.846390
 20
-108.109520
 11
-68.846390
 21
-109.351486
  0
LINE
  8
0
  6
DASHED
 62
     4
 10
-69.096390
 20
-108.109520
 11
-69.096390
 21
-108.909523
  0
LINE
  8
0
  6
DASHED
 62
     4
 10
-73.096405
 20
-108.109520
 11
-73.096405
 21
-108.909523
  0
LINE
  8
0
  6
DASHED
 62
     4
 10
-73.096405
 20
-108.909523
 11
-69.096390
 21
-108.909523
  0
LINE
  8
0
  6
DASHED
 62
     4
 10
-68.896393
 20
-108.109520
 11
-68.896393
 21
-110.109520
  0
LINE
  8
0
  6
DASHED
 62
     4
 10
-68.896393
 20
-110.109520
 11
-68.396393
 21
-110.109520
  0
LINE
  8
0
  6
DASHED
 62
     4
 10
-68.846390
 20
-109.351486
 11
-68.396393
 21
-109.351486
  0
LINE
  8
0
  6
DASHED
 62
     4
 10
-42.596375
 20
-107.309509
 11
-42.596375
 21
-109.909515
  0
LINE
  8
0
  6
CENTER
 62
     1
 10
-44.319275
 20
-108.159439
 11
-32.387207
 21
-108.159439
  0
LINE
  8
0
  6
CENTER
 62
     1
 10
-44.268982
 20
-109.059433
 11
-32.345337
 21
-109.059433
  0
LINE
  8
0
  6
DASHED
 62
     4
 10
-32.596375
 20
-107.909454
 11
-32.596375
 21
-108.409454
  0
LINE
  8
0
  6
DASHED
 62
     4
 10
-32.596375
 20
-108.809448
 11
-32.596375
 21
-109.309448
  0
LINE
  8
0
  6
DASHED
 62
     4
 10
-35.596375
 20
-107.709442
 11
-35.596375
 21
-109.509460
  0
LINE
  8
0
  6
DASHED
 62
     4
 10
-42.596375
 20
-109.509445
 11
-38.590820
 21
-109.509445
  0
LINE
  8
0
  6
DASHED
 62
     4
 10
-42.596375
 20
-108.609421
 11
-39.110413
 21
-108.609421
  0
LINE
  8
0
  6
DASHED
 62
     4
 10
-37.610413
 20
-108.609421
 11
-35.596375
 21
-108.609421
  0
LINE
  8
0
  6
DASHED
 62
     4
 10
-37.090820
 20
-109.509445
 11
-35.596375
 21
-109.509445
  0
LINE
  8
0
  6
DASHED
 62
     4
 10
-42.596375
 20
-107.709427
 11
-39.630066
 21
-107.709427
  0
LINE
  8
0
  6
DASHED
 62
     4
 10
-38.130066
 20
-107.709427
 11
-35.596375
 21
-107.709427
  0
LINE
  8
0
  6
DASHED
 62
     4
 10
-35.596375
 20
-107.909439
 11
-32.596375
 21
-107.909439
  0
LINE
  8
0
  6
DASHED
 62
     4
 10
-35.596375
 20
-108.409439
 11
-32.596375
 21
-108.409439
  0
LINE
  8
0
  6
DASHED
 62
     4
 10
-35.596375
 20
-108.809433
 11
-32.596375
 21
-108.809433
  0
LINE
  8
0
  6
DASHED
 62
     4
 10
-35.596375
 20
-109.309433
 11
-32.596375
 21
-109.309433
  0
LINE
  8
0
 62
     1
 10
-38.860394
 20
-106.444519
 11
-36.360394
 21
-110.774651
  0
LINE
  8
0
  6
CENTER
 62
     1
 10
-52.410767
 20
-108.609512
 11
-42.596375
 21
-108.609512
  0
LINE
  8
0
 62
     1
 10
-40.360466
 20
-106.444496
 11
-37.860466
 21
-110.774620
  0
LINE
  8
0
 62
     1
 10
-47.841137
 20
-106.444466
 11
-45.341137
 21
-110.774597
  0
LINE
  8
0
 62
     1
 10
-49.341114
 20
-106.444534
 11
-46.841118
 21
-110.774651
  0
LINE
  8
0
  6
DASHED
 62
     4
 10
-72.121399
 20
-110.309525
 11
-70.071396
 21
-110.309525
  0
LINE
  8
0
  6
DASHED
 62
     4
 10
-70.070976
 20
-110.309982
 11
-69.845985
 21
-110.084984
  0
LINE
  8
0
  6
DASHED
 62
     4
 10
-72.121353
 20
-110.309540
 11
-72.346344
 21
-110.084549
  0
LINE
  8
0
  6
DASHED
 62
     4
 10
-72.346390
 20
-108.908707
 11
-72.346390
 21
-110.084526
  0
LINE
  8
0
 62
     1
 10
-72.121399
 20
-108.908707
 11
-72.121399
 21
-110.309525
  0
LINE
  8
0
 62
     1
 10
-70.071396
 20
-108.908707
 11
-70.071396
 21
-110.309525
  0
LINE
  8
0
  6
DASHED
 62
     4
 10
-69.846390
 20
-108.908707
 11
-69.846390
 21
-110.084518
  0
LINE
  8
0
  6
DASHED
 62
     4
 10
-72.346390
 20
-110.084526
 11
-69.846390
 21
-110.084526
  0
LINE
  8
0
  6
DASHED
 62
     4
 10
-73.096405
 20
-107.309525
 11
-51.096405
 21
-107.309525
  0
LINE
  8
0
  6
DASHED
 62
     4
 10
-73.096405
 20
-106.759506
 11
-51.096405
 21
-106.759506
  0
LINE
  8
0
  6
DASHED
 62
     4
 10
-51.096405
 20
-107.309509
 11
-48.841705
 21
-107.309509
  0
LINE
  8
0
  6
DASHED
 62
     4
 10
-51.096405
 20
-109.909515
 11
-47.340607
 21
-109.909515
  0
LINE
  8
0
  6
DASHED
 62
     4
 10
-47.341675
 20
-107.309509
 11
-42.596375
 21
-107.309509
  0
LINE
  8
0
  6
DASHED
 62
     4
 10
-45.840576
 20
-109.909515
 11
-42.596375
 21
-109.909515
  0
LINE
  8
0
  6
DASHED
 62
     4
 10
79.714737
 20
-106.309525
 11
95.814743
 21
-106.309525
  0
LINE
  8
0
  6
DASHED
 62
     4
 10
84.414719
 20
-110.909523
 11
101.714737
 21
-110.909523
  0
LINE
  8
0
  6
DASHED
 62
     4
 10
79.714737
 20
-108.909523
 11
79.714737
 21
-106.309525
  0
LINE
  8
0
  6
DASHED
 62
     4
 10
84.414719
 20
-109.291679
 11
84.414719
 21
-110.909523
  0
LINE
  8
0
  6
DASHED
 62
     4
 10
79.714737
 20
-108.109528
 11
83.988541
 21
-108.109528
  0
LINE
  8
0
  6
DASHED
 62
     4
 10
79.714737
 20
-108.909523
 11
83.714737
 21
-108.909523
  0
LINE
  8
0
  6
DASHED
 62
     4
 10
83.714737
 20
-108.109520
 11
83.714737
 21
-108.909523
  0
LINE
  8
0
  6
DASHED
 62
     4
 10
83.914719
 20
-110.109528
 11
84.414719
 21
-110.109528
  0
LINE
  8
0
  6
DASHED
 62
     4
 10
83.914719
 20
-108.109528
 11
83.914719
 21
-110.109528
  0
LINE
  8
0
  6
DASHED
 62
     4
 10
83.988541
 20
-109.291679
 11
84.414719
 21
-109.291679
  0
LINE
  8
0
  6
DASHED
 62
     4
 10
83.988541
 20
-108.109528
 11
83.988541
 21
-109.291679
  0
LINE
  8
0
  6
DASHED
 62
     4
 10
79.714737
 20
-107.309525
 11
101.714737
 21
-107.309525
  0
LINE
  8
0
  6
DASHED
 62
     4
 10
79.714737
 20
-106.759521
 11
101.714737
 21
-106.759521
  0
LINE
  8
0
  6
DASHED
 62
     4
 10
80.689713
 20
-110.309525
 11
82.739731
 21
-110.309525
  0
LINE
  8
0
  6
DASHED
 62
     4
 10
82.740303
 20
-110.310066
 11
82.965294
 21
-110.085068
  0
LINE
  8
0
  6
DASHED
 62
     4
 10
80.689812
 20
-110.309402
 11
80.464828
 21
-110.084419
  0
LINE
  8
0
  6
DASHED
 62
     4
 10
80.464737
 20
-108.909523
 11
80.464737
 21
-110.084526
  0
LINE
  8
0
 62
     1
 10
80.689713
 20
-108.909523
 11
80.689713
 21
-110.309525
  0
LINE
  8
0
 62
     1
 10
82.739731
 20
-108.909523
 11
82.739731
 21
-110.309525
  0
LINE
  8
0
  6
DASHED
 62
     4
 10
82.964737
 20
-108.909523
 11
82.964737
 21
-110.084518
  0
LINE
  8
0
  6
DASHED
 62
     4
 10
80.464737
 20
-110.084526
 11
82.964737
 21
-110.084526
  0
LINE
  8
0
 62
     1
 10
80.689713
 20
-105.809525
 11
80.689713
 21
-106.309525
  0
LINE
  8
0
 62
     1
 10
82.739731
 20
-105.809525
 11
82.739731
 21
-106.309525
  0
LINE
  8
0
  6
DASHED
 62
     4
 10
101.714737
 20
-106.309525
 11
101.714737
 21
-110.909523
  0
LINE
  8
0
 10
68.975525
 20
11.443623
 11
68.975525
 21
-24.556381
  0
LINE
  8
0
 10
80.975525
 20
11.443623
 11
80.975525
 21
-24.556381
  0
LINE
  8
0
 10
92.975525
 20
11.443623
 11
92.975525
 21
-24.556381
  0
LINE
  8
0
 10
104.975525
 20
11.443623
 11
104.975525
 21
-24.556381
  0
LINE
  8
0
 10
116.975525
 20
11.443623
 11
116.975525
 21
-24.556381
  0
LINE
  8
0
 10
128.975525
 20
11.443623
 11
128.975525
 21
-24.556381
  0
LINE
  8
0
 10
140.975525
 20
11.443623
 11
140.975525
 21
-24.556381
  0
LINE
  8
0
 10
188.975525
 20
11.443623
 11
188.975525
 21
-24.556381
  0
LINE
  8
0
 10
43.975525
 20
11.443623
 11
188.975525
 21
11.443623
  0
LINE
  8
0
 10
43.975525
 20
-6.556377
 11
188.975525
 21
-6.556377
  0
LINE
  8
0
 10
43.975525
 20
-12.556377
 11
188.975525
 21
-12.556377
  0
LINE
  8
0
 10
43.975525
 20
-24.556381
 11
188.975525
 21
-24.556381
  0
LINE
  8
0
 10
68.975548
 20
-6.556374
 11
66.859627
 21
5.443626
  0
LINE
  8
0
 10
43.975525
 20
5.443623
 11
66.859604
 21
5.443623
  0
LINE
  8
0
 10
43.975525
 20
11.443623
 11
43.975525
 21
-24.556381
  0
LINE
  8
0
 10
43.975525
 20
-18.556381
 11
188.975525
 21
-18.556381
  0
LINE
  8
0
 10
152.975525
 20
11.443623
 11
152.975525
 21
-24.556381
  0
LINE
  8
0
 10
164.975525
 20
11.443623
 11
164.975525
 21
-24.556381
  0
LINE
  8
0
 10
176.975525
 20
11.443623
 11
176.975525
 21
-24.556381
  0
LINE
  8
0
 10
-2.000038
 20
90.285736
 11
-2.000038
 21
29.714291
  0
LINE
  8
0
  6
CENTER
 62
     2
 10
-55.000023
 20
65.800018
 11
-55.000023
 21
53.800026
  0
LINE
  8
0
  6
CENTER
 62
     2
 10
-25.000023
 20
66.200020
 11
-25.000023
 21
54.010841
  0
LINE
  8
0
  6
CENTER
 62
     2
 10
-35.000000
 20
93.000015
 11
-35.000000
 21
81.101425
  0
LINE
  8
0
  6
CENTER
 62
     2
 10
-40.800018
 20
32.500000
 11
-29.194679
 21
32.500000
  0
LINE
  8
0
  6
CENTER
 62
     2
 10
-41.493614
 20
87.500000
 11
-28.800003
 21
87.500000
  0
LINE
  8
0
  6
CENTER
 62
     2
 10
-35.000000
 20
38.473404
 11
-35.000000
 21
26.280235
  0
LINE
  8
0
 10
-69.499947
 20
91.000023
 11
-2.714317
 21
91.000023
  0
LINE
  8
0
 10
-69.500015
 20
29.000004
 11
-2.714319
 21
29.000000
  0
LINE
  8
0
 10
-36.476196
 20
91.000023
 11
-29.476227
 21
91.000023
  0
LINE
  8
0
 10
-2.714417
 20
90.999931
 11
-2.000130
 21
90.285652
  0
LINE
  8
0
 10
-2.000035
 20
29.714334
 11
-2.714327
 21
29.000042
  0
LINE
  8
0
  6
CENTER
 62
     2
 10
-104.081711
 20
60.000000
 11
1.632545
 21
60.000000
  0
LINE
  8
0
 10
-70.000023
 20
85.799995
 11
-38.620773
 21
85.799995
  0
LINE
  8
0
 10
-70.000023
 20
82.600014
 11
-2.000038
 21
82.600014
  0
LINE
  8
0
 10
-70.000023
 20
62.600014
 11
-58.039749
 21
62.600014
  0
LINE
  8
0
 10
-70.000023
 20
65.799995
 11
-2.000038
 21
65.799995
  0
LINE
  8
0
 10
-31.379230
 20
85.799995
 11
-2.000038
 21
85.799995
  0
LINE
  8
0
 10
-51.960297
 20
62.600014
 11
-28.039749
 21
62.600014
  0
LINE
  8
0
 10
-21.960297
 20
62.600014
 11
-2.000038
 21
62.600014
  0
LINE
  8
0
 10
-70.000000
 20
90.499992
 11
-70.000000
 21
29.499992
  0
LINE
  8
0
 10
-79.000000
 20
64.118805
 11
-79.000000
 21
55.881195
  0
LINE
  8
0
 10
-88.999992
 20
64.000008
 11
-88.999992
 21
56.000000
  0
LINE
  8
0
 10
-89.999992
 20
90.499992
 11
-89.999992
 21
29.499992
  0
LINE
  8
0
 10
-99.999985
 20
90.499992
 11
-99.999985
 21
29.499992
  0
LINE
  8
0
  6
CENTER
 62
     2
 10
-98.235001
 20
37.999985
 11
-92.201569
 21
37.999985
  0
LINE
  8
0
  6
CENTER
 62
     2
 10
-98.583084
 20
81.999969
 11
-91.853500
 21
81.999969
  0
LINE
  8
0
 10
-89.999985
 20
69.000008
 11
-70.000000
 21
69.000008
  0
LINE
  8
0
 10
-89.999985
 20
79.000008
 11
-70.000000
 21
79.000008
  0
LINE
  8
0
 10
-89.999985
 20
41.000000
 11
-70.000000
 21
41.000000
  0
LINE
  8
0
 10
-89.999985
 20
51.000000
 11
-70.000000
 21
51.000000
  0
LINE
  8
0
 10
-89.999985
 20
64.000008
 11
-88.999992
 21
64.000008
  0
LINE
  8
0
 10
-89.999985
 20
56.000000
 11
-88.999992
 21
56.000000
  0
LINE
  8
0
  6
CENTER
 62
     2
 10
-104.081711
 20
74.000000
 11
-65.000000
 21
74.000000
  0
LINE
  8
0
  6
CENTER
 62
     2
 10
-94.999985
 20
85.570312
 11
-94.999985
 21
78.260590
  0
LINE
  8
0
  6
CENTER
 62
     2
 10
-94.999985
 20
41.363808
 11
-94.999985
 21
34.402138
  0
LINE
  8
0
 10
-89.999985
 20
76.861816
 11
-88.000000
 21
76.861816
  0
LINE
  8
0
 10
-89.999985
 20
71.138153
 11
-88.000000
 21
71.138153
  0
LINE
  8
0
 10
-89.999985
 20
48.861801
 11
-88.000000
 21
48.861801
  0
LINE
  8
0
 10
-89.999985
 20
43.138168
 11
-88.000000
 21
43.138168
  0
LINE
  8
0
 10
-88.000000
 20
76.861816
 11
-88.000000
 21
71.138176
  0
LINE
  8
0
 10
-88.000000
 20
48.861809
 11
-88.000000
 21
43.138168
  0
LINE
  8
0
 10
-87.999954
 20
48.861835
 11
-89.999947
 21
45.046089
  0
LINE
  8
0
 10
-88.000084
 20
43.138149
 11
-90.000092
 21
46.953918
  0
LINE
  8
0
 10
-89.999939
 20
74.953957
 11
-87.999947
 21
71.138214
  0
LINE
  8
0
 10
-88.000015
 20
76.861824
 11
-90.000015
 21
73.046074
  0
LINE
  8
0
 10
-78.711334
 20
64.618813
 11
-75.500008
 21
64.618813
  0
LINE
  8
0
 10
-78.711334
 20
62.309395
 11
-75.500008
 21
62.309395
  0
LINE
  8
0
 10
-78.711334
 20
57.690582
 11
-75.500008
 21
57.690582
  0
LINE
  8
0
 10
-78.711334
 20
55.381187
 11
-75.500008
 21
55.381187
  0
LINE
  8
0
 10
-75.500008
 20
64.618813
 11
-75.500008
 21
55.381187
  0
LINE
  8
0
 10
-72.480011
 20
64.118805
 11
-72.480011
 21
55.881195
  0
LINE
  8
0
 10
-78.999992
 20
64.118782
 11
-78.711296
 21
64.618820
  0
LINE
  8
0
 10
-79.000038
 20
55.881130
 11
-78.711365
 21
55.381134
  0
LINE
  8
0
 10
-72.191338
 20
64.618813
 11
-70.288696
 21
64.618813
  0
LINE
  8
0
 10
-72.191338
 20
55.381187
 11
-70.288673
 21
55.381187
  0
LINE
  8
0
 10
-70.000046
 20
64.118767
 11
-70.288719
 21
64.618774
  0
LINE
  8
0
 10
-70.000000
 20
55.881180
 11
-70.288673
 21
55.381184
  0
LINE
  8
0
 10
-72.479996
 20
64.118820
 11
-72.191322
 21
64.618813
  0
LINE
  8
0
 10
-72.480118
 20
55.881142
 11
-72.191437
 21
55.381126
  0
LINE
  8
0
 10
-72.191338
 20
57.690582
 11
-70.288673
 21
57.690582
  0
LINE
  8
0
 10
-72.191338
 20
62.309395
 11
-70.288673
 21
62.309395
  0
LINE
  8
0
 10
-75.500008
 20
62.499977
 11
-72.480011
 21
62.499977
  0
LINE
  8
0
 10
-75.500008
 20
57.499977
 11
-72.480011
 21
57.499977
  0
LINE
  8
0
 62
     2
 10
-75.500008
 20
57.904991
 11
-72.480011
 21
57.904991
  0
LINE
  8
0
 62
     2
 10
-75.500008
 20
62.095009
 11
-72.480011
 21
62.095009
  0
LINE
  8
0
 10
-99.999985
 20
29.499992
 11
-89.999985
 21
29.499992
  0
LINE
  8
0
 10
-99.999985
 20
90.499992
 11
-89.999985
 21
90.499992
  0
LINE
  8
0
 10
-69.499992
 20
90.999985
 11
-69.999985
 21
90.499992
  0
LINE
  8
0
 10
-70.000015
 20
29.499994
 11
-69.500008
 21
28.999989
  0
LINE
  8
0
  6
CENTER
 62
     2
 10
-104.081711
 20
46.000000
 11
-65.000000
 21
46.000000
  0
LINE
  8
0
  6
PHANTOM
 62
     3
 10
-84.000000
 20
98.727402
 11
-84.000000
 21
19.627956
  0
LINE
  8
0
  6
PHANTOM
 62
     3
 10
-45.000011
 20
109.793762
 11
-45.000011
 21
19.627956
  0
LINE
  8
0
  6
PHANTOM
 62
     3
 10
-30.000011
 20
98.727402
 11
-30.000011
 21
19.627956
  0
LINE
  8
0
  6
CENTER
 62
     2
 10
-163.899994
 20
60.000000
 11
-131.899979
 21
60.000000
  0
LINE
  8
0
 10
-159.285706
 20
91.000000
 11
-149.099976
 21
91.000000
  0
LINE
  8
0
  6
CENTER
 62
     2
 10
-154.371765
 20
46.000015
 11
-140.855438
 21
46.000015
  0
LINE
  8
0
  6
CENTER
 62
     2
 10
-154.168503
 20
74.000031
 11
-140.855438
 21
74.000031
  0
LINE
  8
0
  6
CENTER
 62
     2
 10
-147.500000
 20
95.800003
 11
-147.500000
 21
22.600010
  0
LINE
  8
0
 10
-135.499985
 20
90.500031
 11
-135.499985
 21
29.500015
  0
LINE
  8
0
 10
-159.500000
 20
90.500031
 11
-159.500000
 21
29.500015
  0
LINE
  8
0
 10
-135.000000
 20
90.285713
 11
-135.000000
 21
85.800018
  0
LINE
  8
0
 10
-160.000000
 20
90.285713
 11
-160.000000
 21
85.800018
  0
LINE
  8
0
 10
-135.000000
 20
62.600014
 11
-135.000000
 21
29.714291
  0
LINE
  8
0
 10
-160.000000
 20
62.600037
 11
-160.000000
 21
29.714291
  0
LINE
  8
0
  6
CENTER
 62
     2
 10
-150.713226
 20
87.500000
 11
-144.107513
 21
87.500000
  0
LINE
  8
0
  6
CENTER
 62
     2
 10
-150.713226
 20
32.500000
 11
-144.615631
 21
32.500000
  0
LINE
  8
0
 10
-150.000000
 20
75.443398
 11
-150.000000
 21
72.556656
  0
LINE
  8
0
 10
-145.000000
 20
75.443398
 11
-145.000000
 21
72.556656
  0
LINE
  8
0
 10
-147.500015
 20
76.886749
 11
-145.000000
 21
75.443367
  0
LINE
  8
0
 10
-150.000000
 20
72.556618
 11
-147.499985
 21
71.113235
  0
LINE
  8
0
 10
-150.000015
 20
75.443527
 11
-147.500031
 21
76.886894
  0
LINE
  8
0
 10
-147.500015
 20
71.113304
 11
-145.000015
 21
72.556679
  0
LINE
  8
0
 10
-150.000000
 20
47.443390
 11
-150.000000
 21
44.556648
  0
LINE
  8
0
 10
-145.000000
 20
47.443390
 11
-145.000000
 21
44.556648
  0
LINE
  8
0
 10
-147.500000
 20
48.886734
 11
-145.000000
 21
47.443363
  0
LINE
  8
0
 10
-150.000000
 20
44.556637
 11
-147.499985
 21
43.113255
  0
LINE
  8
0
 10
-150.000015
 20
47.443485
 11
-147.500015
 21
48.886856
  0
LINE
  8
0
 10
-147.500000
 20
43.113338
 11
-145.000000
 21
44.556709
  0
LINE
  8
0
 10
-159.500000
 20
29.499992
 11
-135.499985
 21
29.499992
  0
LINE
  8
0
 10
-159.285706
 20
29.000004
 11
-135.714294
 21
29.000004
  0
LINE
  8
0
 10
-159.500000
 20
90.500008
 11
-135.499985
 21
90.500008
  0
LINE
  8
0
 10
-159.285690
 20
91.000000
 11
-159.999985
 21
90.285713
  0
LINE
  8
0
 10
-135.714294
 20
91.000008
 11
-135.000000
 21
90.285728
  0
LINE
  8
0
 10
-160.000000
 20
29.714323
 11
-159.285721
 21
29.000042
  0
LINE
  8
0
 10
-135.000015
 20
29.714340
 11
-135.714310
 21
29.000051
  0
LINE
  8
0
 10
-159.999908
 20
65.800018
 11
-159.499939
 21
65.800018
  0
LINE
  8
0
 10
-159.999908
 20
62.600037
 11
-159.499939
 21
62.600037
  0
LINE
  8
0
 10
-135.000000
 20
82.600014
 11
-135.000000
 21
65.800018
  0
LINE
  8
0
 10
-135.000107
 20
85.800018
 11
-135.500061
 21
85.800018
  0
LINE
  8
0
 10
-135.000107
 20
82.600014
 11
-135.500061
 21
82.600014
  0
LINE
  8
0
 10
-135.000092
 20
65.800018
 11
-135.500061
 21
65.800018
  0
LINE
  8
0
 10
-135.000092
 20
62.600014
 11
-135.500061
 21
62.600014
  0
LINE
  8
0
 10
-149.099976
 20
90.999908
 11
-149.099976
 21
90.499947
  0
LINE
  8
0
 10
-145.899963
 20
90.999908
 11
-145.899963
 21
90.499947
  0
LINE
  8
0
 10
-159.999908
 20
82.600037
 11
-159.499939
 21
82.600037
  0
LINE
  8
0
 10
-159.999908
 20
85.800018
 11
-159.499939
 21
85.800018
  0
LINE
  8
0
 10
-160.000000
 20
82.600037
 11
-160.000000
 21
65.800018
  0
LINE
  8
0
 10
-145.899963
 20
91.000000
 11
-135.714264
 21
91.000000
  0
LINE
  8
0
  6
CENTER
 62
     2
 10
-161.500000
 20
87.500000
 11
-158.500000
 21
87.500000
  0
LINE
  8
0
  6
CENTER
 62
     2
 10
-161.500000
 20
32.500000
 11
-158.500000
 21
32.500000
  0
LINE
  8
0
  6
CENTER
 62
     2
 10
47.500000
 20
95.309738
 11
47.500000
 21
23.084980
  0
LINE
  8
0
 10
35.000000
 20
90.285736
 11
35.000000
 21
85.800003
  0
LINE
  8
0
 10
60.000000
 20
90.285736
 11
60.000000
 21
85.800018
  0
LINE
  8
0
 10
35.714264
 20
91.000023
 11
45.899963
 21
91.000023
  0
LINE
  8
0
  6
CENTER
 62
     2
 10
33.214157
 20
74.000031
 11
62.284958
 21
74.000031
  0
LINE
  8
0
  6
CENTER
 62
     2
 10
31.792908
 20
60.000000
 11
63.964615
 21
60.000000
  0
LINE
  8
0
  6
CENTER
 62
     2
 10
33.214157
 20
46.000015
 11
62.543381
 21
46.000015
  0
LINE
  8
0
 10
35.000000
 20
62.599991
 11
35.000000
 21
29.714291
  0
LINE
  8
0
 10
60.000000
 20
62.600014
 11
60.000000
 21
29.714291
  0
LINE
  8
0
 10
49.099991
 20
91.000023
 11
59.285721
 21
91.000023
  0
LINE
  8
0
 10
35.714294
 20
29.000004
 11
59.285721
 21
29.000004
  0
LINE
  8
0
 10
35.714283
 20
91.000038
 11
34.999992
 21
90.285744
  0
LINE
  8
0
 10
59.285568
 20
90.999924
 11
59.999851
 21
90.285629
  0
LINE
  8
0
 10
34.999973
 20
29.714272
 11
35.714264
 21
28.999985
  0
LINE
  8
0
 10
59.999981
 20
29.714321
 11
59.285686
 21
29.000029
  0
LINE
  8
0
 10
34.999954
 20
65.799995
 11
35.499985
 21
65.799995
  0
LINE
  8
0
 10
34.999954
 20
62.599991
 11
35.499710
 21
62.599991
  0
LINE
  8
0
 10
35.499935
 20
65.799973
 11
35.999958
 21
66.299995
  0
LINE
  8
0
 10
35.999939
 20
66.300011
 11
37.599976
 21
66.300011
  0
LINE
  8
0
 10
35.999939
 20
62.100006
 11
37.599976
 21
62.100006
  0
LINE
  8
0
 10
35.499840
 20
62.599842
 11
35.999859
 21
62.099819
  0
LINE
  8
0
 10
58.999969
 20
62.100006
 11
57.399979
 21
62.100006
  0
LINE
  8
0
 10
59.500031
 20
62.599945
 11
59.000042
 21
62.099957
  0
LINE
  8
0
 10
59.499825
 20
65.799835
 11
58.999836
 21
66.299828
  0
LINE
  8
0
 10
58.999969
 20
66.300011
 11
57.399979
 21
66.300011
  0
LINE
  8
0
 10
59.999939
 20
65.800018
 11
59.499969
 21
65.800018
  0
LINE
  8
0
 10
59.999939
 20
62.600014
 11
59.500107
 21
62.600014
  0
LINE
  8
0
 10
49.600006
 20
89.983566
 11
49.600006
 21
88.383575
  0
LINE
  8
0
 10
49.099831
 20
90.483414
 11
49.599823
 21
89.983421
  0
LINE
  8
0
 10
45.399994
 20
89.983589
 11
45.399994
 21
88.383575
  0
LINE
  8
0
 10
45.400009
 20
89.983536
 11
45.900032
 21
90.483559
  0
LINE
  8
0
 10
45.899963
 20
91.000023
 11
45.899963
 21
90.483597
  0
LINE
  8
0
 10
49.099991
 20
91.000023
 11
49.099991
 21
90.483574
  0
LINE
  8
0
  6
CENTER
 62
     2
 10
31.425262
 20
64.200005
 11
63.964615
 21
64.200005
  0
LINE
  8
0
  6
CENTER
 62
     2
 10
31.792908
 20
84.200005
 11
63.964615
 21
84.200005
  0
LINE
  8
0
 10
58.999969
 20
82.100006
 11
57.399979
 21
82.100006
  0
LINE
  8
0
 10
59.999939
 20
82.600014
 11
59.500122
 21
82.600014
  0
LINE
  8
0
 10
59.500031
 20
82.599945
 11
59.000042
 21
82.099953
  0
LINE
  8
0
 10
59.499832
 20
85.799866
 11
58.999840
 21
86.299850
  0
LINE
  8
0
 10
58.999680
 20
86.300011
 11
57.399979
 21
86.300011
  0
LINE
  8
0
 10
60.000000
 20
85.800018
 11
59.499969
 21
85.800018
  0
LINE
  8
0
 10
60.000000
 20
82.600014
 11
60.000000
 21
65.800018
  0
LINE
  8
0
 10
35.000000
 20
82.599991
 11
35.000000
 21
65.799995
  0
LINE
  8
0
 10
36.000153
 20
82.100006
 11
37.599991
 21
82.100006
  0
LINE
  8
0
 10
35.000000
 20
82.600014
 11
35.499985
 21
82.600014
  0
LINE
  8
0
 10
35.000000
 20
85.799995
 11
35.499725
 21
85.799995
  0
LINE
  8
0
 10
35.499966
 20
82.600029
 11
35.999958
 21
82.100037
  0
LINE
  8
0
 10
36.000046
 20
86.299988
 11
37.600006
 21
86.299988
  0
LINE
  8
0
 10
35.499802
 20
85.800110
 11
35.999821
 21
86.300125
  0
LINE
  8
0
  6
CENTER
 62
     2
 10
58.500000
 20
87.500000
 11
61.500000
 21
87.500000
  0
LINE
  8
0
  6
CENTER
 62
     2
 10
58.500000
 20
32.500000
 11
61.500000
 21
32.500000
  0
LINE
  8
0
 10
-2.000000
 20
8.913671
 11
-2.000000
 21
-14.657757
  0
LINE
  8
0
  6
CENTER
 62
     2
 10
-103.400024
 20
-2.872044
 11
1.165428
 21
-2.872044
  0
LINE
  8
0
 10
-69.285736
 20
9.627956
 11
-2.714279
 21
9.627956
  0
LINE
  8
0
 10
-69.285736
 20
-15.372044
 11
-2.714264
 21
-15.372044
  0
LINE
  8
0
  6
CENTER
 62
     2
 10
-45.000023
 20
1.500994
 11
-45.000023
 21
-7.155907
  0
LINE
  8
0
  6
CENTER
 62
     2
 10
-14.000008
 20
1.116234
 11
-14.000008
 21
-6.963535
  0
LINE
  8
0
 10
-2.714272
 20
9.627946
 11
-1.999984
 21
8.913659
  0
LINE
  8
0
 10
-2.000081
 20
-14.657710
 11
-2.714346
 21
-15.371987
  0
LINE
  8
0
 10
-70.000000
 20
8.913681
 11
-70.000000
 21
-14.657757
  0
LINE
  8
0
 10
-79.000000
 20
-7.872044
 11
-79.000000
 21
-12.372036
  0
LINE
  8
0
 10
-78.711334
 20
-12.872044
 11
-75.500008
 21
-12.872044
  0
LINE
  8
0
 10
-75.500008
 20
-7.872044
 11
-75.500008
 21
-12.872044
  0
LINE
  8
0
 10
-72.480011
 20
-7.872044
 11
-72.480011
 21
-12.372036
  0
LINE
  8
0
 10
-79.000031
 20
-12.372069
 11
-78.711357
 21
-12.872070
  0
LINE
  8
0
 10
-72.480042
 20
-12.372071
 11
-72.191368
 21
-12.872071
  0
LINE
  8
0
 10
-70.000069
 20
-12.372025
 11
-70.288742
 21
-12.872023
  0
LINE
  8
0
 10
-72.191338
 20
-12.872044
 11
-70.288673
 21
-12.872044
  0
LINE
  8
0
 10
-75.500008
 20
-11.372040
 11
-72.480011
 21
-11.372040
  0
LINE
  8
0
 62
     2
 10
-75.500008
 20
-10.967049
 11
-72.480011
 21
-10.967049
  0
LINE
  8
0
 10
-89.999992
 20
-6.972038
 11
-89.999992
 21
-14.872036
  0
LINE
  8
0
 10
-99.999985
 20
9.127958
 11
-99.999985
 21
-14.872036
  0
LINE
  8
0
 10
-88.999992
 20
-6.972038
 11
-88.999992
 21
-12.872044
  0
LINE
  8
0
 10
-89.999992
 20
9.127958
 11
-89.999992
 21
1.227970
  0
LINE
  8
0
 10
-89.999985
 20
-12.872044
 11
-88.999992
 21
-12.872044
  0
LINE
  8
0
 10
-99.999985
 20
-14.872036
 11
-89.999985
 21
-14.872036
  0
LINE
  8
0
 10
-99.999985
 20
9.127958
 11
-89.999985
 21
9.127958
  0
LINE
  8
0
 10
-88.000000
 20
-7.872044
 11
-70.000000
 21
-7.872044
  0
LINE
  8
0
 10
-88.000000
 20
2.127956
 11
-70.000000
 21
2.127956
  0
LINE
  8
0
 10
-91.000008
 20
1.227970
 11
-91.000008
 21
-6.972038
  0
LINE
  8
0
 10
-91.000008
 20
-6.972038
 11
-88.000000
 21
-6.972038
  0
LINE
  8
0
 10
-91.000008
 20
1.227972
 11
-88.000000
 21
1.227972
  0
LINE
  8
0
 10
-88.000000
 20
2.127956
 11
-88.000000
 21
1.227970
  0
LINE
  8
0
 10
-88.000000
 20
-6.972038
 11
-88.000000
 21
-7.872044
  0
LINE
  8
0
 10
-69.285751
 20
9.627976
 11
-70.000023
 21
8.913707
  0
LINE
  8
0
 10
-69.999992
 20
-14.657764
 11
-69.285706
 21
-15.372052
  0
LINE
  8
0
 10
-99.999985
 20
9.127958
 11
-99.999985
 21
-14.872036
  0
LINE
  8
0
 10
-36.936520
 20
3.627960
 11
-33.063519
 21
3.627960
  0
LINE
  8
0
  6
CENTER
 62
     2
 10
-55.000000
 20
-13.872044
 11
-55.000000
 21
-16.872044
  0
LINE
  8
0
  6
CENTER
 62
     2
 10
-35.000000
 20
-13.872044
 11
-35.000000
 21
-16.872044
  0
LINE
  8
0
  6
CENTER
 62
     2
 10
-24.999977
 20
-13.872044
 11
-24.999977
 21
-16.872044
  0
LINE
  8
0
  6
PHANTOM
 62
     3
 10
-40.000011
 20
19.627956
 11
-40.000011
 21
-20.558489
  0
LINE
  8
0
  6
PHANTOM
 62
     3
 10
-84.000000
 20
19.627956
 11
-84.000000
 21
-20.558489
  0
LINE
  8
0
  6
PHANTOM
 62
     3
 10
-29.999989
 20
19.627956
 11
-29.999989
 21
-20.558489
  0
LINE
  8
0
  6
PHANTOM
 62
     3
 10
-45.000011
 20
19.627956
 11
-40.000011
 21
19.627956
  0
LINE
  8
0
 10
-33.063519
 20
9.627956
 11
-33.063519
 21
3.627960
  0
LINE
  8
0
 10
-36.936520
 20
9.627956
 11
-36.936520
 21
3.627960
  0
LINE
  8
0
 10
-36.936520
 20
-15.372044
 11
-36.936520
 21
-9.372047
  0
LINE
  8
0
 10
-36.936520
 20
-9.372047
 11
-33.063519
 21
-9.372047
  0
LINE
  8
0
 10
-33.063519
 20
-15.372044
 11
-33.063519
 21
-9.372047
  0
LINE
  8
0
  6
CENTER
 62
     1
 10
-71.096390
 20
-105.502808
 11
-71.096390
 21
-110.168457
  0
LINE
  8
0
 62
     4
 10
-72.346390
 20
-105.809525
 11
-72.346390
 21
-106.309525
  0
LINE
  8
0
 62
     1
 10
-72.121399
 20
-105.809525
 11
-72.121399
 21
-106.309525
  0
LINE
  8
0
 62
     1
 10
-70.071396
 20
-105.809525
 11
-70.071396
 21
-106.309525
  0
LINE
  8
0
 62
     4
 10
-69.846390
 20
-105.809525
 11
-69.846390
 21
-106.309525
  0
LINE
  8
0
 62
     4
 10
-72.346390
 20
-105.809525
 11
-69.846390
 21
-105.809525
  0
LINE
  8
0
  6
CENTER
 62
     1
 10
-117.639130
 20
-104.256554
 11
-117.639130
 21
-111.230362
  0
LINE
  8
0
 62
     4
 10
-119.689117
 20
-107.309525
 11
-119.689117
 21
-108.859520
  0
LINE
  8
0
 62
     4
 10
-119.689186
 20
-107.309479
 11
-119.139183
 21
-106.759476
  0
LINE
  8
0
 62
     4
 10
-119.139130
 20
-106.309525
 11
-119.139130
 21
-106.759521
  0
LINE
  8
0
 62
     4
 10
-119.139130
 20
-106.309525
 11
-116.139130
 21
-106.309525
  0
LINE
  8
0
 62
     4
 10
-116.139130
 20
-106.309525
 11
-116.139130
 21
-106.759521
  0
LINE
  8
0
 62
     4
 10
-115.589134
 20
-107.309479
 11
-116.139137
 21
-106.759483
  0
LINE
  8
0
 62
     4
 10
-115.589127
 20
-107.309525
 11
-115.589127
 21
-108.859520
  0
LINE
  8
0
 62
     4
 10
-119.689117
 20
-108.109520
 11
-115.589127
 21
-108.109520
  0
LINE
  8
0
 62
     4
 10
-119.689133
 20
-108.908707
 11
-115.589127
 21
-108.908707
  0
LINE
  8
0
 62
     4
 10
-118.664139
 20
-110.309525
 11
-116.614136
 21
-110.309525
  0
LINE
  8
0
 62
     4
 10
-116.613678
 20
-110.309975
 11
-116.388680
 21
-110.084961
  0
LINE
  8
0
 62
     4
 10
-118.664131
 20
-110.309570
 11
-118.889122
 21
-110.084579
  0
LINE
  8
0
 62
     4
 10
-118.889130
 20
-108.908707
 11
-118.889130
 21
-110.084526
  0
LINE
  8
0
 62
     1
 10
-118.664139
 20
-108.908707
 11
-118.664139
 21
-110.309525
  0
LINE
  8
0
 62
     1
 10
-116.614136
 20
-108.908707
 11
-116.614136
 21
-110.309525
  0
LINE
  8
0
 62
     4
 10
-116.389130
 20
-108.908707
 11
-116.389130
 21
-110.084518
  0
LINE
  8
0
 62
     4
 10
-118.889130
 20
-110.084526
 11
-116.389130
 21
-110.084526
  0
LINE
  8
0
 62
     4
 10
-118.889130
 20
-105.809525
 11
-118.889130
 21
-106.309525
  0
LINE
  8
0
 62
     1
 10
-118.664139
 20
-105.809525
 11
-118.664139
 21
-106.309525
  0
LINE
  8
0
 62
     1
 10
-116.614136
 20
-105.809525
 11
-116.614136
 21
-106.309525
  0
LINE
  8
0
 62
     4
 10
-116.389130
 20
-105.809525
 11
-116.389130
 21
-106.309525
  0
LINE
  8
0
 62
     4
 10
-118.889130
 20
-105.809525
 11
-116.389130
 21
-105.809525
  0
LINE
  8
0
  6
CENTER
 62
     1
 10
-75.896942
 20
-63.759521
 11
-45.688889
 21
-63.759521
  0
LINE
  8
0
 62
     4
 10
-73.096405
 20
-65.259521
 11
-51.096405
 21
-65.259521
  0
LINE
  8
0
 62
     4
 10
-73.096405
 20
-62.259521
 11
-51.096405
 21
-62.259521
  0
LINE
  8
0
  6
CENTER
 62
     1
 10
-71.096390
 20
-60.923019
 11
-71.096390
 21
-66.512344
  0
LINE
  8
0
 62
     1
 10
-50.007175
 20
-61.594425
 11
-47.507175
 21
-65.924553
  0
LINE
  8
0
 62
     4
 10
-51.096405
 20
-62.459518
 11
-49.507751
 21
-62.459518
  0
LINE
  8
0
 62
     4
 10
-51.096405
 20
-65.059525
 11
-48.006622
 21
-65.059525
  0
LINE
  8
0
 62
     4
 10
-72.105858
 20
-64.486168
 11
-70.360855
 21
-62.741169
  0
LINE
  8
0
 62
     4
 10
-71.823036
 20
-64.768990
 11
-70.078033
 21
-63.023987
  0
LINE
  8
0
 62
     4
 10
-73.096405
 20
-62.159523
 11
-73.096405
 21
-65.359520
  0
LINE
  8
0
 62
     4
 10
-51.096405
 20
-62.159523
 11
-51.096405
 21
-65.359520
  0
LINE
  8
0
 62
     4
 10
101.714737
 20
-99.409523
 11
101.714737
 21
-106.309525
  0
LINE
  8
0
  6
CENTER
 62
     1
 10
81.714737
 20
-105.579269
 11
81.714737
 21
-110.586067
  0
LINE
  8
0
 62
     4
 10
95.814713
 20
-99.409523
 11
95.814713
 21
-106.309525
  0
LINE
  8
0
 62
     4
 10
95.814743
 20
-99.409523
 11
101.714737
 21
-99.409523
  0
LINE
  8
0
 62
     4
 10
95.814713
 20
-105.159508
 11
101.714737
 21
-105.159508
  0
LINE
  8
0
 62
     4
 10
95.814713
 20
-105.909508
 11
101.714737
 21
-105.909508
  0
LINE
  8
0
 62
     4
 10
95.814713
 20
-100.909523
 11
101.714737
 21
-100.909523
  0
LINE
  8
0
 62
     4
 10
97.822098
 20
-90.909485
 11
100.422073
 21
-90.909485
  0
LINE
  8
0
  6
CENTER
 62
     1
 10
98.672012
 20
-92.632416
 11
98.672012
 21
-80.700333
  0
LINE
  8
0
  6
CENTER
 62
     1
 10
99.572006
 20
-92.582123
 11
99.572006
 21
-80.658478
  0
LINE
  8
0
 62
     4
 10
98.422012
 20
-80.909485
 11
98.922012
 21
-80.909485
  0
LINE
  8
0
 62
     4
 10
99.322006
 20
-80.909485
 11
99.822006
 21
-80.909485
  0
LINE
  8
0
 62
     4
 10
98.222000
 20
-83.909485
 11
100.022018
 21
-83.909485
  0
LINE
  8
0
 62
     4
 10
100.022018
 20
-90.909485
 11
100.022018
 21
-86.903938
  0
LINE
  8
0
 62
     4
 10
99.121994
 20
-90.909485
 11
99.121994
 21
-87.423553
  0
LINE
  8
0
 62
     4
 10
99.121994
 20
-85.923553
 11
99.121994
 21
-83.909485
  0
LINE
  8
0
 62
     4
 10
100.022018
 20
-85.403938
 11
100.022018
 21
-83.909485
  0
LINE
  8
0
 62
     4
 10
98.222000
 20
-90.909485
 11
98.222000
 21
-87.943176
  0
LINE
  8
0
 62
     4
 10
98.222000
 20
-86.443176
 11
98.222000
 21
-83.909485
  0
LINE
  8
0
 62
     4
 10
98.422012
 20
-83.909485
 11
98.422012
 21
-80.909485
  0
LINE
  8
0
 62
     4
 10
98.922012
 20
-83.909485
 11
98.922012
 21
-80.909485
  0
LINE
  8
0
 62
     4
 10
99.322006
 20
-83.909485
 11
99.322006
 21
-80.909485
  0
LINE
  8
0
 62
     4
 10
99.822006
 20
-83.909485
 11
99.822006
 21
-80.909485
  0
LINE
  8
0
 62
     1
 10
96.957130
 20
-87.173637
 11
101.287277
 21
-84.673622
  0
LINE
  8
0
  6
CENTER
 62
     1
 10
99.122086
 20
-100.723892
 11
99.122086
 21
-90.909485
  0
LINE
  8
0
 62
     1
 10
96.957039
 20
-88.673637
 11
101.287193
 21
-86.173622
  0
LINE
  8
0
 62
     1
 10
96.957024
 20
-96.154343
 11
101.287155
 21
-93.654343
  0
LINE
  8
0
 62
     1
 10
96.957069
 20
-97.654335
 11
101.287193
 21
-95.154343
  0
LINE
  8
0
 62
     4
 10
80.464737
 20
-105.809525
 11
80.464737
 21
-106.309525
  0
LINE
  8
0
 62
     1
 10
80.689713
 20
-105.809525
 11
80.689713
 21
-106.309525
  0
LINE
  8
0
 62
     1
 10
82.739731
 20
-105.809525
 11
82.739731
 21
-106.309525
  0
LINE
  8
0
 62
     4
 10
82.964737
 20
-105.809525
 11
82.964737
 21
-106.309525
  0
LINE
  8
0
 62
     4
 10
80.464737
 20
-105.809525
 11
82.964737
 21
-105.809525
  0
LINE
  8
0
 62
     4
 10
100.422073
 20
-99.409523
 11
100.422073
 21
-95.653687
  0
LINE
  8
0
 62
     4
 10
97.822098
 20
-99.409523
 11
97.822098
 21
-97.154778
  0
LINE
  8
0
 62
     4
 10
97.822098
 20
-95.654793
 11
97.822098
 21
-90.909485
  0
LINE
  8
0
 62
     4
 10
100.422073
 20
-94.153694
 11
100.422073
 21
-90.909485
  0
LINE
  8
0
 62
     4
 10
34.422012
 20
-100.909523
 11
38.922012
 21
-100.909523
  0
LINE
  8
0
 62
     4
 10
34.422012
 20
-99.409523
 11
34.422012
 21
-105.159523
  0
LINE
  8
0
 62
     4
 10
35.171959
 20
-105.909492
 11
34.421997
 21
-105.159531
  0
LINE
  8
0
 62
     4
 10
35.172012
 20
-106.759521
 11
35.172012
 21
-105.909523
  0
LINE
  8
0
 62
     4
 10
34.621998
 20
-107.309479
 11
35.172009
 21
-106.759468
  0
LINE
  8
0
 62
     4
 10
34.621994
 20
-107.309525
 11
34.621994
 21
-108.859520
  0
LINE
  8
0
 62
     4
 10
38.722000
 20
-107.309525
 11
38.722000
 21
-108.859520
  0
LINE
  8
0
 62
     4
 10
38.721992
 20
-107.309563
 11
38.171986
 21
-106.759552
  0
LINE
  8
0
 62
     4
 10
38.172012
 20
-106.759521
 11
38.172012
 21
-105.909523
  0
LINE
  8
0
 62
     4
 10
38.172070
 20
-105.909622
 11
38.922066
 21
-105.159630
  0
LINE
  8
0
 62
     4
 10
38.922012
 20
-99.409523
 11
38.922012
 21
-105.159523
  0
LINE
  8
0
  6
CENTER
 62
     1
 10
36.672012
 20
-93.748566
 11
36.672012
 21
-112.376190
  0
LINE
  8
0
 62
     4
 10
35.172012
 20
-106.309525
 11
38.172012
 21
-106.309525
  0
LINE
  8
0
 62
     4
 10
34.621994
 20
-108.109520
 11
38.722000
 21
-108.109520
  0
LINE
  8
0
 62
     4
 10
34.621994
 20
-108.911972
 11
38.722000
 21
-108.911972
  0
LINE
  8
0
 62
     4
 10
34.422012
 20
-99.409523
 11
38.922012
 21
-99.409523
  0
LINE
  8
0
 62
     1
 10
34.507027
 20
-97.654335
 11
38.837154
 21
-95.154335
  0
LINE
  8
0
 62
     4
 10
35.646988
 20
-110.309525
 11
37.697006
 21
-110.309525
  0
LINE
  8
0
 62
     4
 10
37.697529
 20
-110.310059
 11
37.922520
 21
-110.085060
  0
LINE
  8
0
 62
     4
 10
35.647057
 20
-110.309456
 11
35.422050
 21
-110.084450
  0
LINE
  8
0
 62
     4
 10
35.422012
 20
-108.911972
 11
35.422012
 21
-110.084526
  0
LINE
  8
0
 62
     1
 10
35.646988
 20
-108.911972
 11
35.646988
 21
-110.309525
  0
LINE
  8
0
 62
     1
 10
37.697006
 20
-108.911972
 11
37.697006
 21
-110.309525
  0
LINE
  8
0
 62
     4
 10
37.922012
 20
-108.911972
 11
37.922012
 21
-110.084518
  0
LINE
  8
0
 62
     4
 10
35.422012
 20
-110.084526
 11
37.922012
 21
-110.084526
  0
LINE
  8
0
 62
     4
 10
35.422012
 20
-105.809525
 11
35.422012
 21
-106.309525
  0
LINE
  8
0
 62
     1
 10
35.646988
 20
-105.809525
 11
35.646988
 21
-106.309525
  0
LINE
  8
0
 62
     1
 10
37.697006
 20
-105.809525
 11
37.697006
 21
-106.309525
  0
LINE
  8
0
 62
     4
 10
37.922012
 20
-105.809525
 11
37.922012
 21
-106.309525
  0
LINE
  8
0
 62
     4
 10
35.422012
 20
-105.809525
 11
37.922012
 21
-105.809525
  0
LINE
  8
0
 62
     4
 10
35.372025
 20
-97.154800
 11
35.372025
 21
-99.409523
  0
LINE
  8
0
 62
     4
 10
37.972000
 20
-95.653702
 11
37.972000
 21
-99.409523
  0
LINE
  8
0
  6
CENTER
 62
     1
 10
78.385544
 20
-58.709511
 11
103.294724
 21
-58.709511
  0
LINE
  8
0
 62
     4
 10
79.714737
 20
-60.209511
 11
96.275345
 21
-60.209511
  0
LINE
  8
0
 62
     4
 10
79.714737
 20
-57.209511
 11
96.275345
 21
-57.209511
  0
LINE
  8
0
 62
     4
 10
79.714737
 20
-57.109512
 11
79.714737
 21
-60.309509
  0
LINE
  8
0
  6
CENTER
 62
     1
 10
81.714737
 20
-55.873001
 11
81.714737
 21
-61.462326
  0
LINE
  8
0
 62
     4
 10
96.800705
 20
-56.459511
 11
101.714737
 21
-56.459511
  0
LINE
  8
0
 62
     4
 10
96.800705
 20
-60.959511
 11
101.714737
 21
-60.959511
  0
LINE
  8
0
 62
     4
 10
101.714737
 20
-56.459503
 11
101.714737
 21
-60.959503
  0
LINE
  8
0
 62
     4
 10
80.705276
 20
-59.436157
 11
82.450279
 21
-57.691158
  0
LINE
  8
0
 62
     4
 10
80.988091
 20
-59.718975
 11
82.733093
 21
-57.973976
  0
CIRCLE
  8
0
 10
-35.000000
 20
87.500000
 40
2.250000
  0
CIRCLE
  8
0
 10
-25.000023
 20
60.000000
 40
2.250000
  0
CIRCLE
  8
0
 10
-35.000000
 20
32.500000
 40
2.250000
  0
CIRCLE
  8
0
 10
-55.000023
 20
60.000000
 40
2.250000
  0
CIRCLE
  8
0
 62
     2
 10
-94.999985
 20
81.999969
 40
2.000000
  0
CIRCLE
  8
0
 62
     2
 10
-94.999985
 20
37.999985
 40
2.000000
  0
CIRCLE
  8
0
 10
-94.999985
 20
81.999969
 40
1.595000
  0
CIRCLE
  8
0
 10
-94.999985
 20
37.999985
 40
1.595000
  0
ARC
  8
0
 10
-72.453766
 20
56.535889
 40
2.453744
 50
331.927551
 51
28.072271
  0
ARC
  8
0
 10
-72.453766
 20
63.464073
 40
2.453744
 50
331.927551
 51
28.072351
  0
ARC
  8
0
 10
-79.381973
 20
59.999977
 40
9.381960
 50
345.750000
 51
14.249935
  0
ARC
  8
0
 10
-76.546265
 20
63.464073
 40
2.453744
 50
151.927567
 51
208.072433
  0
ARC
  8
0
 10
-69.618050
 20
59.999977
 40
9.381959
 50
165.750015
 51
194.249908
  0
ARC
  8
0
 10
-76.546265
 20
56.535889
 40
2.453744
 50
151.927567
 51
208.072433
  0
ARC
  8
0
 10
-70.026268
 20
63.464073
 40
2.453744
 50
151.927567
 51
208.072433
  0
ARC
  8
0
 10
-63.098034
 20
59.999977
 40
9.381962
 50
165.750015
 51
194.249924
  0
ARC
  8
0
 10
-70.026268
 20
56.535889
 40
2.453744
 50
151.927567
 51
208.072433
  0
CIRCLE
  8
0
 10
-55.000023
 20
60.000000
 40
4.000000
  0
ARC
  8
0
 10
-35.000000
 20
32.500000
 40
4.000001
 50
298.955109
 51
241.044830
  0
CIRCLE
  8
0
 10
-25.000023
 20
60.000000
 40
4.000000
  0
ARC
  8
0
 10
-35.000000
 20
87.500000
 40
4.000000
 50
118.954353
 51
61.045643
  0
CIRCLE
  8
0
 10
-147.500000
 20
74.000031
 40
5.500000
  0
CIRCLE
  8
0
 10
-147.500000
 20
46.000015
 40
5.500000
  0
CIRCLE
  8
0
 62
     2
 10
-147.500000
 20
87.500000
 40
2.000000
  0
CIRCLE
  8
0
 62
     2
 10
-147.500000
 20
32.500000
 40
2.000000
  0
CIRCLE
  8
0
 10
-147.500000
 20
87.500000
 40
1.620000
  0
CIRCLE
  8
0
 10
-147.500000
 20
32.500000
 40
1.620000
  0
CIRCLE
  8
0
 10
-147.500000
 20
74.000031
 40
5.000000
  0
CIRCLE
  8
0
 10
-147.500000
 20
46.000015
 40
5.000000
  0
CIRCLE
  8
0
 10
-147.500000
 20
46.000015
 40
4.500000
  0
CIRCLE
  8
0
 10
-147.500000
 20
74.000031
 40
4.500000
  0
CIRCLE
  8
0
 10
47.500000
 20
74.000031
 40
11.500001
  0
CIRCLE
  8
0
 10
47.500000
 20
46.000015
 40
11.500001
  0
ARC
  8
0
 10
37.599976
 20
64.200005
 40
2.099998
 50
270.000000
 51
90.000000
  0
ARC
  8
0
 10
57.399994
 20
64.200005
 40
2.099998
 50
90.000000
 51
269.999908
  0
ARC
  8
0
 10
47.500000
 20
88.383575
 40
2.099998
 50
180.000000
 51
0.000000
  0
ARC
  8
0
 10
57.399994
 20
84.200005
 40
2.099998
 50
90.000000
 51
269.999908
  0
ARC
  8
0
 10
37.599991
 20
84.199982
 40
2.099998
 50
270.000000
 51
89.999893
  0
CIRCLE
  8
0
 62
     2
 10
-45.000023
 20
-2.872044
 40
2.500000
  0
CIRCLE
  8
0
 62
     2
 10
-14.000008
 20
-2.872044
 40
2.500000
  0
CIRCLE
  8
0
 10
-45.000023
 20
-2.872044
 40
2.094999
  0
CIRCLE
  8
0
 10
-14.000008
 20
-2.872044
 40
2.094999
  0
ARC
  8
0
 10
-77.072556
 20
-10.872032
 40
7.072556
 50
343.573608
 51
16.426313
  0
ARC
  8
0
 10
-77.072556
 20
-6.872047
 40
7.072556
 50
343.573608
 51
351.871613
  0
ARC
  8
0
 10
-71.927444
 20
-6.872047
 40
7.072556
 50
188.128403
 51
196.426376
  0
ARC
  8
0
 10
-71.927444
 20
-10.872032
 40
7.072556
 50
163.573624
 51
196.426285
  0
ARC
  8
0
 10
-65.407455
 20
-6.872047
 40
7.072556
 50
188.128403
 51
196.426376
  0
ARC
  8
0
 10
-65.407455
 20
-10.872032
 40
7.072556
 50
163.573624
 51
196.426285
  0
ARC
  8
0
 62
     4
 10
-117.639130
 20
-108.859520
 40
2.050003
 50
180.000000
 51
270.000000
  0
ARC
  8
0
 62
     4
 10
-117.639130
 20
-108.859520
 40
2.050003
 50
270.000000
 51
0.000000
  0
CIRCLE
  8
0
 62
     1
 10
-71.096390
 20
-63.765808
 40
1.000000
  0
CIRCLE
  8
0
 62
     4
 10
-71.096390
 20
-63.765808
 40
1.250000
  0
ARC
  8
0
 62
     4
 10
36.672012
 20
-108.859520
 40
2.049999
 50
180.000000
 51
270.000000
  0
ARC
  8
0
 62
     4
 10
36.672012
 20
-108.859520
 40
2.050003
 50
271.259888
 51
0.000000
  0
ARC
  8
0
 62
     4
 10
99.214737
 20
-58.709511
 40
3.300002
 50
137.014145
 51
222.985855
  0
CIRCLE
  8
0
 62
     4
 10
99.122086
 20
-58.709511
 40
1.300000
  0
CIRCLE
  8
0
 62
     4
 10
99.443893
 20
-59.050514
 40
0.450000
  0
CIRCLE
  8
0
 62
     4
 10
98.832016
 20
-58.391357
 40
0.450000
  0
CIRCLE
  8
0
 62
     4
 10
99.443893
 20
-59.050514
 40
0.250000
  0
CIRCLE
  8
0
 62
     4
 10
98.832016
 20
-58.391357
 40
0.250000
  0
CIRCLE
  8
0
 62
     1
 10
81.714737
 20
-58.715797
 40
1.000000
  0
CIRCLE
  8
0
 62
     4
 10
81.714737
 20
-58.715797
 40
1.250000
  0
TEXT
  8
0
 10
115.907150
 20
122.050003
 40
4.500000
  1
DATE : APR ,1994
 50
0.000000
 41
1.052631
 51
0.000000
  7
STANDARD
  0
TEXT
  8
0
 10
113.700279
 20
-130.669998
 40
6.300000
  1
KOGANEI CORP.
 50
0.000000
 41
1.052632
 51
0.000000
  7
STANDARD
  0
TEXT
  8
0
 10
-190.392654
 20
122.050003
 40
4.500000
  1
TWIN ROD CYLINDER
 50
0.000000
 41
1.052632
 51
0.000000
  7
STANDARD
  0
TEXT
  8
0
 10
-186.892654
 20
104.550003
 40
4.500000
  1
MODEL:TBDA20*ST(10)
 50
0.000000
 41
1.052632
 51
0.000000
  7
STANDARD
  0
TEXT
  8
0
 62
     3
 10
-31.266151
 20
101.290131
 40
3.200000
  1
STRETCH LINE B
 50
0.000000
 41
1.052632
 51
0.000000
  7
STANDARD
  0
TEXT
  8
0
 62
     3
 10
-51.770027
 20
111.012924
 40
3.200000
  1
STRETCH LINE A
 50
0.000000
 41
1.052632
 51
0.000000
  7
STANDARD
  0
TEXT
  8
0
 62
     3
 10
-102.364555
 20
101.290131
 40
3.200000
  1
STRETCH LINE C
 50
0.000000
 41
1.052632
 51
0.000000
  7
STANDARD
  0
TEXT
  8
0
 10
73.168526
 20
-23.436377
 40
3.200000
  1
0
 50
0.000000
 41
1.052632
 51
0.000000
  7
STANDARD
  0
TEXT
  8
0
 10
83.568527
 20
-23.436378
 40
3.200000
  1
10
 50
0.000000
 41
1.052632
 51
0.000000
  7
STANDARD
  0
TEXT
  8
0
 10
95.568527
 20
-23.436378
 40
3.200000
  1
20
 50
0.000000
 41
1.052632
 51
0.000000
  7
STANDARD
  0
TEXT
  8
0
 10
107.568527
 20
-23.436378
 40
3.200000
  1
30
 50
0.000000
 41
1.052632
 51
0.000000
  7
STANDARD
  0
TEXT
  8
0
 10
119.568527
 20
-23.436378
 40
3.200000
  1
40
 50
0.000000
 41
1.052632
 51
0.000000
  7
STANDARD
  0
TEXT
  8
0
 10
131.568527
 20
-23.436378
 40
3.200000
  1
50
 50
0.000000
 41
1.052632
 51
0.000000
  7
STANDARD
  0
TEXT
  8
0
 10
155.568527
 20
-23.436378
 40
3.200000
  1
70
 50
0.000000
 41
1.052632
 51
0.000000
  7
STANDARD
  0
TEXT
  8
0
 10
47.668526
 20
6.563622
 40
3.200000
  1
STROKE
 50
0.000000
 41
1.052632
 51
0.000000
  7
STANDARD
  0
TEXT
  8
0
 10
97.068527
 20
12.563622
 40
3.200000
  1
STRETCH LIST
 50
0.000000
 41
1.052632
 51
0.000000
  7
STANDARD
  0
TEXT
  8
0
 10
131.568527
 20
0.563622
 40
3.200000
  1
60
 50
0.000000
 41
1.052632
 51
0.000000
  7
STANDARD
  0
TEXT
  8
0
 10
177.968521
 20
0.563623
 40
3.200000
  1
100
 50
0.000000
 41
1.052632
 51
0.000000
  7
STANDARD
  0
TEXT
  8
0
 10
119.568527
 20
0.563622
 40
3.200000
  1
50
 50
0.000000
 41
1.052632
 51
0.000000
  7
STANDARD
  0
TEXT
  8
0
 10
107.568527
 20
0.563622
 40
3.200000
  1
40
 50
0.000000
 41
1.052632
 51
0.000000
  7
STANDARD
  0
TEXT
  8
0
 10
95.568527
 20
0.563622
 40
3.200000
  1
30
 50
0.000000
 41
1.052632
 51
0.000000
  7
STANDARD
  0
TEXT
  8
0
 10
83.568527
 20
0.563622
 40
3.200000
  1
20
 50
0.000000
 41
1.052632
 51
0.000000
  7
STANDARD
  0
TEXT
  8
0
 10
71.568527
 20
0.563622
 40
3.200000
  1
10
 50
0.000000
 41
1.052632
 51
0.000000
  7
STANDARD
  0
TEXT
  8
0
 10
131.568527
 20
-11.436378
 40
3.200000
  1
20
 50
0.000000
 41
1.052632
 51
0.000000
  7
STANDARD
  0
TEXT
  8
0
 10
155.568527
 20
-11.436378
 40
3.200000
  1
30
 50
0.000000
 41
1.052632
 51
0.000000
  7
STANDARD
  0
TEXT
  8
0
 10
119.568527
 20
-11.436378
 40
3.200000
  1
15
 50
0.000000
 41
1.052632
 51
0.000000
  7
STANDARD
  0
TEXT
  8
0
 10
107.568527
 20
-11.436378
 40
3.200000
  1
10
 50
0.000000
 41
1.052632
 51
0.000000
  7
STANDARD
  0
TEXT
  8
0
 10
97.168526
 20
-11.436378
 40
3.200000
  1
5
 50
0.000000
 41
1.052632
 51
0.000000
  7
STANDARD
  0
TEXT
  8
0
 10
85.168526
 20
-11.436378
 40
3.200000
  1
0
 50
0.000000
 41
1.052632
 51
0.000000
  7
STANDARD
  0
TEXT
  8
0
 10
73.168526
 20
-11.436378
 40
3.200000
  1
0
 50
0.000000
 41
1.052632
 51
0.000000
  7
STANDARD
  0
TEXT
  8
0
 10
176.368530
 20
12.563622
 40
3.200000
  1
(mm)
 50
0.000000
 41
1.052632
 51
0.000000
  7
STANDARD
  0
TEXT
  8
0
 10
44.465000
 20
-0.056375
 40
3.200000
  1
STRETCH
 50
0.000000
 41
1.052632
 51
0.000000
  7
STANDARD
  0
TEXT
  8
0
 10
44.465000
 20
-4.856375
 40
3.200000
  1
  PLACE
 50
0.000000
 41
1.052632
 51
0.000000
  7
STANDARD
  0
TEXT
  8
0
 10
54.668526
 20
-11.436378
 40
3.200000
  1
A
 50
0.000000
 41
1.052632
 51
0.000000
  7
STANDARD
  0
TEXT
  8
0
 10
54.668526
 20
-17.436378
 40
3.200000
  1
B
 50
0.000000
 41
1.052632
 51
0.000000
  7
STANDARD
  0
TEXT
  8
0
 10
54.668526
 20
-23.436378
 40
3.200000
  1
C
 50
0.000000
 41
1.052632
 51
0.000000
  7
STANDARD
  0
TEXT
  8
0
 10
155.568527
 20
-17.436378
 40
3.200000
  1
40
 50
0.000000
 41
1.052632
 51
0.000000
  7
STANDARD
  0
TEXT
  8
0
 10
131.568527
 20
-17.436378
 40
3.200000
  1
30
 50
0.000000
 41
1.052632
 51
0.000000
  7
STANDARD
  0
TEXT
  8
0
 10
119.568527
 20
-17.436378
 40
3.200000
  1
25
 50
0.000000
 41
1.052632
 51
0.000000
  7
STANDARD
  0
TEXT
  8
0
 10
107.568527
 20
-17.436378
 40
3.200000
  1
20
 50
0.000000
 41
1.052632
 51
0.000000
  7
STANDARD
  0
TEXT
  8
0
 10
95.568527
 20
-17.436378
 40
3.200000
  1
15
 50
0.000000
 41
1.052632
 51
0.000000
  7
STANDARD
  0
TEXT
  8
0
 10
83.568527
 20
-17.436378
 40
3.200000
  1
10
 50
0.000000
 41
1.052632
 51
0.000000
  7
STANDARD
  0
TEXT
  8
0
 10
73.168526
 20
-17.436377
 40
3.200000
  1
0
 50
0.000000
 41
1.052632
 51
0.000000
  7
STANDARD
  0
TEXT
  8
0
 10
143.568527
 20
0.563622
 40
3.200000
  1
70
 50
0.000000
 41
1.052632
 51
0.000000
  7
STANDARD
  0
TEXT
  8
0
 10
155.568527
 20
0.563622
 40
3.200000
  1
80
 50
0.000000
 41
1.052632
 51
0.000000
  7
STANDARD
  0
TEXT
  8
0
 10
167.568527
 20
0.563622
 40
3.200000
  1
90
 50
0.000000
 41
1.052632
 51
0.000000
  7
STANDARD
  0
TEXT
  8
0
 10
143.568527
 20
-11.436378
 40
3.200000
  1
25
 50
0.000000
 41
1.052632
 51
0.000000
  7
STANDARD
  0
TEXT
  8
0
 10
143.568527
 20
-17.436378
 40
3.200000
  1
35
 50
0.000000
 41
1.052632
 51
0.000000
  7
STANDARD
  0
TEXT
  8
0
 10
143.568527
 20
-23.436378
 40
3.200000
  1
60
 50
0.000000
 41
1.052632
 51
0.000000
  7
STANDARD
  0
TEXT
  8
0
 10
179.568527
 20
-11.436378
 40
3.200000
  1
40
 50
0.000000
 41
1.052632
 51
0.000000
  7
STANDARD
  0
TEXT
  8
0
 10
179.568527
 20
-17.436378
 40
3.200000
  1
50
 50
0.000000
 41
1.052632
 51
0.000000
  7
STANDARD
  0
TEXT
  8
0
 10
179.568527
 20
-23.436378
 40
3.200000
  1
90
 50
0.000000
 41
1.052632
 51
0.000000
  7
STANDARD
  0
TEXT
  8
0
 10
167.568527
 20
-11.436378
 40
3.200000
  1
35
 50
0.000000
 41
1.052632
 51
0.000000
  7
STANDARD
  0
TEXT
  8
0
 10
167.568527
 20
-17.436378
 40
3.200000
  1
45
 50
0.000000
 41
1.052632
 51
0.000000
  7
STANDARD
  0
TEXT
  8
0
 10
167.568527
 20
-23.436378
 40
3.200000
  1
80
 50
0.000000
 41
1.052632
 51
0.000000
  7
STANDARD
  0
TEXT
  8
0
 10
-133.163651
 20
-77.640503
 40
4.500000
  1
ZE102
 50
0.000000
 41
1.052632
 51
0.000000
  7
STANDARD
  0
TEXT
  8
0
 10
-12.163649
 20
-52.290504
 40
4.500000
  1
SENSOR
 50
0.000000
 41
1.052632
 51
0.000000
  7
STANDARD
  0
TEXT
  8
0
 10
-12.163651
 20
-59.040504
 40
4.500000
  1
 SWITCH:ZE235
 50
0.000000
 41
1.052632
 51
0.000000
  7
STANDARD
  0
TEXT
  8
0
 10
23.836349
 20
-65.640503
 40
4.500000
  1
ZE255
 50
0.000000
 41
1.052632
 51
0.000000
  7
STANDARD
  0
TEXT
  8
0
 10
23.836349
 20
-71.640503
 40
4.500000
  1
ZE201
 50
0.000000
 41
1.052632
 51
0.000000
  7
STANDARD
  0
TEXT
  8
0
 10
23.836349
 20
-77.640503
 40
4.500000
  1
ZE202
 50
0.000000
 41
1.052632
 51
0.000000
  7
STANDARD
  0
TEXT
  8
0
 10
-169.163651
 20
-52.290504
 40
4.500000
  1
SENSOR
 50
0.000000
 41
1.052632
 51
0.000000
  7
STANDARD
  0
TEXT
  8
0
 10
-169.163651
 20
-59.040504
 40
4.500000
  1
 SWITCH:ZE135
 50
0.000000
 41
1.052632
 51
0.000000
  7
STANDARD
  0
TEXT
  8
0
 10
-133.163651
 20
-65.640503
 40
4.500000
  1
ZE155
 50
0.000000
 41
1.052632
 51
0.000000
  7
STANDARD
  0
TEXT
  8
0
 10
-133.163651
 20
-71.640503
 40
4.500000
  1
ZE101
 50
0.000000
 41
1.052632
 51
0.000000
  7
STANDARD
  0
ENDSEC
  0
EOF
