  0
SECTION
  2
HEADER
  0
ENDSEC
  0
SECTION
  2
TABLES
  0
TABLE
  2
LTYPE
 70
     4
  0
LTYPE
  2
CONTINUOUS
 70
    64
  3
Solid line
 72
    65
 73
     0
 40
0.000000
  0
LTYPE
  2
DASHED
 70
    64
  3
__ __ __ __ __ __ __ __ __ __ __ __ __ __ __
 72
    65
 73
     2
 40
3.500000
 49
2.000000
 49
-1.500000
  0
LTYPE
  2
CENTER
 70
    64
  3
____ _ ____ _ ____ _ ____ _ ____ _ ____ _ ____
 72
    65
 73
     4
 40
17.500000
 49
13.000000
 49
-1.500000
 49
1.500000
 49
-1.500000
  0
LTYPE
  2
PHANTOM
 70
    64
  3
_____ _ _ _____ _ _ _____ _ _ _____ _ _ ____  
 72
    65
 73
     6
 40
15.500000
 49
8.000000
 49
-1.500000
 49
1.500000
 49
-1.500000
 49
1.500000
 49
-1.500000
  0
LTYPE
  2
DASHED1
 70
    64
  3
__ __ __ __ __ __ __ __ __ __ __ __ __ __ __
 72
    65
 73
     2
 40
1.500000
 49
1.000000
 49
-0.500000
  0
LTYPE
  2
DASHED2
 70
    64
  3
__ __ __ __ __ __ __ __ __ __ __ __ __ __ __
 72
    65
 73
     2
 40
3.500000
 49
2.500000
 49
-1.000000
  0
LTYPE
  2
DASHED3
 70
    64
  3
__ __ __ __ __ __ __ __ __ __ __ __ __ __ __
 72
    65
 73
     2
 40
6.000000
 49
4.000000
 49
-2.000000
  0
LTYPE
  2
DASHED4
 70
    64
  3
__ __ __ __ __ __ __ __ __ __ __ __ __ __ __
 72
    65
 73
     2
 40
12.000000
 49
10.000000
 49
-2.000000
  0
LTYPE
  2
DASHED5
 70
    64
  3
__ __ __ __ __ __ __ __ __ __ __ __ __ __ __
 72
    65
 73
     2
 40
17.000000
 49
15.000000
 49
-2.000000
  0
LTYPE
  2
DASHED6
 70
    64
  3
__ __ __ __ __ __ __ __ __ __ __ __ __ __ __
 72
    65
 73
     2
 40
29.000000
 49
27.000000
 49
-2.000000
  0
LTYPE
  2
PHANTOM1
 70
    64
  3
_____ _ _ _____ _ _ _____ _ _ _____ _ _ ____  
 72
    65
 73
     6
 40
31.000000
 49
25.000000
 49
-1.500000
 49
1.000000
 49
-1.000000
 49
1.000000
 49
-1.500000
  0
LTYPE
  2
PHANTOM2
 70
    64
  3
_____ _ _ _____ _ _ _____ _ _ _____ _ _ ____  
 72
    65
 73
     6
 40
36.000000
 49
27.000000
 49
-1.500000
 49
2.500000
 49
-1.000000
 49
2.500000
 49
-1.500000
  0
LTYPE
  2
PHANTOM3
 70
    64
  3
_____ _ _ _____ _ _ _____ _ _ _____ _ _ ____  
 72
    65
 73
     6
 40
78.000000
 49
64.000000
 49
-2.000000
 49
4.000000
 49
-2.000000
 49
4.000000
 49
-2.000000
  0
LTYPE
  2
CENTER1
 70
    64
  3
____ _ ____ _ ____ _ ____ _ ____ _ ____ _ ____
 72
    65
 73
     4
 40
19.000000
 49
14.000000
 49
-1.000000
 49
3.000000
 49
-1.000000
  0
LTYPE
  2
CENTER2
 70
    64
  3
____ _ ____ _ ____ _ ____ _ ____ _ ____ _ ____
 72
    65
 73
     4
 40
28.500000
 49
25.000000
 49
-1.000000
 49
1.500000
 49
-1.000000
  0
LTYPE
  2
CENTER3
 70
    64
  3
____ _ ____ _ ____ _ ____ _ ____ _ ____ _ ____
 72
    65
 73
     4
 40
31.500000
 49
27.000000
 49
-1.000000
 49
2.500000
 49
-1.000000
  0
LTYPE
  2
CENTER4
 70
    64
  3
____ _ ____ _ ____ _ ____ _ ____ _ ____ _ ____
 72
    65
 73
     4
 40
50.000000
 49
45.000000
 49
-1.000000
 49
3.000000
 49
-1.000000
  0
LTYPE
  2
CENTER5
 70
    64
  3
____ _ ____ _ ____ _ ____ _ ____ _ ____ _ ____
 72
    65
 73
     4
 40
100.000000
 49
92.000000
 49
-2.000000
 49
4.000000
 49
-2.000000
  0
LTYPE
  2
SBK1
 70
    64
  3
______ _ _ _ ______ _ _ _ ______ _ _ _ _____  
 72
    65
 73
     8
 40
60.500000
 49
45.000000
 49
-2.000000
 49
2.500000
 49
-2.000000
 49
2.500000
 49
-2.000000
 49
2.500000
 49
-2.000000
  0
LTYPE
  2
SBK2
 70
    64
  3
______ _ _ _ ______ _ _ _ ______ _ _ _ _____  
 72
    65
 73
     8
 40
84.000000
 49
64.000000
 49
-2.000000
 49
4.000000
 49
-2.000000
 49
4.000000
 49
-2.000000
 49
4.000000
 49
-2.000000
  0
LTYPE
  2
STCH
 70
    64
  3
__ __ __ __ __ __ __ __ __ __ __ __ __ __ __
 72
    65
 73
     2
 40
3.000000
 49
1.000000
 49
-2.000000
  0
LTYPE
  2
MTCH
 70
    64
  3
_____ _ _ _____ _ _ _____ _ _ _____ _ _ ____  
 72
    65
 73
     6
 40
80.000000
 49
66.000000
 49
-2.000000
 49
4.000000
 49
-2.000000
 49
4.000000
 49
-2.000000
  0
ENDTAB
  0
TABLE
  2
LAYER
 70
     1
  0
LAYER
  2
0
 70
     0
 62
     7
  6
CONTINUOUS
  0
ENDTAB
  0
TABLE
  2
STYLE
 70
     1
  0
STYLE
  2
STANDARD
 70
     0
 40
0.000000
 41
1.000000
 50
0.000000
 71
     0
 42
0.200000
  3
txt
  4
BIGFONT
  0
ENDTAB
  0
TABLE
  2
VIEW
 70
     0
  0
ENDTAB
  0
ENDSEC
  0
SECTION
  2
BLOCKS
  0
ENDSEC
  0
SECTION
  2
ENTITIES
  0
LINE
  8
0
 10
-194.250000
 20
132.600006
 11
194.800003
 21
132.600006
  0
LINE
  8
0
 10
194.800003
 20
132.600006
 11
194.800003
 21
-133.500000
  0
LINE
  8
0
 10
-194.250000
 20
132.600006
 11
-194.250000
 21
-133.500000
  0
LINE
  8
0
 10
-194.250000
 20
-133.500000
 11
194.800003
 21
-133.500000
  0
LINE
  8
0
 10
109.800003
 20
-118.500000
 11
109.800003
 21
-133.500000
  0
LINE
  8
0
 10
109.800003
 20
-118.500000
 11
194.800003
 21
-118.500000
  0
LINE
  8
0
 10
109.800003
 20
132.600006
 11
109.800003
 21
117.600006
  0
LINE
  8
0
 10
109.800003
 20
117.600006
 11
194.800003
 21
117.600006
  0
LINE
  8
0
 10
-194.250000
 20
117.600006
 11
-109.250000
 21
117.600006
  0
LINE
  8
0
 10
-109.250000
 20
132.600006
 11
-109.250000
 21
117.600006
  0
LINE
  8
0
  6
DASHED
 62
     4
 10
-93.096405
 20
-71.709518
 11
-71.096405
 21
-71.709518
  0
LINE
  8
0
  6
DASHED
 62
     4
 10
-93.096405
 20
-75.809525
 11
-71.096405
 21
-75.809525
  0
LINE
  8
0
  6
DASHED
 62
     4
 10
-93.096405
 20
-71.709518
 11
-93.096405
 21
-72.159523
  0
LINE
  8
0
  6
DASHED
 62
     4
 10
-71.096405
 20
-71.709518
 11
-71.096405
 21
-72.159523
  0
LINE
  8
0
  6
DASHED
 62
     4
 10
-93.096405
 20
-75.359520
 11
-93.096405
 21
-75.809525
  0
LINE
  8
0
  6
DASHED
 62
     4
 10
-71.096405
 20
-75.359520
 11
-71.096405
 21
-75.809525
  0
LINE
  8
0
  6
DASHED
 62
     4
 10
59.714737
 20
-70.759506
 11
76.628716
 21
-70.759506
  0
LINE
  8
0
  6
DASHED
 62
     4
 10
59.714737
 20
-66.659515
 11
76.628716
 21
-66.659515
  0
LINE
  8
0
  6
DASHED
 62
     4
 10
59.714737
 20
-67.109512
 11
59.714737
 21
-66.659515
  0
LINE
  8
0
  6
DASHED
 62
     4
 10
59.714737
 20
-70.309509
 11
59.714737
 21
-70.759506
  0
LINE
  8
0
  6
DASHED
 62
     4
 10
-93.096405
 20
-116.309525
 11
-71.096405
 21
-116.309525
  0
LINE
  8
0
  6
DASHED
 62
     4
 10
-88.396393
 20
-120.909523
 11
-71.096405
 21
-120.909523
  0
LINE
  8
0
  6
DASHED
 62
     4
 10
-71.096405
 20
-116.309525
 11
-71.096405
 21
-120.909523
  0
LINE
  8
0
  6
DASHED
 62
     4
 10
-93.096405
 20
-118.109520
 11
-93.096405
 21
-116.309525
  0
LINE
  8
0
  6
DASHED
 62
     4
 10
-88.396393
 20
-119.351486
 11
-88.396393
 21
-120.909523
  0
LINE
  8
0
  6
DASHED
 62
     4
 10
-93.096405
 20
-118.109520
 11
-88.846390
 21
-118.109520
  0
LINE
  8
0
  6
DASHED
 62
     4
 10
-88.846390
 20
-118.109520
 11
-88.846390
 21
-119.351486
  0
LINE
  8
0
  6
DASHED
 62
     4
 10
-89.096390
 20
-118.109520
 11
-89.096390
 21
-118.909523
  0
LINE
  8
0
  6
DASHED
 62
     4
 10
-93.096405
 20
-118.109520
 11
-93.096405
 21
-118.909523
  0
LINE
  8
0
  6
DASHED
 62
     4
 10
-93.096405
 20
-118.909523
 11
-89.096390
 21
-118.909523
  0
LINE
  8
0
  6
DASHED
 62
     4
 10
-88.896393
 20
-118.109520
 11
-88.896393
 21
-120.109520
  0
LINE
  8
0
  6
DASHED
 62
     4
 10
-88.896393
 20
-120.109520
 11
-88.396393
 21
-120.109520
  0
LINE
  8
0
  6
DASHED
 62
     4
 10
-88.846390
 20
-119.351486
 11
-88.396393
 21
-119.351486
  0
LINE
  8
0
  6
DASHED
 62
     4
 10
-62.596375
 20
-117.309509
 11
-62.596375
 21
-119.909515
  0
LINE
  8
0
  6
CENTER
 62
     1
 10
-64.319275
 20
-118.159439
 11
-52.387207
 21
-118.159439
  0
LINE
  8
0
  6
CENTER
 62
     1
 10
-64.268982
 20
-119.059433
 11
-52.345337
 21
-119.059433
  0
LINE
  8
0
  6
DASHED
 62
     4
 10
-52.596375
 20
-117.909454
 11
-52.596375
 21
-118.409454
  0
LINE
  8
0
  6
DASHED
 62
     4
 10
-52.596375
 20
-118.809448
 11
-52.596375
 21
-119.309448
  0
LINE
  8
0
  6
DASHED
 62
     4
 10
-55.596375
 20
-117.709442
 11
-55.596375
 21
-119.509460
  0
LINE
  8
0
  6
DASHED
 62
     4
 10
-62.596375
 20
-119.509445
 11
-58.590820
 21
-119.509445
  0
LINE
  8
0
  6
DASHED
 62
     4
 10
-62.596375
 20
-118.609421
 11
-59.110413
 21
-118.609421
  0
LINE
  8
0
  6
DASHED
 62
     4
 10
-57.610413
 20
-118.609421
 11
-55.596375
 21
-118.609421
  0
LINE
  8
0
  6
DASHED
 62
     4
 10
-57.090820
 20
-119.509445
 11
-55.596375
 21
-119.509445
  0
LINE
  8
0
  6
DASHED
 62
     4
 10
-62.596375
 20
-117.709427
 11
-59.630066
 21
-117.709427
  0
LINE
  8
0
  6
DASHED
 62
     4
 10
-58.130066
 20
-117.709427
 11
-55.596375
 21
-117.709427
  0
LINE
  8
0
  6
DASHED
 62
     4
 10
-55.596375
 20
-117.909439
 11
-52.596375
 21
-117.909439
  0
LINE
  8
0
  6
DASHED
 62
     4
 10
-55.596375
 20
-118.409439
 11
-52.596375
 21
-118.409439
  0
LINE
  8
0
  6
DASHED
 62
     4
 10
-55.596375
 20
-118.809433
 11
-52.596375
 21
-118.809433
  0
LINE
  8
0
  6
DASHED
 62
     4
 10
-55.596375
 20
-119.309433
 11
-52.596375
 21
-119.309433
  0
LINE
  8
0
 62
     1
 10
-58.860394
 20
-116.444527
 11
-56.360394
 21
-120.774651
  0
LINE
  8
0
  6
CENTER
 62
     1
 10
-72.410767
 20
-118.609512
 11
-62.596375
 21
-118.609512
  0
LINE
  8
0
 62
     1
 10
-60.360474
 20
-116.444504
 11
-57.860474
 21
-120.774628
  0
LINE
  8
0
 62
     1
 10
-67.841148
 20
-116.444473
 11
-65.341148
 21
-120.774605
  0
LINE
  8
0
 62
     1
 10
-69.341118
 20
-116.444534
 11
-66.841118
 21
-120.774658
  0
LINE
  8
0
  6
DASHED
 62
     4
 10
-92.121399
 20
-120.309525
 11
-90.071396
 21
-120.309525
  0
LINE
  8
0
  6
DASHED
 62
     4
 10
-90.070984
 20
-120.309982
 11
-89.845993
 21
-120.084984
  0
LINE
  8
0
  6
DASHED
 62
     4
 10
-92.121346
 20
-120.309532
 11
-92.346344
 21
-120.084541
  0
LINE
  8
0
  6
DASHED
 62
     4
 10
-92.346390
 20
-118.908707
 11
-92.346390
 21
-120.084526
  0
LINE
  8
0
 62
     1
 10
-92.121399
 20
-118.908707
 11
-92.121399
 21
-120.309525
  0
LINE
  8
0
 62
     1
 10
-90.071396
 20
-118.908707
 11
-90.071396
 21
-120.309525
  0
LINE
  8
0
  6
DASHED
 62
     4
 10
-89.846390
 20
-118.908707
 11
-89.846390
 21
-120.084518
  0
LINE
  8
0
  6
DASHED
 62
     4
 10
-92.346390
 20
-120.084526
 11
-89.846390
 21
-120.084526
  0
LINE
  8
0
  6
DASHED
 62
     4
 10
-93.096405
 20
-117.309525
 11
-71.096405
 21
-117.309525
  0
LINE
  8
0
  6
DASHED
 62
     4
 10
-93.096405
 20
-116.759506
 11
-71.096405
 21
-116.759506
  0
LINE
  8
0
  6
DASHED
 62
     4
 10
-71.096405
 20
-117.309509
 11
-68.841705
 21
-117.309509
  0
LINE
  8
0
  6
DASHED
 62
     4
 10
-71.096405
 20
-119.909515
 11
-67.340607
 21
-119.909515
  0
LINE
  8
0
  6
DASHED
 62
     4
 10
-67.341675
 20
-117.309509
 11
-62.596375
 21
-117.309509
  0
LINE
  8
0
  6
DASHED
 62
     4
 10
-65.840576
 20
-119.909515
 11
-62.596375
 21
-119.909515
  0
LINE
  8
0
  6
DASHED
 62
     4
 10
59.714737
 20
-116.309525
 11
75.814743
 21
-116.309525
  0
LINE
  8
0
  6
DASHED
 62
     4
 10
64.414719
 20
-120.909523
 11
81.714737
 21
-120.909523
  0
LINE
  8
0
  6
DASHED
 62
     4
 10
59.714737
 20
-118.909523
 11
59.714737
 21
-116.309525
  0
LINE
  8
0
  6
DASHED
 62
     4
 10
64.414719
 20
-119.291679
 11
64.414719
 21
-120.909523
  0
LINE
  8
0
  6
CENTER
 62
     1
 10
61.714737
 20
-115.579269
 11
61.714737
 21
-121.482193
  0
LINE
  8
0
  6
DASHED
 62
     4
 10
59.714737
 20
-118.109528
 11
63.988541
 21
-118.109528
  0
LINE
  8
0
  6
DASHED
 62
     4
 10
59.714737
 20
-118.909523
 11
63.714737
 21
-118.909523
  0
LINE
  8
0
  6
DASHED
 62
     4
 10
63.714737
 20
-118.109520
 11
63.714737
 21
-118.909523
  0
LINE
  8
0
  6
DASHED
 62
     4
 10
63.914719
 20
-120.109528
 11
64.414719
 21
-120.109528
  0
LINE
  8
0
  6
DASHED
 62
     4
 10
63.914719
 20
-118.109528
 11
63.914719
 21
-120.109528
  0
LINE
  8
0
  6
DASHED
 62
     4
 10
63.988541
 20
-119.291679
 11
64.414719
 21
-119.291679
  0
LINE
  8
0
  6
DASHED
 62
     4
 10
63.988541
 20
-118.109528
 11
63.988541
 21
-119.291679
  0
LINE
  8
0
  6
DASHED
 62
     4
 10
59.714737
 20
-117.309525
 11
81.714737
 21
-117.309525
  0
LINE
  8
0
  6
DASHED
 62
     4
 10
59.714737
 20
-116.759521
 11
81.714737
 21
-116.759521
  0
LINE
  8
0
  6
DASHED
 62
     4
 10
60.689713
 20
-120.309525
 11
62.739731
 21
-120.309525
  0
LINE
  8
0
  6
DASHED
 62
     4
 10
62.740311
 20
-120.310059
 11
62.965302
 21
-120.085060
  0
LINE
  8
0
  6
DASHED
 62
     4
 10
60.689812
 20
-120.309402
 11
60.464825
 21
-120.084419
  0
LINE
  8
0
  6
DASHED
 62
     4
 10
60.464737
 20
-118.909523
 11
60.464737
 21
-120.084526
  0
LINE
  8
0
 62
     1
 10
60.689713
 20
-118.909523
 11
60.689713
 21
-120.309525
  0
LINE
  8
0
 62
     1
 10
62.739731
 20
-118.909523
 11
62.739731
 21
-120.309525
  0
LINE
  8
0
  6
DASHED
 62
     4
 10
62.964737
 20
-118.909523
 11
62.964737
 21
-120.084518
  0
LINE
  8
0
  6
DASHED
 62
     4
 10
60.464737
 20
-120.084526
 11
62.964737
 21
-120.084526
  0
LINE
  8
0
 62
     1
 10
60.689713
 20
-115.809525
 11
60.689713
 21
-116.309525
  0
LINE
  8
0
 62
     1
 10
62.739731
 20
-115.809525
 11
62.739731
 21
-116.309525
  0
LINE
  8
0
  6
DASHED
 62
     4
 10
81.714737
 20
-116.309525
 11
81.714737
 21
-120.909523
  0
LINE
  8
0
 10
68.975525
 20
-8.556377
 11
68.975525
 21
-44.556381
  0
LINE
  8
0
 10
80.975525
 20
-8.556377
 11
80.975525
 21
-44.556381
  0
LINE
  8
0
 10
92.975525
 20
-8.556377
 11
92.975525
 21
-44.556381
  0
LINE
  8
0
 10
104.975525
 20
-8.556377
 11
104.975525
 21
-44.556381
  0
LINE
  8
0
 10
116.975525
 20
-8.556377
 11
116.975525
 21
-44.556381
  0
LINE
  8
0
 10
128.975525
 20
-8.556377
 11
128.975525
 21
-44.556381
  0
LINE
  8
0
 10
140.975525
 20
-8.556377
 11
140.975525
 21
-44.556381
  0
LINE
  8
0
 10
188.975525
 20
-8.556377
 11
188.975525
 21
-44.556381
  0
LINE
  8
0
 10
43.975525
 20
-8.556377
 11
188.975525
 21
-8.556377
  0
LINE
  8
0
 10
43.975525
 20
-26.556377
 11
188.975525
 21
-26.556377
  0
LINE
  8
0
 10
43.975525
 20
-32.556377
 11
188.975525
 21
-32.556377
  0
LINE
  8
0
 10
43.975525
 20
-44.556381
 11
188.975525
 21
-44.556381
  0
LINE
  8
0
 10
68.975563
 20
-26.556372
 11
66.859642
 21
-14.556375
  0
LINE
  8
0
 10
43.975525
 20
-14.556377
 11
66.859604
 21
-14.556377
  0
LINE
  8
0
 10
43.975525
 20
-8.556377
 11
43.975525
 21
-44.556381
  0
LINE
  8
0
 10
43.975525
 20
-38.556381
 11
188.975525
 21
-38.556381
  0
LINE
  8
0
 10
152.975525
 20
-8.556377
 11
152.975525
 21
-44.556381
  0
LINE
  8
0
 10
164.975525
 20
-8.556377
 11
164.975525
 21
-44.556381
  0
LINE
  8
0
 10
176.975525
 20
-8.556377
 11
176.975525
 21
-44.556381
  0
LINE
  8
0
 10
-65.000000
 20
85.785721
 11
-65.000000
 21
14.214283
  0
LINE
  8
0
 10
7.000000
 20
85.785721
 11
7.000000
 21
14.214283
  0
LINE
  8
0
 10
-83.000008
 20
54.000008
 11
-83.000008
 21
46.000019
  0
LINE
  8
0
 10
-84.000015
 20
86.000015
 11
-84.000015
 21
14.000008
  0
LINE
  8
0
 10
-84.000008
 20
61.000023
 11
-65.000000
 21
61.000023
  0
LINE
  8
0
 10
-84.000008
 20
73.000015
 11
-65.000000
 21
73.000015
  0
LINE
  8
0
 10
-84.000008
 20
26.999992
 11
-65.000000
 21
26.999992
  0
LINE
  8
0
 10
-84.000008
 20
39.000008
 11
-65.000000
 21
39.000008
  0
LINE
  8
0
 10
-64.285713
 20
86.499985
 11
6.285721
 21
86.499985
  0
LINE
  8
0
  6
CENTER
 62
     2
 10
-96.400009
 20
66.999985
 11
-60.166668
 21
66.999985
  0
LINE
  8
0
  6
CENTER
 62
     2
 10
-96.800003
 20
50.000000
 11
13.599991
 21
50.000000
  0
LINE
  8
0
 10
-64.285713
 20
13.499996
 11
6.285721
 21
13.499996
  0
LINE
  8
0
 10
-94.000008
 20
86.000000
 11
-84.000008
 21
86.000000
  0
LINE
  8
0
 10
-94.000008
 20
14.000008
 11
-84.000008
 21
14.000008
  0
LINE
  8
0
 10
-84.000008
 20
46.000023
 11
-83.000008
 21
46.000023
  0
LINE
  8
0
 10
-84.000008
 20
53.999985
 11
-83.000008
 21
53.999985
  0
LINE
  8
0
  6
DASHED
 10
-84.000008
 20
70.160690
 11
-82.000015
 21
70.160690
  0
LINE
  8
0
 10
-84.000008
 20
63.839283
 11
-82.000015
 21
63.839283
  0
LINE
  8
0
 10
-82.000015
 20
70.160721
 11
-82.000015
 21
63.839314
  0
LINE
  8
0
 10
-82.000015
 20
70.160690
 11
-84.000008
 21
70.160690
  0
LINE
  8
0
 10
-84.000069
 20
68.053513
 11
-82.000084
 21
63.839272
  0
LINE
  8
0
 10
-82.000000
 20
70.160652
 11
-84.000000
 21
65.946388
  0
LINE
  8
0
 10
-82.000000
 20
36.160702
 11
-84.000000
 21
31.946436
  0
LINE
  8
0
 10
-84.000038
 20
34.053551
 11
-82.000038
 21
29.839289
  0
LINE
  8
0
 10
-82.000015
 20
36.160694
 11
-82.000015
 21
29.839306
  0
LINE
  8
0
 10
-82.000015
 20
29.839310
 11
-84.000008
 21
29.839310
  0
LINE
  8
0
 10
-82.000015
 20
36.160698
 11
-84.000008
 21
36.160698
  0
LINE
  8
0
  6
CENTER
 62
     2
 10
-92.500015
 20
21.999992
 11
-84.833344
 21
21.999992
  0
LINE
  8
0
  6
CENTER
 62
     2
 10
-92.833344
 20
78.000015
 11
-85.500008
 21
78.000015
  0
LINE
  8
0
  6
CENTER
 62
     2
 10
-89.000015
 20
82.166687
 11
-89.000015
 21
73.500015
  0
LINE
  8
0
  6
CENTER
 62
     2
 10
-89.000015
 20
26.833345
 11
-89.000015
 21
17.166664
  0
LINE
  8
0
  6
CENTER
 62
     2
 10
-25.000000
 20
87.749008
 11
-25.000000
 21
76.500015
  0
LINE
  8
0
  6
CENTER
 62
     2
 10
-50.000000
 20
55.500011
 11
-50.000000
 21
43.833340
  0
LINE
  8
0
  6
CENTER
 62
     2
 10
-10.000004
 20
56.500008
 11
-10.000004
 21
43.833340
  0
LINE
  8
0
  6
CENTER
 62
     2
 10
-30.987007
 20
16.999996
 11
-18.833336
 21
16.999996
  0
LINE
  8
0
  6
CENTER
 62
     2
 10
-30.500008
 20
83.000015
 11
-18.499992
 21
83.000015
  0
LINE
  8
0
  6
CENTER
 62
     2
 10
-25.000000
 20
23.234756
 11
-25.000000
 21
10.833328
  0
LINE
  8
0
 10
-72.711334
 20
54.618797
 11
-69.500015
 21
54.618797
  0
LINE
  8
0
 10
-72.711334
 20
52.309402
 11
-69.500015
 21
52.309402
  0
LINE
  8
0
 10
-72.711334
 20
47.690605
 11
-69.500015
 21
47.690605
  0
LINE
  8
0
 10
-72.711334
 20
45.381210
 11
-69.500015
 21
45.381210
  0
LINE
  8
0
 10
-69.500015
 20
54.618816
 11
-69.500015
 21
45.381210
  0
LINE
  8
0
 10
-67.480011
 20
54.118809
 11
-67.480011
 21
45.881222
  0
LINE
  8
0
 10
-73.000008
 20
54.118778
 11
-72.711311
 21
54.618820
  0
LINE
  8
0
 10
-73.000000
 20
45.881222
 11
-72.711311
 21
45.381195
  0
LINE
  8
0
 10
-67.191330
 20
54.618797
 11
-65.288696
 21
54.618797
  0
LINE
  8
0
 10
-67.191330
 20
45.381210
 11
-65.288673
 21
45.381210
  0
LINE
  8
0
 10
-65.000000
 20
54.118782
 11
-65.288681
 21
54.618782
  0
LINE
  8
0
 10
-65.000008
 20
45.881184
 11
-65.288689
 21
45.381180
  0
LINE
  8
0
 10
-67.479988
 20
54.118809
 11
-67.191315
 21
54.618805
  0
LINE
  8
0
 10
-67.480042
 20
45.881161
 11
-67.191368
 21
45.381165
  0
LINE
  8
0
 10
-67.191330
 20
47.690605
 11
-65.288673
 21
47.690605
  0
LINE
  8
0
 10
-67.191330
 20
52.309402
 11
-65.288673
 21
52.309402
  0
LINE
  8
0
 10
-69.500015
 20
52.500000
 11
-67.480011
 21
52.500000
  0
LINE
  8
0
 10
-69.500015
 20
47.500000
 11
-67.480011
 21
47.500000
  0
LINE
  8
0
  6
CENTER
 62
     2
 10
-69.500015
 20
47.905014
 11
-67.480011
 21
47.905014
  0
LINE
  8
0
  6
CENTER
 62
     2
 10
-69.500015
 20
52.094994
 11
-67.480011
 21
52.094994
  0
LINE
  8
0
  6
CENTER
 62
     2
 10
-96.000008
 20
33.000015
 11
-61.166664
 21
33.000015
  0
LINE
  8
0
 10
-94.000015
 20
86.000015
 11
-94.000015
 21
14.000008
  0
LINE
  8
0
 10
-73.000008
 20
54.118778
 11
-73.000008
 21
45.881222
  0
LINE
  8
0
 10
-21.199974
 20
86.499985
 11
-19.199986
 21
86.499985
  0
LINE
  8
0
 10
-64.285706
 20
86.499992
 11
-64.999985
 21
85.785713
  0
LINE
  8
0
 10
6.285693
 20
86.499985
 11
6.999980
 21
85.785698
  0
LINE
  8
0
 10
-65.000015
 20
14.214286
 11
-64.285728
 21
13.499998
  0
LINE
  8
0
 10
6.999969
 20
14.214339
 11
6.285682
 21
13.500052
  0
LINE
  8
0
 10
-48.145267
 20
54.099998
 11
-11.854725
 21
54.099998
  0
LINE
  8
0
 10
-65.000000
 20
79.800003
 11
-28.163841
 21
79.800003
  0
LINE
  8
0
 10
-65.000000
 20
76.599991
 11
7.000000
 21
76.599991
  0
LINE
  8
0
 10
-65.000000
 20
54.099998
 11
-51.854725
 21
54.099998
  0
LINE
  8
0
 10
-65.000000
 20
57.300003
 11
7.000000
 21
57.300003
  0
LINE
  8
0
 10
-21.836159
 20
79.800003
 11
7.000000
 21
79.800003
  0
LINE
  8
0
 10
-8.145267
 20
54.099998
 11
7.000000
 21
54.099998
  0
LINE
  8
0
  6
PHANTOM
 62
     3
 10
-78.000008
 20
95.499985
 11
-78.000008
 21
3.499996
  0
LINE
  8
0
  6
PHANTOM
 62
     3
 10
-37.500000
 20
103.251312
 11
-37.500000
 21
3.499996
  0
LINE
  8
0
  6
PHANTOM
 62
     3
 10
-17.500000
 20
91.499985
 11
-17.500000
 21
3.499996
  0
LINE
  8
0
 10
-154.285721
 20
13.499996
 11
-143.550003
 21
13.499996
  0
LINE
  8
0
 10
-154.285721
 20
86.499985
 11
-141.600006
 21
86.499985
  0
LINE
  8
0
  6
CENTER
 62
     2
 10
-157.258972
 20
50.000000
 11
-122.016518
 21
50.000000
  0
LINE
  8
0
  6
CENTER
 62
     2
 10
-146.748077
 20
66.999985
 11
-132.372864
 21
66.999985
  0
LINE
  8
0
  6
CENTER
 62
     2
 10
-147.057220
 20
33.000015
 11
-132.836578
 21
33.000015
  0
LINE
  8
0
 10
-154.500000
 20
86.000000
 11
-125.499992
 21
86.000000
  0
LINE
  8
0
 10
-154.500000
 20
14.000008
 11
-125.499992
 21
14.000008
  0
LINE
  8
0
  6
CENTER
 62
     2
 10
-140.000000
 20
90.062851
 11
-140.000000
 21
9.530685
  0
LINE
  8
0
 10
-125.499985
 20
86.000015
 11
-125.499985
 21
14.000008
  0
LINE
  8
0
 10
-154.500015
 20
86.000015
 11
-154.500015
 21
14.000008
  0
LINE
  8
0
 10
-155.000000
 20
85.785706
 11
-155.000000
 21
79.800003
  0
LINE
  8
0
 10
-125.000000
 20
85.785721
 11
-125.000000
 21
79.800003
  0
LINE
  8
0
  6
CENTER
 62
     2
 10
-143.192902
 20
16.999992
 11
-136.546295
 21
16.999992
  0
LINE
  8
0
 10
-155.000000
 20
54.099976
 11
-155.000000
 21
14.214283
  0
LINE
  8
0
 10
-138.399994
 20
86.499985
 11
-125.714287
 21
86.499985
  0
LINE
  8
0
 10
-125.000000
 20
54.099976
 11
-125.000000
 21
14.214283
  0
LINE
  8
0
 10
-143.550003
 20
13.499996
 11
-125.714287
 21
13.499996
  0
LINE
  8
0
 10
-137.500000
 20
34.443382
 11
-137.500000
 21
31.556641
  0
LINE
  8
0
 10
-142.500000
 20
34.443382
 11
-142.500000
 21
31.556641
  0
LINE
  8
0
 10
-142.500000
 20
34.443409
 11
-139.999985
 21
35.886791
  0
LINE
  8
0
 10
-139.999969
 20
30.113297
 11
-137.499985
 21
31.556667
  0
LINE
  8
0
 10
-140.000000
 20
35.886765
 11
-137.500000
 21
34.443390
  0
LINE
  8
0
 10
-142.500000
 20
31.556635
 11
-140.000000
 21
30.113260
  0
LINE
  8
0
 10
-142.500000
 20
68.443436
 11
-140.000015
 21
69.886803
  0
LINE
  8
0
 10
-142.500000
 20
68.443390
 11
-142.500000
 21
65.556641
  0
LINE
  8
0
 10
-142.500015
 20
65.556648
 11
-140.000015
 21
64.113274
  0
LINE
  8
0
 10
-140.000000
 20
64.113312
 11
-137.500015
 21
65.556679
  0
LINE
  8
0
 10
-137.500000
 20
68.443390
 11
-137.500000
 21
65.556641
  0
LINE
  8
0
 10
-139.999985
 20
69.886757
 11
-137.499985
 21
68.443382
  0
LINE
  8
0
 10
-143.599976
 20
86.000000
 11
-144.599976
 21
86.000000
  0
LINE
  8
0
 10
-132.100006
 20
86.000000
 11
-135.099991
 21
86.000000
  0
LINE
  8
0
  6
CENTER
 62
     2
 10
-143.621063
 20
83.000015
 11
-136.148804
 21
83.000015
  0
LINE
  8
0
 10
-124.999977
 20
42.100006
 11
-124.999977
 21
45.100014
  0
LINE
  8
0
 10
-154.285645
 20
86.499908
 11
-154.999924
 21
85.785614
  0
LINE
  8
0
 10
-125.714325
 20
86.500008
 11
-125.000038
 21
85.785713
  0
LINE
  8
0
 10
-154.999969
 20
14.214301
 11
-154.285690
 21
13.500014
  0
LINE
  8
0
 10
-125.000000
 20
14.214292
 11
-125.714279
 21
13.500001
  0
LINE
  8
0
 10
-125.000000
 20
57.300003
 11
-125.499992
 21
57.300003
  0
LINE
  8
0
 10
-125.000000
 20
54.099976
 11
-125.499992
 21
54.099976
  0
LINE
  8
0
 10
-155.000000
 20
76.599976
 11
-154.500015
 21
76.599976
  0
LINE
  8
0
 10
-155.000000
 20
79.800003
 11
-154.500015
 21
79.800003
  0
LINE
  8
0
 10
-141.600006
 20
86.499985
 11
-141.600006
 21
86.000000
  0
LINE
  8
0
 10
-138.399994
 20
86.499985
 11
-138.399994
 21
86.000000
  0
LINE
  8
0
 10
-155.000000
 20
54.099976
 11
-154.500015
 21
54.099976
  0
LINE
  8
0
 10
-155.000000
 20
57.300003
 11
-154.500015
 21
57.300003
  0
LINE
  8
0
 10
-155.000000
 20
76.599976
 11
-155.000000
 21
57.300003
  0
LINE
  8
0
 10
-125.000023
 20
79.800003
 11
-125.499992
 21
79.800003
  0
LINE
  8
0
 10
-125.000023
 20
76.599976
 11
-125.499992
 21
76.599976
  0
LINE
  8
0
 10
-125.000000
 20
76.599976
 11
-125.000000
 21
57.300003
  0
LINE
  8
0
  6
CENTER
 62
     2
 10
-156.500000
 20
83.000000
 11
-153.500000
 21
83.000000
  0
LINE
  8
0
  6
CENTER
 62
     2
 10
-156.500000
 20
17.000000
 11
-153.500000
 21
17.000000
  0
LINE
  8
0
  6
CENTER
 62
     2
 10
60.000000
 20
89.554886
 11
60.000000
 21
11.298218
  0
LINE
  8
0
 10
44.999985
 20
85.785721
 11
44.999985
 21
79.800003
  0
LINE
  8
0
 10
75.000000
 20
85.785721
 11
75.000000
 21
79.799988
  0
LINE
  8
0
 10
45.714279
 20
13.499996
 11
74.285706
 21
13.499996
  0
LINE
  8
0
 10
45.714279
 20
86.499985
 11
58.399963
 21
86.499985
  0
LINE
  8
0
  6
CENTER
 62
     2
 10
42.885223
 20
50.000000
 11
77.430969
 21
50.000000
  0
LINE
  8
0
  6
CENTER
 62
     2
 10
42.885223
 20
33.000015
 11
76.725937
 21
33.000015
  0
LINE
  8
0
  6
CENTER
 62
     2
 10
43.590256
 20
66.999985
 11
76.866959
 21
66.999985
  0
LINE
  8
0
 10
44.999985
 20
54.099976
 11
44.999985
 21
14.214283
  0
LINE
  8
0
 10
75.000000
 20
54.099953
 11
75.000000
 21
14.214283
  0
LINE
  8
0
 10
61.599991
 20
86.499985
 11
74.285706
 21
86.499985
  0
LINE
  8
0
 10
45.714272
 20
86.499992
 11
44.999989
 21
85.785706
  0
LINE
  8
0
 10
74.285561
 20
86.499863
 11
74.999855
 21
85.785583
  0
LINE
  8
0
 10
45.000000
 20
14.214317
 11
45.714291
 21
13.500025
  0
LINE
  8
0
 10
74.999985
 20
14.214296
 11
74.285698
 21
13.500014
  0
LINE
  8
0
 10
46.000153
 20
53.599991
 11
47.599960
 21
53.599991
  0
LINE
  8
0
 10
45.000046
 20
54.099998
 11
45.500031
 21
54.099998
  0
LINE
  8
0
 10
45.000046
 20
57.300003
 11
45.499725
 21
57.300003
  0
LINE
  8
0
 10
45.499931
 20
54.100021
 11
45.999924
 21
53.600029
  0
LINE
  8
0
 10
46.000015
 20
57.799988
 11
47.600006
 21
57.799988
  0
LINE
  8
0
 10
45.499805
 20
57.300083
 11
45.999828
 21
57.800102
  0
LINE
  8
0
 10
73.983521
 20
53.599945
 11
72.383530
 21
53.599945
  0
LINE
  8
0
 10
74.483353
 20
54.100174
 11
73.983360
 21
53.600185
  0
LINE
  8
0
 10
73.983551
 20
57.799950
 11
72.383530
 21
57.799950
  0
LINE
  8
0
 10
73.983551
 20
57.800045
 11
74.483536
 21
57.300056
  0
LINE
  8
0
 10
75.000000
 20
57.299980
 11
74.483551
 21
57.299980
  0
LINE
  8
0
 10
75.000000
 20
54.099953
 11
74.483536
 21
54.099953
  0
LINE
  8
0
  6
CENTER
 62
     2
 10
42.885223
 20
55.699989
 11
77.430969
 21
55.699989
  0
LINE
  8
0
  6
CENTER
 62
     2
 10
42.789810
 20
78.199982
 11
77.430969
 21
78.199982
  0
LINE
  8
0
 10
58.399963
 20
86.499985
 11
58.399963
 21
85.983521
  0
LINE
  8
0
 10
61.599991
 20
86.499985
 11
61.599991
 21
85.983521
  0
LINE
  8
0
 10
62.099991
 20
85.483505
 11
62.099991
 21
83.883514
  0
LINE
  8
0
 10
61.599857
 20
85.983345
 11
62.099850
 21
85.483353
  0
LINE
  8
0
 10
57.899994
 20
85.483536
 11
57.899994
 21
83.883514
  0
LINE
  8
0
 10
57.900009
 20
85.483505
 11
58.399998
 21
85.983498
  0
LINE
  8
0
 10
75.000000
 20
79.799973
 11
74.483551
 21
79.799973
  0
LINE
  8
0
 10
75.000000
 20
76.599945
 11
74.483536
 21
76.599945
  0
LINE
  8
0
 10
73.983521
 20
76.099945
 11
72.383530
 21
76.099945
  0
LINE
  8
0
 10
74.483360
 20
76.600143
 11
73.983368
 21
76.100151
  0
LINE
  8
0
 10
73.983551
 20
80.299942
 11
72.383530
 21
80.299942
  0
LINE
  8
0
 10
73.983543
 20
80.300003
 11
74.483536
 21
79.800018
  0
LINE
  8
0
 10
75.000000
 20
76.599960
 11
75.000000
 21
57.299984
  0
LINE
  8
0
 10
44.999985
 20
76.599976
 11
44.999985
 21
57.300003
  0
LINE
  8
0
 10
44.999985
 20
79.800003
 11
44.999985
 21
79.999985
  0
LINE
  8
0
 10
46.000153
 20
76.099991
 11
47.570007
 21
76.099991
  0
LINE
  8
0
 10
45.000046
 20
76.599991
 11
45.500031
 21
76.599991
  0
LINE
  8
0
 10
45.000046
 20
79.800003
 11
45.499725
 21
79.800003
  0
LINE
  8
0
 10
45.499966
 20
76.600021
 11
45.999954
 21
76.100029
  0
LINE
  8
0
 10
46.000015
 20
76.099991
 11
47.599960
 21
76.099991
  0
LINE
  8
0
 10
46.000015
 20
80.299988
 11
47.600006
 21
80.299988
  0
LINE
  8
0
 10
45.499802
 20
79.800079
 11
45.999825
 21
80.300102
  0
LINE
  8
0
  6
CENTER
 62
     2
 10
73.500000
 20
83.000000
 11
76.500000
 21
83.000000
  0
LINE
  8
0
  6
CENTER
 62
     2
 10
73.500000
 20
17.000000
 11
76.500000
 21
17.000000
  0
LINE
  8
0
 10
-84.000000
 20
-6.999996
 11
-84.000000
 21
-16.399998
  0
LINE
  8
0
 10
-83.000000
 20
-26.599995
 11
-83.000000
 21
-32.500004
  0
LINE
  8
0
 10
-65.000000
 20
-7.214291
 11
-65.000000
 21
-35.785725
  0
LINE
  8
0
 10
7.000000
 20
-7.214291
 11
7.000000
 21
-35.785725
  0
LINE
  8
0
 10
-64.285713
 20
-6.500004
 11
6.285721
 21
-6.500004
  0
LINE
  8
0
 10
-64.285713
 20
-36.500011
 11
6.285721
 21
-36.500011
  0
LINE
  8
0
  6
CENTER
 62
     2
 10
-96.399994
 20
-21.500011
 11
12.399994
 21
-21.500011
  0
LINE
  8
0
 10
-94.000000
 20
-35.999996
 11
-84.000000
 21
-35.999996
  0
LINE
  8
0
 10
-94.000000
 20
-6.999996
 11
-84.000000
 21
-6.999996
  0
LINE
  8
0
 10
-82.000000
 20
-15.500011
 11
-65.000000
 21
-15.500011
  0
LINE
  8
0
 10
-82.000000
 20
-27.500004
 11
-65.000000
 21
-27.500004
  0
LINE
  8
0
 10
-85.000000
 20
-16.399998
 11
-85.000000
 21
-26.599995
  0
LINE
  8
0
 10
-85.000000
 20
-26.599995
 11
-82.000000
 21
-26.599995
  0
LINE
  8
0
 10
-85.000000
 20
-16.399998
 11
-82.000000
 21
-16.399998
  0
LINE
  8
0
 10
-82.000000
 20
-15.499989
 11
-82.000000
 21
-16.399998
  0
LINE
  8
0
 10
-84.000000
 20
-26.599995
 11
-84.000000
 21
-35.999996
  0
LINE
  8
0
  6
CENTER
 62
     2
 10
-34.999996
 20
-17.937344
 11
-34.999996
 21
-25.619839
  0
LINE
  8
0
  6
CENTER
 62
     2
 10
-5.000000
 20
-17.697254
 11
-5.000000
 21
-25.379772
  0
LINE
  8
0
  6
CENTER
 62
     2
 10
-74.800003
 20
-28.499996
 11
-56.957031
 21
-28.499996
  0
LINE
  8
0
 10
-84.000000
 20
-32.500004
 11
-83.000000
 21
-32.500004
  0
LINE
  8
0
 10
-82.000000
 20
-26.599995
 11
-82.000000
 21
-27.500004
  0
LINE
  8
0
 10
-73.000008
 20
-27.500004
 11
-73.000008
 21
-31.999996
  0
LINE
  8
0
 10
-72.711334
 20
-32.500004
 11
-69.500015
 21
-32.500004
  0
LINE
  8
0
 10
-69.500015
 20
-28.499996
 11
-69.500015
 21
-32.500004
  0
LINE
  8
0
 10
-67.480011
 20
-27.500004
 11
-67.480011
 21
-31.999996
  0
LINE
  8
0
 10
-72.999985
 20
-31.999994
 11
-72.711311
 21
-32.499996
  0
LINE
  8
0
 10
-67.479996
 20
-32.000008
 11
-67.191330
 21
-32.499985
  0
LINE
  8
0
 10
-65.000015
 20
-31.999981
 11
-65.288689
 21
-32.499985
  0
LINE
  8
0
 10
-67.191330
 20
-32.500004
 11
-65.288673
 21
-32.500004
  0
LINE
  8
0
 10
-69.500015
 20
-30.999996
 11
-67.480011
 21
-30.999996
  0
LINE
  8
0
 62
     2
 10
-69.500015
 20
-30.595013
 11
-67.480011
 21
-30.595013
  0
LINE
  8
0
 10
-69.500015
 20
-28.499996
 11
-69.500015
 21
-27.500004
  0
LINE
  8
0
 10
-72.711334
 20
-28.499996
 11
-69.500015
 21
-28.499996
  0
LINE
  8
0
 10
-67.191330
 20
-28.499996
 11
-65.288673
 21
-28.499996
  0
LINE
  8
0
 10
-94.000000
 20
-6.999996
 11
-94.000000
 21
-35.999996
  0
LINE
  8
0
 10
-64.285728
 20
-6.499991
 11
-65.000008
 21
-7.214272
  0
LINE
  8
0
 10
6.285705
 20
-6.500022
 11
6.999984
 21
-7.214306
  0
LINE
  8
0
 10
-65.000000
 20
-35.785717
 11
-64.285713
 21
-36.500004
  0
LINE
  8
0
 10
6.999959
 20
-35.785702
 11
6.285677
 21
-36.499985
  0
LINE
  8
0
 10
-27.828430
 20
-12.500004
 11
-22.171555
 21
-12.500004
  0
LINE
  8
0
 10
-27.828430
 20
-30.499989
 11
-22.171555
 21
-30.499989
  0
LINE
  8
0
 10
-27.828423
 20
-6.500004
 11
-27.828423
 21
-12.500004
  0
LINE
  8
0
 10
-22.171555
 20
-6.500004
 11
-22.171555
 21
-12.500004
  0
LINE
  8
0
 10
-27.828423
 20
-30.499989
 11
-27.828423
 21
-36.500004
  0
LINE
  8
0
 10
-22.171555
 20
-30.499989
 11
-22.171555
 21
-36.500004
  0
LINE
  8
0
  6
CENTER
 62
     2
 10
-50.000000
 20
-35.000011
 11
-50.000000
 21
-38.000011
  0
LINE
  8
0
  6
CENTER
 62
     2
 10
-25.000000
 20
-35.000011
 11
-25.000000
 21
-38.000011
  0
LINE
  8
0
  6
CENTER
 62
     2
 10
-10.000000
 20
-35.000011
 11
-10.000000
 21
-38.000011
  0
LINE
  8
0
  6
PHANTOM
 62
     3
 10
-78.000000
 20
3.499996
 11
-78.000000
 21
-36.500011
  0
LINE
  8
0
  6
PHANTOM
 62
     3
 10
-30.000000
 20
3.499996
 11
-30.000000
 21
-43.109802
  0
LINE
  8
0
  6
PHANTOM
 62
     3
 10
-17.500000
 20
3.499996
 11
-17.500000
 21
-43.109802
  0
LINE
  8
0
  6
PHANTOM
 62
     3
 10
-30.000000
 20
3.499996
 11
-37.500000
 21
3.499996
  0
LINE
  8
0
  6
CENTER
 62
     1
 10
-91.096390
 20
-115.502808
 11
-91.096390
 21
-120.952629
  0
LINE
  8
0
 62
     4
 10
-92.346390
 20
-115.809525
 11
-92.346390
 21
-116.309525
  0
LINE
  8
0
 62
     1
 10
-92.121399
 20
-115.809525
 11
-92.121399
 21
-116.309525
  0
LINE
  8
0
 62
     1
 10
-90.071396
 20
-115.809525
 11
-90.071396
 21
-116.309525
  0
LINE
  8
0
 62
     4
 10
-89.846390
 20
-115.809525
 11
-89.846390
 21
-116.309525
  0
LINE
  8
0
 62
     4
 10
-92.346390
 20
-115.809525
 11
-89.846390
 21
-115.809525
  0
LINE
  8
0
  6
CENTER
 62
     1
 10
-137.639130
 20
-114.256554
 11
-137.639130
 21
-121.334137
  0
LINE
  8
0
 62
     4
 10
-139.689117
 20
-117.309525
 11
-139.689117
 21
-118.859520
  0
LINE
  8
0
 62
     4
 10
-139.689194
 20
-117.309486
 11
-139.139191
 21
-116.759476
  0
LINE
  8
0
 62
     4
 10
-139.139130
 20
-116.309525
 11
-139.139130
 21
-116.759521
  0
LINE
  8
0
 62
     4
 10
-139.139130
 20
-116.309525
 11
-136.139130
 21
-116.309525
  0
LINE
  8
0
 62
     4
 10
-136.139130
 20
-116.309525
 11
-136.139130
 21
-116.759521
  0
LINE
  8
0
 62
     4
 10
-135.589142
 20
-117.309479
 11
-136.139145
 21
-116.759483
  0
LINE
  8
0
 62
     4
 10
-135.589127
 20
-117.309525
 11
-135.589127
 21
-118.859520
  0
LINE
  8
0
 62
     4
 10
-139.689117
 20
-118.109520
 11
-135.589127
 21
-118.109520
  0
LINE
  8
0
 62
     4
 10
-139.689133
 20
-118.908707
 11
-135.589127
 21
-118.908707
  0
LINE
  8
0
 62
     4
 10
-138.664139
 20
-120.309525
 11
-136.614136
 21
-120.309525
  0
LINE
  8
0
 62
     4
 10
-136.613678
 20
-120.309982
 11
-136.388687
 21
-120.084969
  0
LINE
  8
0
 62
     4
 10
-138.664139
 20
-120.309578
 11
-138.889130
 21
-120.084579
  0
LINE
  8
0
 62
     4
 10
-138.889130
 20
-118.908707
 11
-138.889130
 21
-120.084526
  0
LINE
  8
0
 62
     1
 10
-138.664139
 20
-118.908707
 11
-138.664139
 21
-120.309525
  0
LINE
  8
0
 62
     1
 10
-136.614136
 20
-118.908707
 11
-136.614136
 21
-120.309525
  0
LINE
  8
0
 62
     4
 10
-136.389130
 20
-118.908707
 11
-136.389130
 21
-120.084518
  0
LINE
  8
0
 62
     4
 10
-138.889130
 20
-120.084526
 11
-136.389130
 21
-120.084526
  0
LINE
  8
0
 62
     4
 10
-138.889130
 20
-115.809525
 11
-138.889130
 21
-116.309525
  0
LINE
  8
0
 62
     1
 10
-138.664139
 20
-115.809525
 11
-138.664139
 21
-116.309525
  0
LINE
  8
0
 62
     1
 10
-136.614136
 20
-115.809525
 11
-136.614136
 21
-116.309525
  0
LINE
  8
0
 62
     4
 10
-136.389130
 20
-115.809525
 11
-136.389130
 21
-116.309525
  0
LINE
  8
0
 62
     4
 10
-138.889130
 20
-115.809525
 11
-136.389130
 21
-115.809525
  0
LINE
  8
0
  6
CENTER
 62
     1
 10
-95.896942
 20
-73.759521
 11
-65.688889
 21
-73.759521
  0
LINE
  8
0
 62
     4
 10
-93.096405
 20
-75.259521
 11
-71.096405
 21
-75.259521
  0
LINE
  8
0
 62
     4
 10
-93.096405
 20
-72.259521
 11
-71.096405
 21
-72.259521
  0
LINE
  8
0
  6
CENTER
 62
     1
 10
-91.096390
 20
-70.923019
 11
-91.096390
 21
-76.512344
  0
LINE
  8
0
 62
     1
 10
-70.007172
 20
-71.594421
 11
-67.507172
 21
-75.924553
  0
LINE
  8
0
 62
     4
 10
-71.096405
 20
-72.459518
 11
-69.507751
 21
-72.459518
  0
LINE
  8
0
 62
     4
 10
-71.096405
 20
-75.059525
 11
-68.006622
 21
-75.059525
  0
LINE
  8
0
 62
     4
 10
-92.105865
 20
-74.486176
 11
-90.360863
 21
-72.741173
  0
LINE
  8
0
 62
     4
 10
-91.823044
 20
-74.768997
 11
-90.078041
 21
-73.023994
  0
LINE
  8
0
 62
     4
 10
-93.096405
 20
-72.159523
 11
-93.096405
 21
-75.359520
  0
LINE
  8
0
 62
     4
 10
-71.096405
 20
-72.159523
 11
-71.096405
 21
-75.359520
  0
LINE
  8
0
 62
     4
 10
81.714737
 20
-109.409523
 11
81.714737
 21
-116.309525
  0
LINE
  8
0
  6
CENTER
 62
     1
 10
61.714737
 20
-115.579269
 11
61.714737
 21
-120.736198
  0
LINE
  8
0
 62
     4
 10
75.814713
 20
-109.409523
 11
75.814713
 21
-116.309525
  0
LINE
  8
0
 62
     4
 10
75.814743
 20
-109.409523
 11
81.714737
 21
-109.409523
  0
LINE
  8
0
 62
     4
 10
75.814713
 20
-115.159508
 11
81.714737
 21
-115.159508
  0
LINE
  8
0
 62
     4
 10
75.814713
 20
-115.909508
 11
81.714737
 21
-115.909508
  0
LINE
  8
0
 62
     4
 10
75.814713
 20
-110.909523
 11
81.714737
 21
-110.909523
  0
LINE
  8
0
 62
     4
 10
77.822098
 20
-100.909485
 11
80.422073
 21
-100.909485
  0
LINE
  8
0
  6
CENTER
 62
     1
 10
78.672012
 20
-102.632416
 11
78.672012
 21
-90.700333
  0
LINE
  8
0
  6
CENTER
 62
     1
 10
79.572006
 20
-102.582123
 11
79.572006
 21
-90.658478
  0
LINE
  8
0
 62
     4
 10
78.422012
 20
-90.909485
 11
78.922012
 21
-90.909485
  0
LINE
  8
0
 62
     4
 10
79.322006
 20
-90.909485
 11
79.822006
 21
-90.909485
  0
LINE
  8
0
 62
     4
 10
78.222000
 20
-93.909485
 11
80.022018
 21
-93.909485
  0
LINE
  8
0
 62
     4
 10
80.022018
 20
-100.909485
 11
80.022018
 21
-96.903938
  0
LINE
  8
0
 62
     4
 10
79.121994
 20
-100.909485
 11
79.121994
 21
-97.423553
  0
LINE
  8
0
 62
     4
 10
79.121994
 20
-95.923553
 11
79.121994
 21
-93.909485
  0
LINE
  8
0
 62
     4
 10
80.022018
 20
-95.403938
 11
80.022018
 21
-93.909485
  0
LINE
  8
0
 62
     4
 10
78.222000
 20
-100.909485
 11
78.222000
 21
-97.943176
  0
LINE
  8
0
 62
     4
 10
78.222000
 20
-96.443176
 11
78.222000
 21
-93.909485
  0
LINE
  8
0
 62
     4
 10
78.422012
 20
-93.909485
 11
78.422012
 21
-90.909485
  0
LINE
  8
0
 62
     4
 10
78.922012
 20
-93.909485
 11
78.922012
 21
-90.909485
  0
LINE
  8
0
 62
     4
 10
79.322006
 20
-93.909485
 11
79.322006
 21
-90.909485
  0
LINE
  8
0
 62
     4
 10
79.822006
 20
-93.909485
 11
79.822006
 21
-90.909485
  0
LINE
  8
0
 62
     1
 10
76.957130
 20
-97.173637
 11
81.287277
 21
-94.673630
  0
LINE
  8
0
  6
CENTER
 62
     1
 10
79.122086
 20
-110.723892
 11
79.122086
 21
-100.909485
  0
LINE
  8
0
 62
     1
 10
76.957047
 20
-98.673637
 11
81.287193
 21
-96.173622
  0
LINE
  8
0
 62
     1
 10
76.957031
 20
-106.154350
 11
81.287155
 21
-103.654350
  0
LINE
  8
0
 62
     1
 10
76.957077
 20
-107.654343
 11
81.287193
 21
-105.154350
  0
LINE
  8
0
 62
     4
 10
60.464737
 20
-115.809525
 11
60.464737
 21
-116.309525
  0
LINE
  8
0
 62
     1
 10
60.689713
 20
-115.809525
 11
60.689713
 21
-116.309525
  0
LINE
  8
0
 62
     1
 10
62.739731
 20
-115.809525
 11
62.739731
 21
-116.309525
  0
LINE
  8
0
 62
     4
 10
62.964737
 20
-115.809525
 11
62.964737
 21
-116.309525
  0
LINE
  8
0
 62
     4
 10
60.464737
 20
-115.809525
 11
62.964737
 21
-115.809525
  0
LINE
  8
0
 62
     4
 10
80.422073
 20
-109.409523
 11
80.422073
 21
-105.653687
  0
LINE
  8
0
 62
     4
 10
77.822098
 20
-109.409523
 11
77.822098
 21
-107.154778
  0
LINE
  8
0
 62
     4
 10
77.822098
 20
-105.654793
 11
77.822098
 21
-100.909485
  0
LINE
  8
0
 62
     4
 10
80.422073
 20
-104.153694
 11
80.422073
 21
-100.909485
  0
LINE
  8
0
 62
     4
 10
14.422012
 20
-110.909523
 11
18.922012
 21
-110.909523
  0
LINE
  8
0
 62
     4
 10
14.422012
 20
-109.409523
 11
14.422012
 21
-115.159523
  0
LINE
  8
0
 62
     4
 10
15.171953
 20
-115.909485
 11
14.421990
 21
-115.159523
  0
LINE
  8
0
 62
     4
 10
15.172012
 20
-116.759521
 11
15.172012
 21
-115.909523
  0
LINE
  8
0
 62
     4
 10
14.621999
 20
-117.309479
 11
15.172009
 21
-116.759468
  0
LINE
  8
0
 62
     4
 10
14.621994
 20
-117.309525
 11
14.621994
 21
-118.859520
  0
LINE
  8
0
 62
     4
 10
18.722000
 20
-117.309525
 11
18.722000
 21
-118.859520
  0
LINE
  8
0
 62
     4
 10
18.721991
 20
-117.309563
 11
18.171980
 21
-116.759552
  0
LINE
  8
0
 62
     4
 10
18.172012
 20
-116.759521
 11
18.172012
 21
-115.909523
  0
LINE
  8
0
 62
     4
 10
18.172071
 20
-115.909622
 11
18.922068
 21
-115.159622
  0
LINE
  8
0
 62
     4
 10
18.922012
 20
-109.409523
 11
18.922012
 21
-115.159523
  0
LINE
  8
0
  6
CENTER
 62
     1
 10
16.672012
 20
-103.748566
 11
16.672012
 21
-121.353638
  0
LINE
  8
0
 62
     4
 10
15.172012
 20
-116.309525
 11
18.172012
 21
-116.309525
  0
LINE
  8
0
 62
     4
 10
14.621994
 20
-118.109520
 11
18.722000
 21
-118.109520
  0
LINE
  8
0
 62
     4
 10
14.621994
 20
-118.911972
 11
18.722000
 21
-118.911972
  0
LINE
  8
0
 62
     4
 10
14.422012
 20
-109.409523
 11
18.922012
 21
-109.409523
  0
LINE
  8
0
 62
     1
 10
14.507029
 20
-107.654343
 11
18.837156
 21
-105.154343
  0
LINE
  8
0
 62
     4
 10
15.646988
 20
-120.309525
 11
17.697006
 21
-120.309525
  0
LINE
  8
0
 62
     4
 10
17.697527
 20
-120.310066
 11
17.922518
 21
-120.085068
  0
LINE
  8
0
 62
     4
 10
15.647052
 20
-120.309448
 11
15.422046
 21
-120.084442
  0
LINE
  8
0
 62
     4
 10
15.422012
 20
-118.911972
 11
15.422012
 21
-120.084526
  0
LINE
  8
0
 62
     1
 10
15.646988
 20
-118.911972
 11
15.646988
 21
-120.309525
  0
LINE
  8
0
 62
     1
 10
17.697006
 20
-118.911972
 11
17.697006
 21
-120.309525
  0
LINE
  8
0
 62
     4
 10
17.922012
 20
-118.911972
 11
17.922012
 21
-120.084518
  0
LINE
  8
0
 62
     4
 10
15.422012
 20
-120.084526
 11
17.922012
 21
-120.084526
  0
LINE
  8
0
 62
     4
 10
15.422012
 20
-115.809525
 11
15.422012
 21
-116.309525
  0
LINE
  8
0
 62
     1
 10
15.646988
 20
-115.809525
 11
15.646988
 21
-116.309525
  0
LINE
  8
0
 62
     1
 10
17.697006
 20
-115.809525
 11
17.697006
 21
-116.309525
  0
LINE
  8
0
 62
     4
 10
17.922012
 20
-115.809525
 11
17.922012
 21
-116.309525
  0
LINE
  8
0
 62
     4
 10
15.422012
 20
-115.809525
 11
17.922012
 21
-115.809525
  0
LINE
  8
0
 62
     4
 10
15.372025
 20
-107.154800
 11
15.372025
 21
-109.409523
  0
LINE
  8
0
 62
     4
 10
17.972000
 20
-105.653702
 11
17.972000
 21
-109.409523
  0
LINE
  8
0
  6
CENTER
 62
     1
 10
58.385544
 20
-68.709511
 11
83.294724
 21
-68.709511
  0
LINE
  8
0
 62
     4
 10
59.714737
 20
-70.209511
 11
76.275345
 21
-70.209511
  0
LINE
  8
0
 62
     4
 10
59.714737
 20
-67.209511
 11
76.275345
 21
-67.209511
  0
LINE
  8
0
 62
     4
 10
59.714737
 20
-67.109512
 11
59.714737
 21
-70.309509
  0
LINE
  8
0
  6
CENTER
 62
     1
 10
61.714737
 20
-65.873001
 11
61.714737
 21
-71.462326
  0
LINE
  8
0
 62
     4
 10
76.800705
 20
-66.459511
 11
81.714737
 21
-66.459511
  0
LINE
  8
0
 62
     4
 10
76.800705
 20
-70.959511
 11
81.714737
 21
-70.959511
  0
LINE
  8
0
 62
     4
 10
81.714737
 20
-66.459503
 11
81.714737
 21
-70.959503
  0
LINE
  8
0
 62
     4
 10
60.705276
 20
-69.436157
 11
62.450275
 21
-67.691154
  0
LINE
  8
0
 62
     4
 10
60.988094
 20
-69.718987
 11
62.733097
 21
-67.973984
  0
CIRCLE
  8
0
 62
     2
 10
-89.000015
 20
78.000015
 40
2.500000
  0
CIRCLE
  8
0
 62
     2
 10
-89.000015
 20
21.999992
 40
2.500000
  0
CIRCLE
  8
0
 10
-89.000015
 20
21.999992
 40
2.094999
  0
CIRCLE
  8
0
 10
-89.000015
 20
78.000015
 40
2.094999
  0
CIRCLE
  8
0
 10
-50.000000
 20
50.000000
 40
2.250000
  0
CIRCLE
  8
0
 10
-25.000000
 20
16.999996
 40
2.250000
  0
CIRCLE
  8
0
 10
-10.000004
 20
50.000000
 40
2.250000
  0
CIRCLE
  8
0
 10
-25.000000
 20
83.000015
 40
2.250000
  0
ARC
  8
0
 10
-67.453743
 20
46.535912
 40
2.453744
 50
331.927551
 51
28.072271
  0
ARC
  8
0
 10
-67.453743
 20
53.464096
 40
2.453744
 50
331.927551
 51
28.072271
  0
ARC
  8
0
 10
-74.381973
 20
50.000000
 40
9.381960
 50
345.750000
 51
14.249935
  0
ARC
  8
0
 10
-70.546265
 20
53.464096
 40
2.453744
 50
151.927567
 51
208.072433
  0
ARC
  8
0
 10
-63.618053
 20
50.000000
 40
9.381962
 50
165.750015
 51
194.249924
  0
ARC
  8
0
 10
-70.546265
 20
46.535912
 40
2.453744
 50
151.927567
 51
208.072433
  0
ARC
  8
0
 10
-65.026260
 20
53.464096
 40
2.453744
 50
151.927567
 51
208.072433
  0
ARC
  8
0
 10
-58.098034
 20
50.000000
 40
9.381962
 50
165.750015
 51
194.249924
  0
ARC
  8
0
 10
-65.026260
 20
46.535912
 40
2.453744
 50
151.927567
 51
208.072433
  0
ARC
  8
0
 10
-25.000000
 20
16.999996
 40
4.500000
 50
308.942535
 51
231.057480
  0
CIRCLE
  8
0
 10
-50.000000
 20
50.000000
 40
4.500000
  0
CIRCLE
  8
0
 10
-10.000004
 20
50.000000
 40
4.500000
  0
ARC
  8
0
 10
-25.000000
 20
83.000015
 40
4.499997
 50
128.943024
 51
51.056984
  0
CIRCLE
  8
0
 10
-140.000000
 20
66.999985
 40
5.500000
  0
CIRCLE
  8
0
 10
-140.000000
 20
33.000015
 40
5.500000
  0
CIRCLE
  8
0
 62
     2
 10
-140.000000
 20
83.000015
 40
2.000000
  0
CIRCLE
  8
0
 62
     2
 10
-140.000000
 20
16.999992
 40
2.000000
  0
CIRCLE
  8
0
 10
-140.000000
 20
83.000015
 40
1.620000
  0
CIRCLE
  8
0
 10
-140.000000
 20
16.999992
 40
1.620000
  0
CIRCLE
  8
0
 10
-140.000000
 20
66.999985
 40
5.000000
  0
CIRCLE
  8
0
 10
-140.000000
 20
33.000015
 40
5.000000
  0
CIRCLE
  8
0
 10
-140.000000
 20
66.999985
 40
4.500000
  0
CIRCLE
  8
0
 10
-140.000000
 20
33.000015
 40
4.500000
  0
CIRCLE
  8
0
 10
60.000000
 20
66.999985
 40
14.000001
  0
CIRCLE
  8
0
 10
60.000000
 20
33.000015
 40
14.000001
  0
ARC
  8
0
 10
47.599960
 20
55.699989
 40
2.099998
 50
270.000000
 51
89.999893
  0
ARC
  8
0
 10
72.383545
 20
55.699989
 40
2.099998
 50
90.000000
 51
270.000000
  0
ARC
  8
0
 10
60.000000
 20
83.883514
 40
2.099998
 50
180.000000
 51
0.000000
  0
ARC
  8
0
 10
72.383545
 20
78.199982
 40
2.099998
 50
90.000000
 51
270.000000
  0
ARC
  8
0
 10
47.599960
 20
78.199982
 40
2.099998
 50
270.000000
 51
89.999893
  0
CIRCLE
  8
0
 62
     2
 10
-34.999996
 20
-21.500011
 40
2.500000
  0
CIRCLE
  8
0
 62
     2
 10
-5.000000
 20
-21.500011
 40
2.500000
  0
CIRCLE
  8
0
 10
-34.999996
 20
-21.500011
 40
2.094999
  0
CIRCLE
  8
0
 10
-5.000000
 20
-21.500011
 40
2.094999
  0
CIRCLE
  8
0
 10
-34.999996
 20
-21.500011
 40
1.000000
  0
CIRCLE
  8
0
 10
-5.000000
 20
-21.500011
 40
1.000000
  0
ARC
  8
0
 10
-72.072556
 20
-30.499989
 40
7.072556
 50
343.573608
 51
16.426308
  0
ARC
  8
0
 10
-65.927444
 20
-30.499989
 40
7.072556
 50
163.573624
 51
196.426285
  0
ARC
  8
0
 10
-60.407452
 20
-30.499989
 40
7.072560
 50
163.573639
 51
196.426285
  0
ARC
  8
0
 10
-60.407452
 20
-26.500011
 40
7.072559
 50
188.128342
 51
196.426315
  0
ARC
  8
0
 10
-72.072556
 20
-26.500011
 40
7.072557
 50
343.573608
 51
351.871674
  0
ARC
  8
0
 10
-65.927444
 20
-26.500011
 40
7.072563
 50
188.128342
 51
196.426300
  0
ARC
  8
0
 62
     4
 10
-137.639130
 20
-118.859520
 40
2.050003
 50
180.000000
 51
270.000000
  0
ARC
  8
0
 62
     4
 10
-137.639130
 20
-118.859520
 40
2.050003
 50
270.000000
 51
0.000000
  0
CIRCLE
  8
0
 62
     1
 10
-91.096390
 20
-73.765808
 40
1.000000
  0
CIRCLE
  8
0
 62
     4
 10
-91.096390
 20
-73.765808
 40
1.250000
  0
ARC
  8
0
 62
     4
 10
16.672012
 20
-118.859520
 40
2.050000
 50
180.000000
 51
270.000000
  0
ARC
  8
0
 62
     4
 10
16.672012
 20
-118.859520
 40
2.050003
 50
271.259949
 51
0.000000
  0
ARC
  8
0
 62
     4
 10
79.214737
 20
-68.709511
 40
3.300002
 50
137.014145
 51
222.985855
  0
CIRCLE
  8
0
 62
     4
 10
79.122086
 20
-68.709511
 40
1.300000
  0
CIRCLE
  8
0
 62
     4
 10
79.443893
 20
-69.050514
 40
0.450000
  0
CIRCLE
  8
0
 62
     4
 10
78.832016
 20
-68.391357
 40
0.450000
  0
CIRCLE
  8
0
 62
     4
 10
79.443893
 20
-69.050514
 40
0.250000
  0
CIRCLE
  8
0
 62
     4
 10
78.832016
 20
-68.391357
 40
0.250000
  0
CIRCLE
  8
0
 62
     1
 10
61.714737
 20
-68.715797
 40
1.000000
  0
CIRCLE
  8
0
 62
     4
 10
61.714737
 20
-68.715797
 40
1.250000
  0
TEXT
  8
0
 10
115.907150
 20
122.050003
 40
4.500000
  1
DATE : APR ,1994
 50
0.000000
 41
1.052631
 51
0.000000
  7
STANDARD
  0
TEXT
  8
0
 10
113.700279
 20
-130.669998
 40
6.300000
  1
KOGANEI CORP.
 50
0.000000
 41
1.052632
 51
0.000000
  7
STANDARD
  0
TEXT
  8
0
 10
-190.392654
 20
122.050003
 40
4.500000
  1
TWIN ROD CYLINDER
 50
0.000000
 41
1.052632
 51
0.000000
  7
STANDARD
  0
TEXT
  8
0
 10
-186.892654
 20
104.550003
 40
4.500000
  1
MODEL:TBDA25*ST(10)
 50
0.000000
 41
1.052632
 51
0.000000
  7
STANDARD
  0
TEXT
  8
0
 62
     3
 10
-102.813057
 20
96.786232
 40
3.200000
  1
STRETCH LINE C
 50
0.000000
 41
1.052632
 51
0.000000
  7
STANDARD
  0
TEXT
  8
0
 62
     3
 10
-20.681009
 20
94.108192
 40
3.200000
  1
STRETCH LINE B
 50
0.000000
 41
1.052632
 51
0.000000
  7
STANDARD
  0
TEXT
  8
0
 62
     3
 10
-54.188427
 20
106.005814
 40
3.200000
  1
STRETCH LINE A
 50
0.000000
 41
1.052632
 51
0.000000
  7
STANDARD
  0
TEXT
  8
0
 10
73.168526
 20
-43.436378
 40
3.200000
  1
0
 50
0.000000
 41
1.052632
 51
0.000000
  7
STANDARD
  0
TEXT
  8
0
 10
83.568527
 20
-43.436378
 40
3.200000
  1
10
 50
0.000000
 41
1.052632
 51
0.000000
  7
STANDARD
  0
TEXT
  8
0
 10
95.568527
 20
-43.436378
 40
3.200000
  1
20
 50
0.000000
 41
1.052632
 51
0.000000
  7
STANDARD
  0
TEXT
  8
0
 10
107.568527
 20
-43.436378
 40
3.200000
  1
30
 50
0.000000
 41
1.052632
 51
0.000000
  7
STANDARD
  0
TEXT
  8
0
 10
119.568527
 20
-43.436378
 40
3.200000
  1
40
 50
0.000000
 41
1.052632
 51
0.000000
  7
STANDARD
  0
TEXT
  8
0
 10
131.568527
 20
-43.436378
 40
3.200000
  1
50
 50
0.000000
 41
1.052632
 51
0.000000
  7
STANDARD
  0
TEXT
  8
0
 10
155.568527
 20
-43.436378
 40
3.200000
  1
70
 50
0.000000
 41
1.052632
 51
0.000000
  7
STANDARD
  0
TEXT
  8
0
 10
47.668526
 20
-13.436378
 40
3.200000
  1
STROKE
 50
0.000000
 41
1.052632
 51
0.000000
  7
STANDARD
  0
TEXT
  8
0
 10
97.068527
 20
-7.436378
 40
3.200000
  1
STRETCH LIST
 50
0.000000
 41
1.052632
 51
0.000000
  7
STANDARD
  0
TEXT
  8
0
 10
131.568527
 20
-19.436378
 40
3.200000
  1
60
 50
0.000000
 41
1.052632
 51
0.000000
  7
STANDARD
  0
TEXT
  8
0
 10
177.968521
 20
-19.436377
 40
3.200000
  1
100
 50
0.000000
 41
1.052632
 51
0.000000
  7
STANDARD
  0
TEXT
  8
0
 10
119.568527
 20
-19.436378
 40
3.200000
  1
50
 50
0.000000
 41
1.052632
 51
0.000000
  7
STANDARD
  0
TEXT
  8
0
 10
107.568527
 20
-19.436378
 40
3.200000
  1
40
 50
0.000000
 41
1.052632
 51
0.000000
  7
STANDARD
  0
TEXT
  8
0
 10
95.568527
 20
-19.436378
 40
3.200000
  1
30
 50
0.000000
 41
1.052632
 51
0.000000
  7
STANDARD
  0
TEXT
  8
0
 10
83.568527
 20
-19.436378
 40
3.200000
  1
20
 50
0.000000
 41
1.052632
 51
0.000000
  7
STANDARD
  0
TEXT
  8
0
 10
71.568527
 20
-19.436378
 40
3.200000
  1
10
 50
0.000000
 41
1.052632
 51
0.000000
  7
STANDARD
  0
TEXT
  8
0
 10
143.568527
 20
-31.436378
 40
3.200000
  1
25
 50
0.000000
 41
1.052632
 51
0.000000
  7
STANDARD
  0
TEXT
  8
0
 10
167.568527
 20
-31.436378
 40
3.200000
  1
35
 50
0.000000
 41
1.052632
 51
0.000000
  7
STANDARD
  0
TEXT
  8
0
 10
131.568527
 20
-31.436378
 40
3.200000
  1
20
 50
0.000000
 41
1.052632
 51
0.000000
  7
STANDARD
  0
TEXT
  8
0
 10
119.568527
 20
-31.436378
 40
3.200000
  1
15
 50
0.000000
 41
1.052632
 51
0.000000
  7
STANDARD
  0
TEXT
  8
0
 10
107.568527
 20
-31.436378
 40
3.200000
  1
10
 50
0.000000
 41
1.052632
 51
0.000000
  7
STANDARD
  0
TEXT
  8
0
 10
97.168526
 20
-31.436378
 40
3.200000
  1
5
 50
0.000000
 41
1.052632
 51
0.000000
  7
STANDARD
  0
TEXT
  8
0
 10
73.168526
 20
-31.436378
 40
3.200000
  1
0
 50
0.000000
 41
1.052632
 51
0.000000
  7
STANDARD
  0
TEXT
  8
0
 10
176.368530
 20
-7.436378
 40
3.200000
  1
(mm)
 50
0.000000
 41
1.052632
 51
0.000000
  7
STANDARD
  0
TEXT
  8
0
 10
44.465000
 20
-20.056376
 40
3.200000
  1
STRETCH
 50
0.000000
 41
1.052632
 51
0.000000
  7
STANDARD
  0
TEXT
  8
0
 10
44.465000
 20
-24.856377
 40
3.200000
  1
  PLACE
 50
0.000000
 41
1.052632
 51
0.000000
  7
STANDARD
  0
TEXT
  8
0
 10
54.668526
 20
-31.436378
 40
3.200000
  1
A
 50
0.000000
 41
1.052632
 51
0.000000
  7
STANDARD
  0
TEXT
  8
0
 10
54.668526
 20
-37.436382
 40
3.200000
  1
B
 50
0.000000
 41
1.052632
 51
0.000000
  7
STANDARD
  0
TEXT
  8
0
 10
54.668526
 20
-43.436382
 40
3.200000
  1
C
 50
0.000000
 41
1.052632
 51
0.000000
  7
STANDARD
  0
TEXT
  8
0
 10
143.568527
 20
-37.436378
 40
3.200000
  1
35
 50
0.000000
 41
1.052632
 51
0.000000
  7
STANDARD
  0
TEXT
  8
0
 10
119.568527
 20
-37.436378
 40
3.200000
  1
25
 50
0.000000
 41
1.052632
 51
0.000000
  7
STANDARD
  0
TEXT
  8
0
 10
107.568527
 20
-37.436378
 40
3.200000
  1
20
 50
0.000000
 41
1.052632
 51
0.000000
  7
STANDARD
  0
TEXT
  8
0
 10
95.568527
 20
-37.436378
 40
3.200000
  1
15
 50
0.000000
 41
1.052632
 51
0.000000
  7
STANDARD
  0
TEXT
  8
0
 10
83.568527
 20
-37.436378
 40
3.200000
  1
10
 50
0.000000
 41
1.052632
 51
0.000000
  7
STANDARD
  0
TEXT
  8
0
 10
73.168526
 20
-37.436378
 40
3.200000
  1
0
 50
0.000000
 41
1.052632
 51
0.000000
  7
STANDARD
  0
TEXT
  8
0
 10
143.568527
 20
-19.436378
 40
3.200000
  1
70
 50
0.000000
 41
1.052632
 51
0.000000
  7
STANDARD
  0
TEXT
  8
0
 10
155.568527
 20
-19.436378
 40
3.200000
  1
80
 50
0.000000
 41
1.052632
 51
0.000000
  7
STANDARD
  0
TEXT
  8
0
 10
167.568527
 20
-19.436378
 40
3.200000
  1
90
 50
0.000000
 41
1.052632
 51
0.000000
  7
STANDARD
  0
TEXT
  8
0
 10
155.568527
 20
-31.436378
 40
3.200000
  1
30
 50
0.000000
 41
1.052632
 51
0.000000
  7
STANDARD
  0
TEXT
  8
0
 10
131.568527
 20
-37.436378
 40
3.200000
  1
30
 50
0.000000
 41
1.052632
 51
0.000000
  7
STANDARD
  0
TEXT
  8
0
 10
143.568527
 20
-43.436378
 40
3.200000
  1
60
 50
0.000000
 41
1.052632
 51
0.000000
  7
STANDARD
  0
TEXT
  8
0
 10
167.568527
 20
-37.436378
 40
3.200000
  1
45
 50
0.000000
 41
1.052632
 51
0.000000
  7
STANDARD
  0
TEXT
  8
0
 10
179.568527
 20
-43.436378
 40
3.200000
  1
90
 50
0.000000
 41
1.052632
 51
0.000000
  7
STANDARD
  0
TEXT
  8
0
 10
179.568527
 20
-31.436378
 40
3.200000
  1
40
 50
0.000000
 41
1.052632
 51
0.000000
  7
STANDARD
  0
TEXT
  8
0
 10
155.568527
 20
-37.436378
 40
3.200000
  1
40
 50
0.000000
 41
1.052632
 51
0.000000
  7
STANDARD
  0
TEXT
  8
0
 10
167.568527
 20
-43.436378
 40
3.200000
  1
80
 50
0.000000
 41
1.052632
 51
0.000000
  7
STANDARD
  0
TEXT
  8
0
 10
85.168526
 20
-31.436378
 40
3.200000
  1
0
 50
0.000000
 41
1.052632
 51
0.000000
  7
STANDARD
  0
TEXT
  8
0
 10
179.568527
 20
-37.436378
 40
3.200000
  1
50
 50
0.000000
 41
1.052632
 51
0.000000
  7
STANDARD
  0
TEXT
  8
0
 10
-179.959641
 20
-64.188126
 40
4.500000
  1
SENSOR
 50
0.000000
 41
1.052632
 51
0.000000
  7
STANDARD
  0
TEXT
  8
0
 10
-179.959641
 20
-70.938126
 40
4.500000
  1
 SWITCH:ZE135
 50
0.000000
 41
1.052632
 51
0.000000
  7
STANDARD
  0
TEXT
  8
0
 10
-143.959641
 20
-77.538132
 40
4.500000
  1
ZE155
 50
0.000000
 41
1.052632
 51
0.000000
  7
STANDARD
  0
TEXT
  8
0
 10
-143.959641
 20
-83.538132
 40
4.500000
  1
ZE101
 50
0.000000
 41
1.052632
 51
0.000000
  7
STANDARD
  0
TEXT
  8
0
 10
-143.959641
 20
-89.538132
 40
4.500000
  1
ZE102
 50
0.000000
 41
1.052632
 51
0.000000
  7
STANDARD
  0
TEXT
  8
0
 10
-22.959642
 20
-64.188126
 40
4.500000
  1
SENSOR
 50
0.000000
 41
1.052632
 51
0.000000
  7
STANDARD
  0
TEXT
  8
0
 10
-22.959644
 20
-70.938126
 40
4.500000
  1
 SWITCH:ZE235
 50
0.000000
 41
1.052632
 51
0.000000
  7
STANDARD
  0
TEXT
  8
0
 10
13.040357
 20
-77.538132
 40
4.500000
  1
ZE255
 50
0.000000
 41
1.052632
 51
0.000000
  7
STANDARD
  0
TEXT
  8
0
 10
13.040357
 20
-83.538132
 40
4.500000
  1
ZE201
 50
0.000000
 41
1.052632
 51
0.000000
  7
STANDARD
  0
TEXT
  8
0
 10
13.040357
 20
-89.538132
 40
4.500000
  1
ZE202
 50
0.000000
 41
1.052632
 51
0.000000
  7
STANDARD
  0
ENDSEC
  0
EOF
