  0
SECTION
  2
HEADER
  0
ENDSEC
  0
SECTION
  2
TABLES
  0
TABLE
  2
LTYPE
 70
     4
  0
LTYPE
  2
CONTINUOUS
 70
    64
  3
Solid line
 72
    65
 73
     0
 40
0.000000
  0
LTYPE
  2
DASHED
 70
    64
  3
__ __ __ __ __ __ __ __ __ __ __ __ __ __ __
 72
    65
 73
     2
 40
3.500000
 49
2.000000
 49
-1.500000
  0
LTYPE
  2
CENTER
 70
    64
  3
____ _ ____ _ ____ _ ____ _ ____ _ ____ _ ____
 72
    65
 73
     4
 40
17.500000
 49
13.000000
 49
-1.500000
 49
1.500000
 49
-1.500000
  0
LTYPE
  2
PHANTOM
 70
    64
  3
_____ _ _ _____ _ _ _____ _ _ _____ _ _ ____  
 72
    65
 73
     6
 40
15.500000
 49
8.000000
 49
-1.500000
 49
1.500000
 49
-1.500000
 49
1.500000
 49
-1.500000
  0
LTYPE
  2
DASHED1
 70
    64
  3
__ __ __ __ __ __ __ __ __ __ __ __ __ __ __
 72
    65
 73
     2
 40
1.500000
 49
1.000000
 49
-0.500000
  0
LTYPE
  2
DASHED2
 70
    64
  3
__ __ __ __ __ __ __ __ __ __ __ __ __ __ __
 72
    65
 73
     2
 40
3.500000
 49
2.500000
 49
-1.000000
  0
LTYPE
  2
DASHED3
 70
    64
  3
__ __ __ __ __ __ __ __ __ __ __ __ __ __ __
 72
    65
 73
     2
 40
6.000000
 49
4.000000
 49
-2.000000
  0
LTYPE
  2
DASHED4
 70
    64
  3
__ __ __ __ __ __ __ __ __ __ __ __ __ __ __
 72
    65
 73
     2
 40
12.000000
 49
10.000000
 49
-2.000000
  0
LTYPE
  2
DASHED5
 70
    64
  3
__ __ __ __ __ __ __ __ __ __ __ __ __ __ __
 72
    65
 73
     2
 40
17.000000
 49
15.000000
 49
-2.000000
  0
LTYPE
  2
DASHED6
 70
    64
  3
__ __ __ __ __ __ __ __ __ __ __ __ __ __ __
 72
    65
 73
     2
 40
29.000000
 49
27.000000
 49
-2.000000
  0
LTYPE
  2
PHANTOM1
 70
    64
  3
_____ _ _ _____ _ _ _____ _ _ _____ _ _ ____  
 72
    65
 73
     6
 40
31.000000
 49
25.000000
 49
-1.500000
 49
1.000000
 49
-1.000000
 49
1.000000
 49
-1.500000
  0
LTYPE
  2
PHANTOM2
 70
    64
  3
_____ _ _ _____ _ _ _____ _ _ _____ _ _ ____  
 72
    65
 73
     6
 40
36.000000
 49
27.000000
 49
-1.500000
 49
2.500000
 49
-1.000000
 49
2.500000
 49
-1.500000
  0
LTYPE
  2
PHANTOM3
 70
    64
  3
_____ _ _ _____ _ _ _____ _ _ _____ _ _ ____  
 72
    65
 73
     6
 40
78.000000
 49
64.000000
 49
-2.000000
 49
4.000000
 49
-2.000000
 49
4.000000
 49
-2.000000
  0
LTYPE
  2
CENTER1
 70
    64
  3
____ _ ____ _ ____ _ ____ _ ____ _ ____ _ ____
 72
    65
 73
     4
 40
19.000000
 49
14.000000
 49
-1.000000
 49
3.000000
 49
-1.000000
  0
LTYPE
  2
CENTER2
 70
    64
  3
____ _ ____ _ ____ _ ____ _ ____ _ ____ _ ____
 72
    65
 73
     4
 40
28.500000
 49
25.000000
 49
-1.000000
 49
1.500000
 49
-1.000000
  0
LTYPE
  2
CENTER3
 70
    64
  3
____ _ ____ _ ____ _ ____ _ ____ _ ____ _ ____
 72
    65
 73
     4
 40
31.500000
 49
27.000000
 49
-1.000000
 49
2.500000
 49
-1.000000
  0
LTYPE
  2
CENTER4
 70
    64
  3
____ _ ____ _ ____ _ ____ _ ____ _ ____ _ ____
 72
    65
 73
     4
 40
50.000000
 49
45.000000
 49
-1.000000
 49
3.000000
 49
-1.000000
  0
LTYPE
  2
CENTER5
 70
    64
  3
____ _ ____ _ ____ _ ____ _ ____ _ ____ _ ____
 72
    65
 73
     4
 40
100.000000
 49
92.000000
 49
-2.000000
 49
4.000000
 49
-2.000000
  0
LTYPE
  2
SBK1
 70
    64
  3
______ _ _ _ ______ _ _ _ ______ _ _ _ _____  
 72
    65
 73
     8
 40
60.500000
 49
45.000000
 49
-2.000000
 49
2.500000
 49
-2.000000
 49
2.500000
 49
-2.000000
 49
2.500000
 49
-2.000000
  0
LTYPE
  2
SBK2
 70
    64
  3
______ _ _ _ ______ _ _ _ ______ _ _ _ _____  
 72
    65
 73
     8
 40
84.000000
 49
64.000000
 49
-2.000000
 49
4.000000
 49
-2.000000
 49
4.000000
 49
-2.000000
 49
4.000000
 49
-2.000000
  0
LTYPE
  2
STCH
 70
    64
  3
__ __ __ __ __ __ __ __ __ __ __ __ __ __ __
 72
    65
 73
     2
 40
3.000000
 49
1.000000
 49
-2.000000
  0
LTYPE
  2
MTCH
 70
    64
  3
_____ _ _ _____ _ _ _____ _ _ _____ _ _ ____  
 72
    65
 73
     6
 40
80.000000
 49
66.000000
 49
-2.000000
 49
4.000000
 49
-2.000000
 49
4.000000
 49
-2.000000
  0
ENDTAB
  0
TABLE
  2
LAYER
 70
     1
  0
LAYER
  2
0
 70
     0
 62
     7
  6
CONTINUOUS
  0
ENDTAB
  0
TABLE
  2
STYLE
 70
     1
  0
STYLE
  2
STANDARD
 70
     0
 40
0.000000
 41
1.000000
 50
0.000000
 71
     0
 42
0.200000
  3
txt
  4
BIGFONT
  0
ENDTAB
  0
TABLE
  2
VIEW
 70
     0
  0
ENDTAB
  0
ENDSEC
  0
SECTION
  2
BLOCKS
  0
ENDSEC
  0
SECTION
  2
ENTITIES
  0
LINE
  8
0
  6
PHANTOM
 62
     3
 10
-2.999996
 20
67.749992
 11
14.899994
 21
58.999996
  0
LINE
  8
0
  6
PHANTOM
 62
     3
 10
14.900002
 20
59.000000
 11
14.900002
 21
43.750000
  0
LINE
  8
0
  6
PHANTOM
 62
     3
 10
-40.500000
 20
147.000000
 11
-40.500000
 21
43.750000
  0
LINE
  8
0
  6
PHANTOM
 62
     3
 10
27.500000
 20
127.000000
 11
27.500000
 21
43.750000
  0
LINE
  8
0
  6
PHANTOM
 62
     3
 10
-3.000000
 20
137.000000
 11
-3.000000
 21
67.750000
  0
LINE
  8
0
  6
CENTER
 62
     2
 10
-13.000008
 20
95.800003
 11
-13.000008
 21
83.800011
  0
LINE
  8
0
  6
CENTER
 62
     2
 10
36.999947
 20
96.199997
 11
36.999947
 21
84.010818
  0
LINE
  8
0
  6
CENTER
 62
     2
 10
16.999992
 20
123.000000
 11
16.999992
 21
111.101410
  0
LINE
  8
0
  6
CENTER
 62
     2
 10
11.199974
 20
62.499985
 11
22.805309
 21
62.499985
  0
LINE
  8
0
  6
CENTER
 62
     2
 10
10.506378
 20
117.499985
 11
23.199989
 21
117.499985
  0
LINE
  8
0
  6
CENTER
 62
     2
 10
16.999992
 20
68.473389
 11
16.999992
 21
56.280216
  0
LINE
  8
0
 10
-27.499931
 20
121.000000
 11
59.285744
 21
121.000000
  0
LINE
  8
0
 10
-27.500000
 20
58.999989
 11
59.285744
 21
58.999989
  0
LINE
  8
0
 10
30.523838
 20
121.000000
 11
32.523830
 21
121.000000
  0
LINE
  8
0
 10
59.285717
 20
121.000008
 11
60.000011
 21
120.285728
  0
LINE
  8
0
 10
60.000011
 20
59.714310
 11
59.285728
 21
59.000027
  0
LINE
  8
0
  6
CENTER
 62
     2
 10
-63.206131
 20
89.999985
 11
63.632599
 21
89.999985
  0
LINE
  8
0
 10
-27.999977
 20
115.799988
 11
13.379215
 21
115.799988
  0
LINE
  8
0
 10
-27.999985
 20
112.599991
 11
60.000023
 21
112.599991
  0
LINE
  8
0
 10
-28.000008
 20
92.599991
 11
-16.039732
 21
92.599991
  0
LINE
  8
0
 10
-27.999985
 20
95.799988
 11
60.000023
 21
95.799988
  0
LINE
  8
0
 10
20.620773
 20
115.799988
 11
60.000031
 21
115.799988
  0
LINE
  8
0
 10
-9.960281
 20
92.599991
 11
33.960312
 21
92.599991
  0
LINE
  8
0
 10
40.039764
 20
92.599991
 11
60.000023
 21
92.599991
  0
LINE
  8
0
 10
-27.999977
 20
120.499969
 11
-27.999977
 21
59.499973
  0
LINE
  8
0
 10
-36.999977
 20
94.118790
 11
-36.999977
 21
85.881180
  0
LINE
  8
0
 10
-46.999962
 20
93.999985
 11
-46.999962
 21
85.999977
  0
LINE
  8
0
 10
-47.999977
 20
120.499969
 11
-47.999977
 21
59.499973
  0
LINE
  8
0
 10
-57.999992
 20
120.499969
 11
-57.999992
 21
59.499973
  0
LINE
  8
0
  6
CENTER
 62
     2
 10
-56.234993
 20
67.999969
 11
-49.853485
 21
67.999969
  0
LINE
  8
0
  6
CENTER
 62
     2
 10
-56.583069
 20
111.999954
 11
-49.853485
 21
111.999954
  0
LINE
  8
0
 10
-47.999977
 20
98.999985
 11
-27.999985
 21
98.999985
  0
LINE
  8
0
 10
-47.999977
 20
108.999985
 11
-27.999985
 21
108.999985
  0
LINE
  8
0
 10
-47.999977
 20
70.999985
 11
-27.999985
 21
70.999985
  0
LINE
  8
0
 10
-47.999977
 20
80.999985
 11
-27.999985
 21
80.999985
  0
LINE
  8
0
 10
-47.999977
 20
93.999985
 11
-46.999977
 21
93.999985
  0
LINE
  8
0
 10
-47.999977
 20
85.999985
 11
-46.999977
 21
85.999985
  0
LINE
  8
0
  6
CENTER
 62
     2
 10
-64.795906
 20
103.999985
 11
-22.599987
 21
103.999985
  0
LINE
  8
0
  6
CENTER
 62
     2
 10
-65.180794
 20
75.999985
 11
-22.999985
 21
75.999985
  0
LINE
  8
0
  6
CENTER
 62
     2
 10
-52.999992
 20
115.570297
 11
-52.999992
 21
108.260574
  0
LINE
  8
0
  6
CENTER
 62
     2
 10
-52.999992
 20
71.363792
 11
-52.999992
 21
64.402122
  0
LINE
  8
0
 10
-47.999977
 20
106.861801
 11
-45.999985
 21
106.861801
  0
LINE
  8
0
 10
-47.999977
 20
101.138138
 11
-45.999985
 21
101.138138
  0
LINE
  8
0
 10
-47.999977
 20
78.861786
 11
-45.999985
 21
78.861786
  0
LINE
  8
0
 10
-47.999977
 20
73.138153
 11
-45.999985
 21
73.138153
  0
LINE
  8
0
 10
-45.999992
 20
106.861801
 11
-45.999992
 21
101.138153
  0
LINE
  8
0
 10
-45.999992
 20
78.861786
 11
-45.999992
 21
73.138153
  0
LINE
  8
0
 10
-36.711315
 20
94.618805
 11
-33.499992
 21
94.618805
  0
LINE
  8
0
 10
-36.711315
 20
92.309387
 11
-33.499992
 21
92.309387
  0
LINE
  8
0
 10
-36.711315
 20
87.690567
 11
-33.499992
 21
87.690567
  0
LINE
  8
0
 10
-36.711315
 20
85.381172
 11
-33.499992
 21
85.381172
  0
LINE
  8
0
 10
-33.499992
 20
94.618797
 11
-33.499992
 21
85.381165
  0
LINE
  8
0
 10
-30.479988
 20
94.118790
 11
-30.479988
 21
85.881180
  0
LINE
  8
0
 10
-36.999973
 20
94.118752
 11
-36.711273
 21
94.618782
  0
LINE
  8
0
 10
-37.000011
 20
85.881142
 11
-36.711342
 21
85.381142
  0
LINE
  8
0
 10
-30.191322
 20
94.618805
 11
-28.288681
 21
94.618805
  0
LINE
  8
0
 10
-30.191322
 20
85.381172
 11
-28.288658
 21
85.381172
  0
LINE
  8
0
 10
-28.000025
 20
94.118767
 11
-28.288698
 21
94.618752
  0
LINE
  8
0
 10
-27.999954
 20
85.881165
 11
-28.288630
 21
85.381165
  0
LINE
  8
0
 10
-30.479948
 20
94.118797
 11
-30.191277
 21
94.618790
  0
LINE
  8
0
 10
-30.480087
 20
85.881134
 11
-30.191401
 21
85.381119
  0
LINE
  8
0
 10
-30.191322
 20
87.690567
 11
-28.288658
 21
87.690567
  0
LINE
  8
0
 10
-30.191322
 20
92.309387
 11
-28.288658
 21
92.309387
  0
LINE
  8
0
 10
-33.499992
 20
92.499969
 11
-30.479996
 21
92.499969
  0
LINE
  8
0
 10
-33.499992
 20
87.499969
 11
-30.479996
 21
87.499969
  0
LINE
  8
0
 62
     2
 10
-33.499992
 20
87.904976
 11
-30.479996
 21
87.904976
  0
LINE
  8
0
 62
     2
 10
-33.499992
 20
92.095001
 11
-30.479996
 21
92.095001
  0
LINE
  8
0
 10
-57.999977
 20
59.499977
 11
-47.999977
 21
59.499977
  0
LINE
  8
0
 10
-57.999977
 20
120.499969
 11
-47.999977
 21
120.499969
  0
LINE
  8
0
 10
-27.499990
 20
120.999962
 11
-27.999979
 21
120.499969
  0
LINE
  8
0
 10
-27.999985
 20
59.499958
 11
-27.499994
 21
58.999966
  0
LINE
  8
0
 10
1.500008
 20
55.000004
 11
14.499992
 21
55.000004
  0
LINE
  8
0
 10
1.500008
 20
55.000004
 11
1.500008
 21
58.999985
  0
LINE
  8
0
 10
14.499992
 20
55.000004
 11
14.499992
 21
55.952042
  0
LINE
  8
0
 10
9.550499
 20
57.500004
 11
9.550499
 21
55.000004
  0
LINE
  8
0
 10
9.550499
 20
57.500008
 11
14.775242
 21
57.500008
  0
LINE
  8
0
 10
14.775246
 20
56.711727
 11
14.775246
 21
57.500019
  0
LINE
  8
0
 10
14.499992
 20
57.500004
 11
14.499992
 21
58.999985
  0
LINE
  8
0
 10
60.000031
 20
120.285675
 11
60.000031
 21
59.714272
  0
LINE
  8
0
 62
     2
 10
-45.999989
 20
78.861786
 11
-47.999981
 21
73.138153
  0
LINE
  8
0
 62
     2
 10
-45.999985
 20
73.138153
 11
-47.999977
 21
78.861786
  0
LINE
  8
0
 62
     2
 10
-45.999996
 20
106.861816
 11
-47.999985
 21
101.138184
  0
LINE
  8
0
 62
     2
 10
-45.999985
 20
101.138176
 11
-47.999981
 21
106.861816
  0
LINE
  8
0
  6
CENTER
 62
     2
 10
-141.899994
 20
89.999985
 11
-109.899986
 21
89.999985
  0
LINE
  8
0
 10
-137.285706
 20
120.999985
 11
-127.099976
 21
120.999985
  0
LINE
  8
0
  6
CENTER
 62
     2
 10
-132.371765
 20
76.000000
 11
-118.855461
 21
76.000000
  0
LINE
  8
0
  6
CENTER
 62
     2
 10
-132.168518
 20
104.000015
 11
-118.855461
 21
104.000015
  0
LINE
  8
0
  6
CENTER
 62
     2
 10
-125.500000
 20
125.799988
 11
-125.500000
 21
52.599991
  0
LINE
  8
0
 10
-113.499992
 20
120.500015
 11
-113.499992
 21
59.499996
  0
LINE
  8
0
 10
-137.500000
 20
120.500015
 11
-137.500000
 21
59.499996
  0
LINE
  8
0
 10
-112.999992
 20
120.285690
 11
-112.999992
 21
115.800003
  0
LINE
  8
0
 10
-138.000000
 20
120.285690
 11
-138.000000
 21
115.800003
  0
LINE
  8
0
 10
-112.999992
 20
92.599991
 11
-112.999992
 21
59.714272
  0
LINE
  8
0
 10
-138.000000
 20
92.600014
 11
-138.000000
 21
59.714272
  0
LINE
  8
0
  6
CENTER
 62
     2
 10
-128.713226
 20
117.499985
 11
-122.107521
 21
117.499985
  0
LINE
  8
0
  6
CENTER
 62
     2
 10
-128.713226
 20
62.499985
 11
-122.615639
 21
62.499985
  0
LINE
  8
0
 10
-128.000000
 20
105.443375
 11
-128.000000
 21
102.556641
  0
LINE
  8
0
 10
-122.999992
 20
105.443375
 11
-122.999992
 21
102.556641
  0
LINE
  8
0
 10
-125.500008
 20
106.886734
 11
-123.000008
 21
105.443359
  0
LINE
  8
0
 10
-128.000015
 20
102.556610
 11
-125.499992
 21
101.113220
  0
LINE
  8
0
 10
-128.000031
 20
105.443504
 11
-125.500046
 21
106.886871
  0
LINE
  8
0
 10
-125.500008
 20
101.113297
 11
-123.000015
 21
102.556671
  0
LINE
  8
0
 10
-128.000000
 20
77.443375
 11
-128.000000
 21
74.556625
  0
LINE
  8
0
 10
-122.999992
 20
77.443375
 11
-122.999992
 21
74.556625
  0
LINE
  8
0
 10
-125.500008
 20
78.886749
 11
-123.000008
 21
77.443375
  0
LINE
  8
0
 10
-128.000031
 20
74.556648
 11
-125.500000
 21
73.113258
  0
LINE
  8
0
 10
-128.000000
 20
77.443474
 11
-125.500008
 21
78.886848
  0
LINE
  8
0
 10
-125.500015
 20
73.113342
 11
-123.000015
 21
74.556717
  0
LINE
  8
0
 10
-137.500000
 20
59.499977
 11
-113.499992
 21
59.499977
  0
LINE
  8
0
 10
-137.285706
 20
58.999989
 11
-113.714287
 21
58.999989
  0
LINE
  8
0
 10
-137.500000
 20
120.500000
 11
-113.499992
 21
120.500000
  0
LINE
  8
0
 10
-137.285690
 20
120.999954
 11
-137.999969
 21
120.285675
  0
LINE
  8
0
 10
-113.714279
 20
121.000015
 11
-113.000008
 21
120.285728
  0
LINE
  8
0
 10
-137.999985
 20
59.714321
 11
-137.285690
 21
59.000023
  0
LINE
  8
0
 10
-113.000023
 20
59.714329
 11
-113.714317
 21
59.000038
  0
LINE
  8
0
 10
-137.999908
 20
95.800003
 11
-137.499939
 21
95.800003
  0
LINE
  8
0
 10
-137.999908
 20
92.600021
 11
-137.499939
 21
92.600021
  0
LINE
  8
0
 10
-112.999992
 20
112.599991
 11
-112.999992
 21
95.800003
  0
LINE
  8
0
 10
-113.000114
 20
115.800003
 11
-113.500084
 21
115.800003
  0
LINE
  8
0
 10
-113.000114
 20
112.599991
 11
-113.500084
 21
112.599991
  0
LINE
  8
0
 10
-113.000099
 20
95.800003
 11
-113.500053
 21
95.800003
  0
LINE
  8
0
 10
-113.000099
 20
92.599991
 11
-113.500053
 21
92.599991
  0
LINE
  8
0
 10
-127.099976
 20
120.999893
 11
-127.099976
 21
120.499924
  0
LINE
  8
0
 10
-123.899956
 20
120.999893
 11
-123.899956
 21
120.499924
  0
LINE
  8
0
 10
-137.999908
 20
112.600021
 11
-137.499939
 21
112.600021
  0
LINE
  8
0
 10
-137.999908
 20
115.800003
 11
-137.499939
 21
115.800003
  0
LINE
  8
0
 10
-138.000000
 20
112.600021
 11
-138.000000
 21
95.800003
  0
LINE
  8
0
 10
-123.899971
 20
120.999985
 11
-113.714272
 21
120.999985
  0
LINE
  8
0
 10
-135.000000
 20
54.999989
 11
-115.999992
 21
54.999989
  0
LINE
  8
0
 10
-115.999992
 20
58.999985
 11
-115.999992
 21
55.000004
  0
LINE
  8
0
 10
-135.000000
 20
58.999985
 11
-135.000000
 21
57.499985
  0
LINE
  8
0
 10
-135.275269
 20
57.499985
 11
-130.050507
 21
57.499985
  0
LINE
  8
0
 10
-130.050507
 20
57.500004
 11
-130.050507
 21
55.000004
  0
LINE
  8
0
 10
-135.275269
 20
56.711716
 11
-135.275269
 21
57.499985
  0
LINE
  8
0
 10
-135.000000
 20
56.049850
 11
-135.000000
 21
55.000004
  0
LINE
  8
0
 10
-129.468658
 20
58.999985
 11
-129.468658
 21
54.999985
  0
LINE
  8
0
 10
-121.531395
 20
58.999985
 11
-121.531395
 21
54.999985
  0
LINE
  8
0
  6
CENTER
 62
     2
 10
126.500122
 20
125.309792
 11
126.500122
 21
53.085030
  0
LINE
  8
0
 10
114.000122
 20
120.285789
 11
114.000122
 21
115.800056
  0
LINE
  8
0
 10
139.000122
 20
120.285789
 11
139.000122
 21
115.800072
  0
LINE
  8
0
 10
114.714355
 20
121.000069
 11
124.900055
 21
121.000069
  0
LINE
  8
0
  6
CENTER
 62
     2
 10
112.214264
 20
104.000084
 11
141.285065
 21
104.000084
  0
LINE
  8
0
  6
CENTER
 62
     2
 10
110.792999
 20
90.000053
 11
142.964722
 21
90.000053
  0
LINE
  8
0
  6
CENTER
 62
     2
 10
112.214264
 20
76.000069
 11
141.543488
 21
76.000069
  0
LINE
  8
0
 10
114.000122
 20
92.600044
 11
114.000122
 21
59.714340
  0
LINE
  8
0
 10
139.000122
 20
92.600060
 11
139.000122
 21
59.714340
  0
LINE
  8
0
 10
128.100098
 20
121.000069
 11
138.285828
 21
121.000069
  0
LINE
  8
0
 10
114.714386
 20
59.000057
 11
138.285828
 21
59.000057
  0
LINE
  8
0
 10
114.714363
 20
121.000069
 11
114.000084
 21
120.285789
  0
LINE
  8
0
 10
138.285812
 20
121.000114
 11
139.000092
 21
120.285820
  0
LINE
  8
0
 10
114.000069
 20
59.714314
 11
114.714355
 21
59.000038
  0
LINE
  8
0
 10
139.000107
 20
59.714375
 11
138.285812
 21
59.000080
  0
LINE
  8
0
 10
138.000061
 20
92.100060
 11
136.400085
 21
92.100060
  0
LINE
  8
0
 10
138.500153
 20
92.599998
 11
138.000153
 21
92.100021
  0
LINE
  8
0
 10
138.499924
 20
95.799873
 11
137.999924
 21
96.299858
  0
LINE
  8
0
 10
138.000061
 20
96.300056
 11
136.400085
 21
96.300056
  0
LINE
  8
0
 10
139.000031
 20
95.800072
 11
138.500061
 21
95.800072
  0
LINE
  8
0
 10
139.000031
 20
92.600060
 11
138.500214
 21
92.600060
  0
LINE
  8
0
 10
128.600098
 20
119.983620
 11
128.600098
 21
118.383629
  0
LINE
  8
0
 10
128.099945
 20
120.483452
 11
128.599945
 21
119.983459
  0
LINE
  8
0
 10
124.400116
 20
119.983635
 11
124.400116
 21
118.383629
  0
LINE
  8
0
 10
124.400093
 20
119.983582
 11
124.900131
 21
120.483612
  0
LINE
  8
0
 10
124.900085
 20
121.000069
 11
124.900085
 21
120.483650
  0
LINE
  8
0
 10
128.100098
 20
121.000069
 11
128.100098
 21
120.483620
  0
LINE
  8
0
  6
CENTER
 62
     2
 10
110.425354
 20
94.200058
 11
142.964722
 21
94.200058
  0
LINE
  8
0
  6
CENTER
 62
     2
 10
110.792999
 20
114.200066
 11
142.964722
 21
114.200066
  0
LINE
  8
0
 10
138.000061
 20
112.100060
 11
136.400085
 21
112.100060
  0
LINE
  8
0
 10
139.000031
 20
112.600060
 11
138.500214
 21
112.600060
  0
LINE
  8
0
 10
138.500153
 20
112.599983
 11
138.000153
 21
112.099998
  0
LINE
  8
0
 10
138.499924
 20
115.799911
 11
137.999939
 21
116.299896
  0
LINE
  8
0
 10
137.999786
 20
116.300056
 11
136.400085
 21
116.300056
  0
LINE
  8
0
 10
139.000092
 20
115.800072
 11
138.500061
 21
115.800072
  0
LINE
  8
0
 10
139.000122
 20
112.600060
 11
139.000122
 21
95.800072
  0
LINE
  8
0
 10
114.000122
 20
112.600044
 11
114.000122
 21
95.800049
  0
LINE
  8
0
 10
115.000244
 20
112.100060
 11
116.570129
 21
112.100060
  0
LINE
  8
0
 10
114.000092
 20
112.600060
 11
114.500092
 21
112.600060
  0
LINE
  8
0
 10
114.000092
 20
115.800056
 11
114.499817
 21
115.800056
  0
LINE
  8
0
 10
114.500046
 20
112.600021
 11
115.000031
 21
112.100037
  0
LINE
  8
0
 10
115.000153
 20
112.100060
 11
116.600098
 21
112.100060
  0
LINE
  8
0
 10
115.000153
 20
116.300041
 11
116.600098
 21
116.300041
  0
LINE
  8
0
 10
114.499886
 20
115.800179
 11
114.999893
 21
116.300194
  0
LINE
  8
0
 10
117.000122
 20
55.000057
 11
136.000092
 21
55.000057
  0
LINE
  8
0
 10
117.000122
 20
59.000053
 11
117.000122
 21
57.500053
  0
LINE
  8
0
 10
121.949615
 20
57.500053
 11
121.949615
 21
55.000053
  0
LINE
  8
0
 10
121.949615
 20
57.500053
 11
116.724854
 21
57.500053
  0
LINE
  8
0
 10
116.724854
 20
56.711784
 11
116.724854
 21
57.500053
  0
LINE
  8
0
 10
117.000122
 20
56.049919
 11
117.000122
 21
55.000053
  0
LINE
  8
0
 10
136.000092
 20
55.000053
 11
136.000092
 21
59.000053
  0
LINE
  8
0
 10
115.000244
 20
92.100060
 11
116.570129
 21
92.100060
  0
LINE
  8
0
 10
114.000092
 20
92.600060
 11
114.500092
 21
92.600060
  0
LINE
  8
0
 10
114.000092
 20
95.800056
 11
114.499817
 21
95.800056
  0
LINE
  8
0
 10
114.500046
 20
92.600021
 11
115.000031
 21
92.100037
  0
LINE
  8
0
 10
115.000153
 20
92.100060
 11
116.600098
 21
92.100060
  0
LINE
  8
0
 10
115.000153
 20
96.300041
 11
116.600098
 21
96.300041
  0
LINE
  8
0
 10
114.499893
 20
95.800194
 11
114.999916
 21
96.300217
  0
LINE
  8
0
  6
PHANTOM
 62
     3
 10
-40.500000
 20
43.750000
 11
-40.500000
 21
-3.500008
  0
LINE
  8
0
  6
PHANTOM
 62
     3
 10
27.499998
 20
43.750000
 11
27.499998
 21
-3.500008
  0
LINE
  8
0
 10
-58.000015
 20
26.500027
 11
-58.000015
 21
2.500027
  0
LINE
  8
0
 10
-47.000015
 20
10.400021
 11
-47.000015
 21
4.500011
  0
LINE
  8
0
 10
-48.000000
 20
26.500027
 11
-48.000000
 21
18.600033
  0
LINE
  8
0
 10
59.999855
 20
26.285725
 11
59.999855
 21
2.714291
  0
LINE
  8
0
 10
-28.000002
 20
26.285725
 11
-28.000002
 21
2.714291
  0
LINE
  8
0
 10
-37.000000
 20
9.500011
 11
-37.000000
 21
5.000027
  0
LINE
  8
0
  6
CENTER
 62
     2
 10
-61.400017
 20
14.500011
 11
66.227875
 21
14.500011
  0
LINE
  8
0
 10
-27.285723
 20
27.000011
 11
59.285568
 21
27.000011
  0
LINE
  8
0
 10
-27.285723
 20
2.000011
 11
59.285568
 21
2.000011
  0
LINE
  8
0
 10
-58.000008
 20
2.500011
 11
-48.000008
 21
2.500011
  0
LINE
  8
0
 10
-58.000008
 20
26.500027
 11
-48.000008
 21
26.500027
  0
LINE
  8
0
 10
-46.000015
 20
9.500011
 11
-28.000010
 21
9.500011
  0
LINE
  8
0
 10
-46.000015
 20
19.500011
 11
-28.000010
 21
19.500011
  0
LINE
  8
0
 10
-49.000000
 20
18.600033
 11
-49.000000
 21
10.400021
  0
LINE
  8
0
 10
-49.000008
 20
10.400021
 11
-46.000015
 21
10.400021
  0
LINE
  8
0
 10
-49.000008
 20
18.600018
 11
-46.000015
 21
18.600018
  0
LINE
  8
0
 10
-46.000015
 20
19.500011
 11
-46.000015
 21
18.600033
  0
LINE
  8
0
 10
-46.000015
 20
10.400021
 11
-46.000015
 21
9.500011
  0
LINE
  8
0
 10
-48.000000
 20
10.400021
 11
-48.000000
 21
2.500027
  0
LINE
  8
0
 10
-48.000008
 20
4.500011
 11
-47.000015
 21
4.500011
  0
LINE
  8
0
 10
-36.711342
 20
4.500011
 11
-33.500015
 21
4.500011
  0
LINE
  8
0
 10
-33.500015
 20
9.500011
 11
-33.500015
 21
4.500011
  0
LINE
  8
0
 10
-30.480013
 20
9.500011
 11
-30.480013
 21
5.000027
  0
LINE
  8
0
 10
-37.000031
 20
4.999998
 11
-36.711353
 21
4.499992
  0
LINE
  8
0
 10
-30.480001
 20
5.000005
 11
-30.191328
 21
4.500008
  0
LINE
  8
0
 10
-28.000040
 20
5.000016
 11
-28.288712
 21
4.500019
  0
LINE
  8
0
 10
-30.191347
 20
4.500011
 11
-28.288683
 21
4.500011
  0
LINE
  8
0
 10
-33.500015
 20
6.000011
 11
-30.480021
 21
6.000011
  0
LINE
  8
0
 62
     2
 10
-33.500015
 20
6.405010
 11
-30.480021
 21
6.405010
  0
LINE
  8
0
  6
CENTER
 62
     2
 10
-3.000002
 20
18.873028
 11
-3.000002
 21
10.216152
  0
LINE
  8
0
  6
CENTER
 62
     2
 10
47.999893
 20
18.488293
 11
47.999893
 21
10.408520
  0
LINE
  8
0
 10
-27.285755
 20
27.000027
 11
-28.000042
 21
26.285738
  0
LINE
  8
0
 10
-28.000013
 20
2.714302
 11
-27.285727
 21
2.000014
  0
LINE
  8
0
 10
59.285660
 20
27.000000
 11
59.999943
 21
26.285719
  0
LINE
  8
0
 10
59.999897
 20
2.714377
 11
59.285622
 21
2.000089
  0
LINE
  8
0
 10
1.499983
 20
24.000027
 11
1.499983
 21
18.468655
  0
LINE
  8
0
 10
14.499998
 20
24.000027
 11
14.499998
 21
22.645657
  0
LINE
  8
0
 10
1.499983
 20
24.000027
 11
10.854338
 21
24.000027
  0
LINE
  8
0
 10
1.499983
 20
5.000011
 11
2.854330
 21
5.000011
  0
LINE
  8
0
  6
CENTER
 62
     2
 10
7.999998
 20
25.500011
 11
7.999998
 21
3.500011
  0
LINE
  8
0
 10
1.499983
 20
6.354366
 11
1.499983
 21
5.000027
  0
LINE
  8
0
 10
5.145636
 20
5.000011
 11
14.499990
 21
5.000011
  0
LINE
  8
0
 10
13.145620
 20
24.000027
 11
14.499990
 21
24.000027
  0
LINE
  8
0
 10
14.499998
 20
20.354366
 11
14.499998
 21
5.000027
  0
LINE
  8
0
 10
1.499983
 20
10.531399
 11
1.499983
 21
8.645657
  0
LINE
  8
0
 10
15.063475
 20
27.000011
 11
15.063475
 21
21.500011
  0
LINE
  8
0
 10
18.936460
 20
27.000011
 11
18.936460
 21
21.500011
  0
LINE
  8
0
 10
15.063475
 20
7.500011
 11
15.063475
 21
2.000011
  0
LINE
  8
0
 10
18.936460
 20
7.500011
 11
18.936460
 21
2.000011
  0
LINE
  8
0
 10
2.833261
 20
8.666729
 11
5.166716
 21
6.333274
  0
LINE
  8
0
 10
2.833259
 20
6.333281
 11
5.166714
 21
8.666735
  0
LINE
  8
0
 10
10.833270
 20
22.666750
 11
13.166723
 21
20.333296
  0
LINE
  8
0
 10
10.833277
 20
20.333298
 11
13.166727
 21
22.666750
  0
LINE
  8
0
  6
PHANTOM
 62
     3
 10
14.900000
 20
43.750000
 11
14.900000
 21
-3.500008
  0
LINE
  8
0
 10
15.063475
 20
21.500011
 11
18.936460
 21
21.500011
  0
LINE
  8
0
 10
15.063475
 20
7.500011
 11
18.936460
 21
7.500011
  0
LINE
  8
0
 62
     4
 10
-37.341675
 20
-97.309509
 11
-32.596375
 21
-97.309509
  0
LINE
  8
0
 62
     4
 10
-41.096405
 20
-99.909515
 11
-37.340607
 21
-99.909515
  0
LINE
  8
0
 62
     4
 10
-35.840576
 20
-99.909515
 11
-32.596375
 21
-99.909515
  0
LINE
  8
0
 62
     4
 10
-63.096405
 20
-96.309525
 11
-41.096405
 21
-96.309525
  0
LINE
  8
0
 62
     4
 10
-58.396393
 20
-100.909523
 11
-41.096405
 21
-100.909523
  0
LINE
  8
0
 62
     4
 10
-41.096405
 20
-96.309525
 11
-41.096405
 21
-100.909523
  0
LINE
  8
0
 62
     4
 10
-63.096405
 20
-98.109520
 11
-63.096405
 21
-96.309525
  0
LINE
  8
0
 62
     4
 10
-58.396393
 20
-99.351486
 11
-58.396393
 21
-100.909523
  0
LINE
  8
0
 62
     4
 10
-63.096405
 20
-98.109520
 11
-58.846390
 21
-98.109520
  0
LINE
  8
0
  6
CENTER
 62
     1
 10
-61.096390
 20
-95.502808
 11
-61.096390
 21
-101.741425
  0
LINE
  8
0
 62
     4
 10
-58.846390
 20
-98.109520
 11
-58.846390
 21
-99.351486
  0
LINE
  8
0
 62
     4
 10
-59.096390
 20
-98.109520
 11
-59.096390
 21
-98.909523
  0
LINE
  8
0
 62
     4
 10
-63.096405
 20
-98.109520
 11
-63.096405
 21
-98.909523
  0
LINE
  8
0
 62
     4
 10
-63.096405
 20
-98.909523
 11
-59.096390
 21
-98.909523
  0
LINE
  8
0
 62
     4
 10
-58.896393
 20
-98.109520
 11
-58.896393
 21
-100.109520
  0
LINE
  8
0
 62
     4
 10
-58.896393
 20
-100.109520
 11
-58.396393
 21
-100.109520
  0
LINE
  8
0
 62
     4
 10
-58.846390
 20
-99.351486
 11
-58.396393
 21
-99.351486
  0
LINE
  8
0
 62
     4
 10
-32.596375
 20
-97.309509
 11
-32.596375
 21
-99.909515
  0
LINE
  8
0
  6
CENTER
 62
     1
 10
-34.319275
 20
-98.159439
 11
-22.387207
 21
-98.159439
  0
LINE
  8
0
  6
CENTER
 62
     1
 10
-34.268982
 20
-99.059433
 11
-22.345337
 21
-99.059433
  0
LINE
  8
0
 62
     4
 10
-22.596375
 20
-97.909454
 11
-22.596375
 21
-98.409454
  0
LINE
  8
0
 62
     4
 10
-22.596375
 20
-98.809448
 11
-22.596375
 21
-99.309448
  0
LINE
  8
0
 62
     4
 10
-25.596375
 20
-97.709442
 11
-25.596375
 21
-99.509460
  0
LINE
  8
0
 62
     4
 10
-32.596375
 20
-99.509445
 11
-28.590820
 21
-99.509445
  0
LINE
  8
0
 62
     4
 10
-32.596375
 20
-98.609421
 11
-29.110413
 21
-98.609421
  0
LINE
  8
0
 62
     4
 10
-27.610413
 20
-98.609421
 11
-25.596375
 21
-98.609421
  0
LINE
  8
0
 62
     4
 10
-27.090820
 20
-99.509445
 11
-25.596375
 21
-99.509445
  0
LINE
  8
0
 62
     4
 10
-32.596375
 20
-97.709427
 11
-29.630066
 21
-97.709427
  0
LINE
  8
0
 62
     4
 10
-28.130066
 20
-97.709427
 11
-25.596375
 21
-97.709427
  0
LINE
  8
0
 62
     4
 10
-25.596375
 20
-97.909439
 11
-22.596375
 21
-97.909439
  0
LINE
  8
0
 62
     4
 10
-25.596375
 20
-98.409439
 11
-22.596375
 21
-98.409439
  0
LINE
  8
0
 62
     4
 10
-25.596375
 20
-98.809433
 11
-22.596375
 21
-98.809433
  0
LINE
  8
0
 62
     4
 10
-25.596375
 20
-99.309433
 11
-22.596375
 21
-99.309433
  0
LINE
  8
0
 62
     1
 10
-28.860390
 20
-96.444504
 11
-26.360388
 21
-100.774628
  0
LINE
  8
0
  6
CENTER
 62
     1
 10
-42.410767
 20
-98.609512
 11
-32.596375
 21
-98.609512
  0
LINE
  8
0
 62
     1
 10
-30.360456
 20
-96.444473
 11
-27.860455
 21
-100.774597
  0
LINE
  8
0
 62
     1
 10
-37.841129
 20
-96.444450
 11
-35.341129
 21
-100.774582
  0
LINE
  8
0
 62
     1
 10
-39.341110
 20
-96.444519
 11
-36.841114
 21
-100.774635
  0
LINE
  8
0
 62
     4
 10
-62.121399
 20
-100.309525
 11
-60.071396
 21
-100.309525
  0
LINE
  8
0
 62
     4
 10
-60.070972
 20
-100.309967
 11
-59.845989
 21
-100.084976
  0
LINE
  8
0
 62
     4
 10
-62.121357
 20
-100.309540
 11
-62.346352
 21
-100.084549
  0
LINE
  8
0
 62
     4
 10
-62.346390
 20
-98.908707
 11
-62.346390
 21
-100.084526
  0
LINE
  8
0
 62
     1
 10
-62.121399
 20
-98.908707
 11
-62.121399
 21
-100.309525
  0
LINE
  8
0
 62
     1
 10
-60.071396
 20
-98.908707
 11
-60.071396
 21
-100.309525
  0
LINE
  8
0
 62
     4
 10
-59.846390
 20
-98.908707
 11
-59.846390
 21
-100.084518
  0
LINE
  8
0
 62
     4
 10
-62.346390
 20
-100.084526
 11
-59.846390
 21
-100.084526
  0
LINE
  8
0
 62
     4
 10
-62.346390
 20
-95.809525
 11
-62.346390
 21
-96.309525
  0
LINE
  8
0
 62
     1
 10
-62.121399
 20
-95.809525
 11
-62.121399
 21
-96.309525
  0
LINE
  8
0
 62
     1
 10
-60.071396
 20
-95.809525
 11
-60.071396
 21
-96.309525
  0
LINE
  8
0
 62
     4
 10
-59.846390
 20
-95.809525
 11
-59.846390
 21
-96.309525
  0
LINE
  8
0
 62
     4
 10
-62.346390
 20
-95.809525
 11
-59.846390
 21
-95.809525
  0
LINE
  8
0
 62
     4
 10
-63.096405
 20
-97.309525
 11
-41.096405
 21
-97.309525
  0
LINE
  8
0
 62
     4
 10
-63.096405
 20
-96.759506
 11
-41.096405
 21
-96.759506
  0
LINE
  8
0
 62
     4
 10
-41.096405
 20
-97.309509
 11
-38.841705
 21
-97.309509
  0
LINE
  8
0
 62
     4
 10
-108.889130
 20
-95.809525
 11
-106.389130
 21
-95.809525
  0
LINE
  8
0
  6
CENTER
 62
     1
 10
-107.639130
 20
-94.256554
 11
-107.639130
 21
-102.969315
  0
LINE
  8
0
 62
     4
 10
-109.689117
 20
-97.309525
 11
-109.689117
 21
-98.859520
  0
LINE
  8
0
 62
     4
 10
-109.689186
 20
-97.309502
 11
-109.139183
 21
-96.759491
  0
LINE
  8
0
 62
     4
 10
-109.139130
 20
-96.309525
 11
-109.139130
 21
-96.759521
  0
LINE
  8
0
 62
     4
 10
-109.139130
 20
-96.309525
 11
-106.139130
 21
-96.309525
  0
LINE
  8
0
 62
     4
 10
-106.139130
 20
-96.309525
 11
-106.139130
 21
-96.759521
  0
LINE
  8
0
 62
     4
 10
-105.589119
 20
-97.309471
 11
-106.139114
 21
-96.759460
  0
LINE
  8
0
 62
     4
 10
-105.589127
 20
-97.309525
 11
-105.589127
 21
-98.859520
  0
LINE
  8
0
 62
     4
 10
-109.689117
 20
-98.109520
 11
-105.589127
 21
-98.109520
  0
LINE
  8
0
 62
     4
 10
-109.689133
 20
-98.908707
 11
-105.589127
 21
-98.908707
  0
LINE
  8
0
 62
     4
 10
-108.664139
 20
-100.309525
 11
-106.614136
 21
-100.309525
  0
LINE
  8
0
 62
     4
 10
-106.613701
 20
-100.309998
 11
-106.388702
 21
-100.084984
  0
LINE
  8
0
 62
     4
 10
-108.664116
 20
-100.309563
 11
-108.889114
 21
-100.084564
  0
LINE
  8
0
 62
     4
 10
-108.889130
 20
-98.908707
 11
-108.889130
 21
-100.084526
  0
LINE
  8
0
 62
     1
 10
-108.664139
 20
-98.908707
 11
-108.664139
 21
-100.309525
  0
LINE
  8
0
 62
     1
 10
-106.614136
 20
-98.908707
 11
-106.614136
 21
-100.309525
  0
LINE
  8
0
 62
     4
 10
-106.389130
 20
-98.908707
 11
-106.389130
 21
-100.084518
  0
LINE
  8
0
 62
     4
 10
-108.889130
 20
-100.084526
 11
-106.389130
 21
-100.084526
  0
LINE
  8
0
 62
     4
 10
-108.889130
 20
-95.809525
 11
-108.889130
 21
-96.309525
  0
LINE
  8
0
 62
     1
 10
-108.664139
 20
-95.809525
 11
-108.664139
 21
-96.309525
  0
LINE
  8
0
 62
     1
 10
-106.614136
 20
-95.809525
 11
-106.614136
 21
-96.309525
  0
LINE
  8
0
 62
     4
 10
-106.389130
 20
-95.809525
 11
-106.389130
 21
-96.309525
  0
LINE
  8
0
  6
CENTER
 62
     1
 10
-65.896942
 20
-53.759521
 11
-35.688889
 21
-53.759521
  0
LINE
  8
0
 62
     4
 10
-63.096405
 20
-55.259521
 11
-41.096405
 21
-55.259521
  0
LINE
  8
0
 62
     4
 10
-63.096405
 20
-52.259521
 11
-41.096405
 21
-52.259521
  0
LINE
  8
0
 62
     4
 10
-63.096405
 20
-55.809525
 11
-41.096405
 21
-55.809525
  0
LINE
  8
0
 62
     4
 10
-63.096405
 20
-51.709518
 11
-41.096405
 21
-51.709518
  0
LINE
  8
0
 62
     4
 10
-63.096405
 20
-51.709518
 11
-63.096405
 21
-55.809525
  0
LINE
  8
0
 62
     4
 10
-41.096405
 20
-51.709518
 11
-41.096405
 21
-55.809525
  0
LINE
  8
0
  6
CENTER
 62
     1
 10
-61.096390
 20
-50.923019
 11
-61.096390
 21
-56.512344
  0
LINE
  8
0
 62
     4
 10
-62.141674
 20
-54.472595
 11
-60.408337
 21
-52.739258
  0
LINE
  8
0
 62
     4
 10
-61.788120
 20
-54.826176
 11
-60.154781
 21
-53.192837
  0
LINE
  8
0
 62
     1
 10
-40.007179
 20
-51.594425
 11
-37.507179
 21
-55.924553
  0
LINE
  8
0
 62
     4
 10
-41.096405
 20
-52.459518
 11
-39.507751
 21
-52.459518
  0
LINE
  8
0
 62
     4
 10
-41.096405
 20
-55.059525
 11
-38.006622
 21
-55.059525
  0
LINE
  8
0
 62
     4
 10
112.821899
 20
-85.654793
 11
112.821899
 21
-80.909485
  0
LINE
  8
0
 62
     4
 10
112.821899
 20
-89.409523
 11
112.821899
 21
-87.154778
  0
LINE
  8
0
 62
     4
 10
115.421875
 20
-84.153694
 11
115.421875
 21
-80.909485
  0
LINE
  8
0
 62
     4
 10
94.714539
 20
-96.309525
 11
110.814545
 21
-96.309525
  0
LINE
  8
0
 62
     4
 10
99.414520
 20
-100.909523
 11
116.714539
 21
-100.909523
  0
LINE
  8
0
 62
     4
 10
116.714539
 20
-89.409523
 11
116.714539
 21
-100.909523
  0
LINE
  8
0
 62
     4
 10
94.714539
 20
-98.909523
 11
94.714539
 21
-96.309525
  0
LINE
  8
0
 62
     4
 10
99.414520
 20
-99.291679
 11
99.414520
 21
-100.909523
  0
LINE
  8
0
  6
CENTER
 62
     1
 10
96.714539
 20
-95.579269
 11
96.714539
 21
-101.482193
  0
LINE
  8
0
 62
     4
 10
110.814514
 20
-89.409523
 11
110.814514
 21
-96.309525
  0
LINE
  8
0
 62
     4
 10
94.714539
 20
-98.109528
 11
98.988342
 21
-98.109528
  0
LINE
  8
0
 62
     4
 10
94.714539
 20
-98.909523
 11
98.714539
 21
-98.909523
  0
LINE
  8
0
 62
     4
 10
98.714539
 20
-98.109520
 11
98.714539
 21
-98.909523
  0
LINE
  8
0
 62
     4
 10
110.814545
 20
-89.409523
 11
116.714539
 21
-89.409523
  0
LINE
  8
0
 62
     4
 10
98.914520
 20
-100.109528
 11
99.414520
 21
-100.109528
  0
LINE
  8
0
 62
     4
 10
98.914520
 20
-98.109528
 11
98.914520
 21
-100.109528
  0
LINE
  8
0
 62
     4
 10
98.988342
 20
-99.291679
 11
99.414520
 21
-99.291679
  0
LINE
  8
0
 62
     4
 10
98.988342
 20
-98.109528
 11
98.988342
 21
-99.291679
  0
LINE
  8
0
 62
     4
 10
94.714539
 20
-97.309525
 11
116.714539
 21
-97.309525
  0
LINE
  8
0
 62
     4
 10
94.714539
 20
-96.759521
 11
116.714539
 21
-96.759521
  0
LINE
  8
0
 62
     4
 10
110.814514
 20
-95.159508
 11
116.714539
 21
-95.159508
  0
LINE
  8
0
 62
     4
 10
110.814514
 20
-95.909508
 11
116.714539
 21
-95.909508
  0
LINE
  8
0
 62
     4
 10
110.814514
 20
-90.909523
 11
116.714539
 21
-90.909523
  0
LINE
  8
0
 62
     4
 10
112.821899
 20
-80.909485
 11
115.421875
 21
-80.909485
  0
LINE
  8
0
  6
CENTER
 62
     1
 10
113.671814
 20
-82.632416
 11
113.671814
 21
-70.700333
  0
LINE
  8
0
  6
CENTER
 62
     1
 10
114.571808
 20
-82.582123
 11
114.571808
 21
-70.658478
  0
LINE
  8
0
 62
     4
 10
113.421814
 20
-70.909485
 11
113.921814
 21
-70.909485
  0
LINE
  8
0
 62
     4
 10
114.321808
 20
-70.909485
 11
114.821808
 21
-70.909485
  0
LINE
  8
0
 62
     4
 10
113.221802
 20
-73.909485
 11
115.021820
 21
-73.909485
  0
LINE
  8
0
 62
     4
 10
115.021820
 20
-80.909485
 11
115.021820
 21
-76.903938
  0
LINE
  8
0
 62
     4
 10
114.121796
 20
-80.909485
 11
114.121796
 21
-77.423553
  0
LINE
  8
0
 62
     4
 10
114.121796
 20
-75.923553
 11
114.121796
 21
-73.909485
  0
LINE
  8
0
 62
     4
 10
115.021820
 20
-75.403938
 11
115.021820
 21
-73.909485
  0
LINE
  8
0
 62
     4
 10
113.221802
 20
-80.909485
 11
113.221802
 21
-77.943176
  0
LINE
  8
0
 62
     4
 10
113.221802
 20
-76.443176
 11
113.221802
 21
-73.909485
  0
LINE
  8
0
 62
     4
 10
113.421814
 20
-73.909485
 11
113.421814
 21
-70.909485
  0
LINE
  8
0
 62
     4
 10
113.921814
 20
-73.909485
 11
113.921814
 21
-70.909485
  0
LINE
  8
0
 62
     4
 10
114.321808
 20
-73.909485
 11
114.321808
 21
-70.909485
  0
LINE
  8
0
 62
     4
 10
114.821808
 20
-73.909485
 11
114.821808
 21
-70.909485
  0
LINE
  8
0
 62
     1
 10
111.956955
 20
-77.173668
 11
116.287102
 21
-74.673645
  0
LINE
  8
0
  6
CENTER
 62
     1
 10
114.121887
 20
-90.723892
 11
114.121887
 21
-80.909485
  0
LINE
  8
0
 62
     1
 10
111.956856
 20
-78.673660
 11
116.287010
 21
-76.173645
  0
LINE
  8
0
 62
     1
 10
111.956825
 20
-86.154358
 11
116.286949
 21
-83.654350
  0
LINE
  8
0
 62
     1
 10
111.956871
 20
-87.654343
 11
116.286987
 21
-85.154350
  0
LINE
  8
0
 62
     4
 10
95.689514
 20
-100.309525
 11
97.739532
 21
-100.309525
  0
LINE
  8
0
 62
     4
 10
97.740097
 20
-100.310066
 11
97.965088
 21
-100.085068
  0
LINE
  8
0
 62
     4
 10
95.689598
 20
-100.309395
 11
95.464615
 21
-100.084412
  0
LINE
  8
0
 62
     4
 10
95.464539
 20
-98.909523
 11
95.464539
 21
-100.084526
  0
LINE
  8
0
 62
     1
 10
95.689514
 20
-98.909523
 11
95.689514
 21
-100.309525
  0
LINE
  8
0
 62
     1
 10
97.739532
 20
-98.909523
 11
97.739532
 21
-100.309525
  0
LINE
  8
0
 62
     4
 10
97.964539
 20
-98.909523
 11
97.964539
 21
-100.084518
  0
LINE
  8
0
 62
     4
 10
95.464539
 20
-100.084526
 11
97.964539
 21
-100.084526
  0
LINE
  8
0
 62
     4
 10
95.464539
 20
-95.809525
 11
95.464539
 21
-96.309525
  0
LINE
  8
0
 62
     1
 10
95.689514
 20
-95.809525
 11
95.689514
 21
-96.309525
  0
LINE
  8
0
 62
     1
 10
97.739532
 20
-95.809525
 11
97.739532
 21
-96.309525
  0
LINE
  8
0
 62
     4
 10
97.964539
 20
-95.809525
 11
97.964539
 21
-96.309525
  0
LINE
  8
0
 62
     4
 10
95.464539
 20
-95.809525
 11
97.964539
 21
-95.809525
  0
LINE
  8
0
 62
     4
 10
115.421875
 20
-89.409523
 11
115.421875
 21
-85.653687
  0
LINE
  8
0
 62
     4
 10
52.971802
 20
-85.653702
 11
52.971802
 21
-89.409523
  0
LINE
  8
0
 62
     4
 10
49.421814
 20
-90.909523
 11
53.921814
 21
-90.909523
  0
LINE
  8
0
 62
     4
 10
49.421814
 20
-89.409523
 11
49.421814
 21
-95.159523
  0
LINE
  8
0
 62
     4
 10
50.171764
 20
-95.909492
 11
49.421799
 21
-95.159531
  0
LINE
  8
0
 62
     4
 10
50.171814
 20
-96.759521
 11
50.171814
 21
-95.909523
  0
LINE
  8
0
 62
     4
 10
49.621777
 20
-97.309456
 11
50.171787
 21
-96.759445
  0
LINE
  8
0
 62
     4
 10
49.621796
 20
-97.309525
 11
49.621796
 21
-98.859520
  0
LINE
  8
0
 62
     4
 10
53.721802
 20
-97.309525
 11
53.721802
 21
-98.859520
  0
LINE
  8
0
 62
     4
 10
53.721794
 20
-97.309555
 11
53.171791
 21
-96.759552
  0
LINE
  8
0
 62
     4
 10
53.171814
 20
-96.759521
 11
53.171814
 21
-95.909523
  0
LINE
  8
0
 62
     4
 10
53.171894
 20
-95.909630
 11
53.921890
 21
-95.159630
  0
LINE
  8
0
 62
     4
 10
53.921814
 20
-89.409523
 11
53.921814
 21
-95.159523
  0
LINE
  8
0
  6
CENTER
 62
     1
 10
51.671814
 20
-83.748566
 11
51.671814
 21
-102.376190
  0
LINE
  8
0
 62
     4
 10
50.171814
 20
-96.309525
 11
53.171814
 21
-96.309525
  0
LINE
  8
0
 62
     4
 10
49.621796
 20
-98.109520
 11
53.721802
 21
-98.109520
  0
LINE
  8
0
 62
     4
 10
49.621796
 20
-98.911972
 11
53.721802
 21
-98.911972
  0
LINE
  8
0
 62
     4
 10
49.421814
 20
-89.409523
 11
53.921814
 21
-89.409523
  0
LINE
  8
0
 62
     1
 10
49.506836
 20
-87.654343
 11
53.836964
 21
-85.154350
  0
LINE
  8
0
 62
     4
 10
50.646790
 20
-100.309525
 11
52.696808
 21
-100.309525
  0
LINE
  8
0
 62
     4
 10
52.697315
 20
-100.310051
 11
52.922310
 21
-100.085052
  0
LINE
  8
0
 62
     4
 10
50.646858
 20
-100.309448
 11
50.421852
 21
-100.084442
  0
LINE
  8
0
 62
     4
 10
50.421814
 20
-98.911972
 11
50.421814
 21
-100.084526
  0
LINE
  8
0
 62
     1
 10
50.646790
 20
-98.911972
 11
50.646790
 21
-100.309525
  0
LINE
  8
0
 62
     1
 10
52.696808
 20
-98.911972
 11
52.696808
 21
-100.309525
  0
LINE
  8
0
 62
     4
 10
52.921814
 20
-98.911972
 11
52.921814
 21
-100.084518
  0
LINE
  8
0
 62
     4
 10
50.421814
 20
-100.084526
 11
52.921814
 21
-100.084526
  0
LINE
  8
0
 62
     4
 10
50.421814
 20
-95.809525
 11
50.421814
 21
-96.309525
  0
LINE
  8
0
 62
     1
 10
50.646790
 20
-95.809525
 11
50.646790
 21
-96.309525
  0
LINE
  8
0
 62
     1
 10
52.696808
 20
-95.809525
 11
52.696808
 21
-96.309525
  0
LINE
  8
0
 62
     4
 10
52.921814
 20
-95.809525
 11
52.921814
 21
-96.309525
  0
LINE
  8
0
 62
     4
 10
50.421814
 20
-95.809525
 11
52.921814
 21
-95.809525
  0
LINE
  8
0
 62
     4
 10
50.371826
 20
-87.154800
 11
50.371826
 21
-89.409523
  0
LINE
  8
0
  6
CENTER
 62
     1
 10
93.385345
 20
-48.709511
 11
118.294525
 21
-48.709511
  0
LINE
  8
0
 62
     4
 10
94.714539
 20
-50.209511
 11
111.275146
 21
-50.209511
  0
LINE
  8
0
 62
     4
 10
94.714539
 20
-47.209511
 11
111.275146
 21
-47.209511
  0
LINE
  8
0
 62
     4
 10
94.714539
 20
-50.759506
 11
111.628510
 21
-50.759506
  0
LINE
  8
0
 62
     4
 10
94.714539
 20
-46.659508
 11
111.628510
 21
-46.659508
  0
LINE
  8
0
 62
     4
 10
94.714539
 20
-46.659500
 11
94.714539
 21
-50.759506
  0
LINE
  8
0
  6
CENTER
 62
     1
 10
96.714539
 20
-45.873001
 11
96.714539
 21
-51.462326
  0
LINE
  8
0
 62
     4
 10
111.800507
 20
-46.459511
 11
116.714539
 21
-46.459511
  0
LINE
  8
0
 62
     4
 10
111.800507
 20
-50.959511
 11
116.714539
 21
-50.959511
  0
LINE
  8
0
 62
     4
 10
116.714539
 20
-46.459503
 11
116.714539
 21
-50.959503
  0
LINE
  8
0
 62
     4
 10
96.068794
 20
-49.779846
 11
97.784897
 21
-48.063740
  0
LINE
  8
0
 62
     4
 10
95.644516
 20
-49.355518
 11
97.360611
 21
-47.639423
  0
LINE
  8
0
 10
-281.250000
 20
195.500000
 11
282.099976
 21
195.500000
  0
LINE
  8
0
 10
-281.250000
 20
195.500000
 11
-281.250000
 21
-195.000000
  0
LINE
  8
0
 10
282.099976
 20
195.500000
 11
282.099976
 21
-195.000000
  0
LINE
  8
0
 10
-281.250000
 20
-195.000000
 11
282.099976
 21
-195.000000
  0
LINE
  8
0
 10
162.099976
 20
-175.000000
 11
162.099976
 21
-195.000000
  0
LINE
  8
0
 10
162.099976
 20
-175.000000
 11
282.099976
 21
-175.000000
  0
LINE
  8
0
 10
162.099976
 20
175.500000
 11
282.099976
 21
175.500000
  0
LINE
  8
0
 10
-281.250000
 20
175.500000
 11
-161.250000
 21
175.500000
  0
LINE
  8
0
 10
162.099976
 20
195.500000
 11
162.099976
 21
175.500000
  0
LINE
  8
0
 10
-161.250000
 20
195.500000
 11
-161.250000
 21
175.500000
  0
LINE
  8
0
 10
-271.250000
 20
-133.000000
 11
-271.250000
 21
-185.000000
  0
LINE
  8
0
 10
-271.250000
 20
-185.000000
 11
-50.250000
 21
-185.000000
  0
LINE
  8
0
 10
-271.250000
 20
-155.000015
 11
-50.250000
 21
-155.000015
  0
LINE
  8
0
 10
-271.250000
 20
-133.000000
 11
-50.250000
 21
-133.000000
  0
LINE
  8
0
 10
-226.250000
 20
-133.000000
 11
-226.250000
 21
-185.000000
  0
LINE
  8
0
 10
-204.250000
 20
-133.000000
 11
-204.250000
 21
-185.000000
  0
LINE
  8
0
 10
-182.250000
 20
-133.000000
 11
-182.250000
 21
-185.000000
  0
LINE
  8
0
 10
-160.250000
 20
-133.000000
 11
-160.250000
 21
-185.000000
  0
LINE
  8
0
 10
-138.250000
 20
-133.000000
 11
-138.250000
 21
-185.000000
  0
LINE
  8
0
 10
-116.250000
 20
-133.000000
 11
-116.250000
 21
-185.000000
  0
LINE
  8
0
 10
-94.250000
 20
-133.000000
 11
-94.250000
 21
-185.000000
  0
LINE
  8
0
 10
-50.250000
 20
-133.000000
 11
-50.250000
 21
-185.000000
  0
LINE
  8
0
 10
-271.250000
 20
-175.000015
 11
-50.250000
 21
-175.000015
  0
LINE
  8
0
 10
-271.250031
 20
-165.000000
 11
-50.250000
 21
-165.000000
  0
LINE
  8
0
 10
-271.250000
 20
-141.000000
 11
-234.517441
 21
-141.000000
  0
LINE
  8
0
 10
-234.517532
 20
-141.000046
 11
-226.250107
 21
-155.000061
  0
LINE
  8
0
 10
-72.250000
 20
-133.000000
 11
-72.250000
 21
-185.000000
  0
LINE
  8
0
 10
75.000031
 20
116.499969
 11
75.000031
 21
112.649963
  0
LINE
  8
0
 10
51.000031
 20
112.799957
 11
73.500031
 21
112.799957
  0
LINE
  8
0
 10
51.000031
 20
109.799957
 11
73.500031
 21
109.799957
  0
LINE
  8
0
 10
51.000031
 20
112.899963
 11
51.000031
 21
109.699951
  0
LINE
  8
0
 10
73.500031
 20
112.899963
 11
73.500031
 21
109.699951
  0
LINE
  8
0
 10
51.000031
 20
112.899963
 11
73.500031
 21
112.899963
  0
LINE
  8
0
 10
51.000031
 20
109.699951
 11
73.500031
 21
109.699951
  0
LINE
  8
0
 10
53.200043
 20
112.533875
 11
53.200043
 21
110.066071
  0
LINE
  8
0
 10
52.800018
 20
112.533875
 11
52.800018
 21
110.066071
  0
LINE
  8
0
 10
65.600037
 20
111.894745
 11
65.600037
 21
110.394745
  0
LINE
  8
0
 10
63.600037
 20
111.894745
 11
63.600037
 21
110.394745
  0
LINE
  8
0
 10
63.600037
 20
110.394745
 11
65.600037
 21
110.394745
  0
LINE
  8
0
 10
63.600037
 20
111.894745
 11
65.600037
 21
111.894745
  0
LINE
  8
0
 10
73.500031
 20
112.649963
 11
79.322174
 21
112.649963
  0
LINE
  8
0
 10
73.500031
 20
109.949951
 11
79.322174
 21
109.949951
  0
LINE
  8
0
 10
51.216400
 20
111.306244
 11
54.800507
 21
111.306244
  0
LINE
  8
0
 10
53.000031
 20
113.098297
 11
53.000031
 21
109.400757
  0
LINE
  8
0
 10
71.790985
 20
111.299957
 11
80.751282
 21
111.299957
  0
CIRCLE
  8
0
 10
36.999947
 20
89.999985
 40
4.000000
  0
ARC
  8
0
 10
16.999992
 20
62.499985
 40
4.000001
 50
298.955170
 51
241.044861
  0
ARC
  8
0
 10
16.999992
 20
117.499985
 40
3.999999
 50
118.954536
 51
61.045471
  0
CIRCLE
  8
0
 10
16.999992
 20
117.499985
 40
2.250000
  0
CIRCLE
  8
0
 10
36.999947
 20
89.999985
 40
2.250000
  0
CIRCLE
  8
0
 10
16.999992
 20
62.499985
 40
2.250000
  0
CIRCLE
  8
0
 10
-13.000008
 20
89.999985
 40
2.250000
  0
CIRCLE
  8
0
 62
     2
 10
-52.999992
 20
111.999954
 40
2.000000
  0
CIRCLE
  8
0
 62
     2
 10
-52.999992
 20
67.999969
 40
2.000000
  0
ARC
  8
0
 10
-30.453743
 20
86.535873
 40
2.453746
 50
331.927582
 51
28.072393
  0
ARC
  8
0
 10
-30.453743
 20
93.464058
 40
2.453746
 50
331.927582
 51
28.072393
  0
ARC
  8
0
 10
-37.381950
 20
89.999969
 40
9.381962
 50
345.750000
 51
14.249960
  0
ARC
  8
0
 10
-34.546242
 20
93.464058
 40
2.453748
 50
151.927612
 51
208.072388
  0
ARC
  8
0
 10
-27.618034
 20
89.999969
 40
9.381963
 50
165.749985
 51
194.249908
  0
ARC
  8
0
 10
-34.546242
 20
86.535873
 40
2.453748
 50
151.927612
 51
208.072388
  0
ARC
  8
0
 10
-28.026253
 20
93.464058
 40
2.453748
 50
151.927612
 51
208.072388
  0
ARC
  8
0
 10
-21.098015
 20
89.999969
 40
9.381963
 50
165.749985
 51
194.249908
  0
ARC
  8
0
 10
-28.026253
 20
86.535873
 40
2.453748
 50
151.927612
 51
208.072388
  0
ARC
  8
0
 10
12.025261
 20
62.500008
 40
6.999999
 50
252.575439
 51
287.424591
  0
ARC
  8
0
 10
10.208580
 20
56.711720
 40
0.933333
 50
225.164139
 51
252.575394
  0
ARC
  8
0
 10
13.841927
 20
56.711720
 40
0.933332
 50
287.424591
 51
0.000000
  0
CIRCLE
  8
0
 10
-13.000008
 20
89.999985
 40
4.000000
  0
CIRCLE
  8
0
 10
-52.999992
 20
111.999954
 40
1.650000
  0
CIRCLE
  8
0
 10
-52.999992
 20
67.999969
 40
1.650000
  0
ARC
  8
0
 10
-134.341919
 20
56.711720
 40
0.933334
 50
180.000000
 51
252.575790
  0
ARC
  8
0
 10
-132.525269
 20
62.499985
 40
7.000003
 50
252.575348
 51
287.424530
  0
ARC
  8
0
 10
-130.708588
 20
56.711720
 40
0.933330
 50
287.424225
 51
314.837555
  0
CIRCLE
  8
0
 10
-125.500000
 20
104.000015
 40
5.500000
  0
CIRCLE
  8
0
 10
-125.500000
 20
76.000000
 40
5.500000
  0
CIRCLE
  8
0
 62
     2
 10
-125.500000
 20
117.499985
 40
2.000000
  0
CIRCLE
  8
0
 62
     2
 10
-125.500000
 20
62.499985
 40
2.000000
  0
CIRCLE
  8
0
 10
-125.500000
 20
104.000015
 40
5.000000
  0
CIRCLE
  8
0
 10
-125.500000
 20
76.000000
 40
5.000000
  0
CIRCLE
  8
0
 10
-125.500000
 20
76.000000
 40
4.500000
  0
CIRCLE
  8
0
 10
-125.500000
 20
104.000015
 40
4.500000
  0
CIRCLE
  8
0
 10
-125.500000
 20
117.499985
 40
1.650000
  0
CIRCLE
  8
0
 10
-125.500000
 20
62.499985
 40
1.650000
  0
ARC
  8
0
 10
117.658173
 20
56.711788
 40
0.933334
 50
180.000000
 51
252.575348
  0
ARC
  8
0
 10
116.600098
 20
94.200035
 40
2.099998
 50
270.000000
 51
90.000000
  0
CIRCLE
  8
0
 10
126.500122
 20
104.000084
 40
11.500001
  0
CIRCLE
  8
0
 10
126.500122
 20
76.000069
 40
11.500001
  0
ARC
  8
0
 10
136.400085
 20
94.200058
 40
2.099998
 50
90.000000
 51
270.000000
  0
ARC
  8
0
 10
126.500122
 20
118.383629
 40
2.099998
 50
180.000000
 51
0.000000
  0
ARC
  8
0
 10
136.400085
 20
114.200066
 40
2.099998
 50
90.000000
 51
270.000000
  0
ARC
  8
0
 10
116.600098
 20
114.200035
 40
2.099998
 50
270.000000
 51
90.000000
  0
ARC
  8
0
 10
119.474854
 20
62.500053
 40
6.999999
 50
252.204636
 51
290.703766
  0
CIRCLE
  8
0
 62
     2
 10
47.999916
 20
14.500011
 40
2.500000
  0
ARC
  8
0
 10
-35.072556
 20
6.500027
 40
7.072560
 50
343.573639
 51
16.426319
  0
ARC
  8
0
 10
-35.072556
 20
10.500011
 40
7.072560
 50
343.573639
 51
351.871613
  0
ARC
  8
0
 10
-29.927446
 20
10.500011
 40
7.072558
 50
188.128403
 51
196.426376
  0
ARC
  8
0
 10
-29.927446
 20
6.500027
 40
7.072558
 50
163.573624
 51
196.426300
  0
ARC
  8
0
 10
-23.407457
 20
10.500011
 40
7.072560
 50
188.128403
 51
196.426361
  0
ARC
  8
0
 10
-23.407457
 20
6.500027
 40
7.072560
 50
163.573639
 51
196.426300
  0
CIRCLE
  8
0
 10
7.999998
 20
14.500011
 40
1.749999
  0
ARC
  8
0
 10
11.999998
 20
21.500027
 40
3.499999
 50
134.415298
 51
315.584625
  0
ARC
  8
0
 10
3.999983
 20
7.500011
 40
3.500000
 50
0.000000
 51
135.584717
  0
ARC
  8
0
 10
3.999983
 20
7.500011
 40
3.500000
 50
314.415283
 51
0.000000
  0
CIRCLE
  8
0
 10
3.999983
 20
7.500011
 40
2.749999
  0
CIRCLE
  8
0
 10
11.999998
 20
21.500027
 40
2.749999
  0
ARC
  8
0
 10
-3.000002
 20
14.500011
 40
6.000000
 50
0.000000
 51
41.409584
  0
ARC
  8
0
 10
-3.000002
 20
14.500011
 40
6.000000
 50
318.590424
 51
0.000000
  0
CIRCLE
  8
0
 62
     2
 10
-2.999987
 20
14.500011
 40
2.500000
  0
CIRCLE
  8
0
 10
47.999893
 20
14.500011
 40
2.100000
  0
CIRCLE
  8
0
 10
-3.000002
 20
14.500011
 40
2.100000
  0
ARC
  8
0
 62
     4
 10
-107.639130
 20
-98.859520
 40
2.050003
 50
180.000000
 51
270.000000
  0
ARC
  8
0
 62
     4
 10
-107.639130
 20
-98.859520
 40
2.050003
 50
270.000000
 51
0.000000
  0
CIRCLE
  8
0
 62
     4
 10
-61.096390
 20
-53.759521
 40
1.250000
  0
CIRCLE
  8
0
 62
     4
 10
-61.096390
 20
-53.759521
 40
1.400000
  0
ARC
  8
0
 62
     4
 10
51.671814
 20
-98.859520
 40
2.049999
 50
180.000000
 51
270.000000
  0
ARC
  8
0
 62
     4
 10
51.671814
 20
-98.859520
 40
2.050003
 50
271.259888
 51
0.000000
  0
CIRCLE
  8
0
 62
     4
 10
114.443695
 20
-49.050514
 40
0.250000
  0
CIRCLE
  8
0
 62
     4
 10
113.831818
 20
-48.391357
 40
0.450000
  0
CIRCLE
  8
0
 62
     4
 10
113.831818
 20
-48.391357
 40
0.250000
  0
ARC
  8
0
 62
     4
 10
114.214539
 20
-48.709511
 40
3.300002
 50
137.014145
 51
222.985855
  0
CIRCLE
  8
0
 62
     4
 10
96.714539
 20
-48.709511
 40
1.250000
  0
CIRCLE
  8
0
 62
     4
 10
96.714539
 20
-48.709511
 40
1.400000
  0
CIRCLE
  8
0
 62
     4
 10
114.121887
 20
-48.709511
 40
1.300000
  0
CIRCLE
  8
0
 62
     4
 10
114.443695
 20
-49.050514
 40
0.450000
  0
CIRCLE
  8
0
 10
53.000031
 20
111.299957
 40
1.250000
  0
CIRCLE
  8
0
 10
53.000031
 20
111.299957
 40
1.000000
  0
POLYLINE
  8
0
 66
     1
  0
VERTEX
  8
0
 10
79.322174
 20
112.649963
  0
VERTEX
  8
0
 10
79.597122
 20
112.339630
  0
VERTEX
  8
0
 10
79.722168
 20
111.974976
  0
VERTEX
  8
0
 10
79.597191
 20
111.628410
  0
VERTEX
  8
0
 10
79.322174
 20
111.299957
  0
VERTEX
  8
0
 10
79.047165
 20
110.971519
  0
VERTEX
  8
0
 10
78.922180
 20
110.624969
  0
VERTEX
  8
0
 10
79.047226
 20
110.260300
  0
VERTEX
  8
0
 10
79.322174
 20
109.949951
  0
SEQEND
  0
TEXT
  8
0
 10
196.250259
 20
180.830002
 40
6.300000
  1
Ver. 1.0
 50
0.000000
 41
1.052632
 51
0.000000
  7
STANDARD
  0
TEXT
  8
0
 10
167.564667
 20
-192.100006
 40
9.000000
  1
KOGANEI CORP.
 50
0.000000
 41
1.052632
 51
0.000000
  7
STANDARD
  0
TEXT
  8
0
 10
-275.449738
 20
180.830002
 40
6.300000
  1
TWIN ROD CYLINDER
 50
0.000000
 41
1.052632
 51
0.000000
  7
STANDARD
  0
TEXT
  8
0
 10
-270.049713
 20
155.830002
 40
6.300000
  1
MODEL:TBDAK20*ST(10)-RL
 50
0.000000
 41
1.052632
 51
0.000000
  7
STANDARD
  0
TEXT
  8
0
 62
     3
 10
-52.862728
 20
147.753006
 40
4.500000
  1
STRETCH LINE C
 50
0.000000
 41
1.052632
 51
0.000000
  7
STANDARD
  0
TEXT
  8
0
 62
     3
 10
-15.362728
 20
137.753006
 40
4.500000
  1
STRETCH LINE A
 50
0.000000
 41
1.052632
 51
0.000000
  7
STANDARD
  0
TEXT
  8
0
 62
     3
 10
15.137272
 20
127.753006
 40
4.500000
  1
STRETCH LINE B
 50
0.000000
 41
1.052632
 51
0.000000
  7
STANDARD
  0
TEXT
  8
0
 10
-258.127045
 20
-154.550003
 40
4.500000
  1
PLACE
 50
0.000000
 41
1.052632
 51
0.000000
  7
STANDARD
  0
TEXT
  8
0
 10
-220.142654
 20
-147.050003
 40
4.500000
  1
10
 50
0.000000
 41
1.052632
 51
0.000000
  7
STANDARD
  0
TEXT
  8
0
 10
-212.642654
 20
-131.050003
 40
4.500000
  1
STRETCH LIST
 50
0.000000
 41
1.052632
 51
0.000000
  7
STANDARD
  0
TEXT
  8
0
 10
-70.642654
 20
-132.050003
 40
4.500000
  1
(mm)
 50
0.000000
 41
1.052632
 51
0.000000
  7
STANDARD
  0
TEXT
  8
0
 10
-267.127045
 20
-140.050003
 40
4.500000
  1
STROKE
 50
0.000000
 41
1.052632
 51
0.000000
  7
STANDARD
  0
TEXT
  8
0
 10
-267.127045
 20
-148.550003
 40
4.500000
  1
STRETCH
 50
0.000000
 41
1.052632
 51
0.000000
  7
STANDARD
  0
TEXT
  8
0
 10
-251.585724
 20
-163.320007
 40
4.800000
  1
A
 50
0.000000
 41
1.052632
 51
0.000000
  7
STANDARD
  0
TEXT
  8
0
 10
-251.585724
 20
-173.320007
 40
4.800000
  1
B
 50
0.000000
 41
1.052632
 51
0.000000
  7
STANDARD
  0
TEXT
  8
0
 10
-251.585724
 20
-183.320007
 40
4.800000
  1
C
 50
0.000000
 41
1.052632
 51
0.000000
  7
STANDARD
  0
TEXT
  8
0
 10
-198.142853
 20
-147.050003
 40
4.500000
  1
20
 50
0.000000
 41
1.052632
 51
0.000000
  7
STANDARD
  0
TEXT
  8
0
 10
-176.142853
 20
-147.050003
 40
4.500000
  1
30
 50
0.000000
 41
1.052632
 51
0.000000
  7
STANDARD
  0
TEXT
  8
0
 10
-154.142853
 20
-147.050003
 40
4.500000
  1
40
 50
0.000000
 41
1.052632
 51
0.000000
  7
STANDARD
  0
TEXT
  8
0
 10
-132.142853
 20
-147.050003
 40
4.500000
  1
50
 50
0.000000
 41
1.052632
 51
0.000000
  7
STANDARD
  0
TEXT
  8
0
 10
-110.142853
 20
-147.050003
 40
4.500000
  1
60
 50
0.000000
 41
1.052632
 51
0.000000
  7
STANDARD
  0
TEXT
  8
0
 10
-217.892853
 20
-163.050003
 40
4.500000
  1
0
 50
0.000000
 41
1.052632
 51
0.000000
  7
STANDARD
  0
TEXT
  8
0
 10
-217.892853
 20
-173.049988
 40
4.500000
  1
0
 50
0.000000
 41
1.052632
 51
0.000000
  7
STANDARD
  0
TEXT
  8
0
 10
-217.892853
 20
-183.049973
 40
4.500000
  1
0
 50
0.000000
 41
1.052632
 51
0.000000
  7
STANDARD
  0
TEXT
  8
0
 10
-198.142853
 20
-183.049973
 40
4.500000
  1
10
 50
0.000000
 41
1.052632
 51
0.000000
  7
STANDARD
  0
TEXT
  8
0
 10
-176.142853
 20
-183.049973
 40
4.500000
  1
20
 50
0.000000
 41
1.052632
 51
0.000000
  7
STANDARD
  0
TEXT
  8
0
 10
-154.142853
 20
-183.049973
 40
4.500000
  1
30
 50
0.000000
 41
1.052632
 51
0.000000
  7
STANDARD
  0
TEXT
  8
0
 10
-132.142853
 20
-183.049973
 40
4.500000
  1
40
 50
0.000000
 41
1.052632
 51
0.000000
  7
STANDARD
  0
TEXT
  8
0
 10
-110.142853
 20
-183.049973
 40
4.500000
  1
50
 50
0.000000
 41
1.052632
 51
0.000000
  7
STANDARD
  0
TEXT
  8
0
 10
-88.142853
 20
-183.049973
 40
4.500000
  1
60
 50
0.000000
 41
1.052632
 51
0.000000
  7
STANDARD
  0
TEXT
  8
0
 10
-88.142853
 20
-147.050003
 40
4.500000
  1
70
 50
0.000000
 41
1.052632
 51
0.000000
  7
STANDARD
  0
TEXT
  8
0
 10
-66.142853
 20
-183.049973
 40
4.500000
  1
70
 50
0.000000
 41
1.052632
 51
0.000000
  7
STANDARD
  0
TEXT
  8
0
 10
-66.142853
 20
-147.050003
 40
4.500000
  1
80
 50
0.000000
 41
1.052632
 51
0.000000
  7
STANDARD
  0
TEXT
  8
0
 10
-195.892853
 20
-163.050003
 40
4.500000
  1
0
 50
0.000000
 41
1.052632
 51
0.000000
  7
STANDARD
  0
TEXT
  8
0
 10
-198.142853
 20
-173.049988
 40
4.500000
  1
10
 50
0.000000
 41
1.052632
 51
0.000000
  7
STANDARD
  0
TEXT
  8
0
 10
-173.892853
 20
-163.050003
 40
4.500000
  1
5
 50
0.000000
 41
1.052632
 51
0.000000
  7
STANDARD
  0
TEXT
  8
0
 10
-176.142853
 20
-173.049988
 40
4.500000
  1
15
 50
0.000000
 41
1.052632
 51
0.000000
  7
STANDARD
  0
TEXT
  8
0
 10
-154.142853
 20
-173.049988
 40
4.500000
  1
20
 50
0.000000
 41
1.052632
 51
0.000000
  7
STANDARD
  0
TEXT
  8
0
 10
-132.142853
 20
-173.049988
 40
4.500000
  1
25
 50
0.000000
 41
1.052632
 51
0.000000
  7
STANDARD
  0
TEXT
  8
0
 10
-110.142853
 20
-173.049988
 40
4.500000
  1
30
 50
0.000000
 41
1.052632
 51
0.000000
  7
STANDARD
  0
TEXT
  8
0
 10
-88.142853
 20
-173.049988
 40
4.500000
  1
35
 50
0.000000
 41
1.052632
 51
0.000000
  7
STANDARD
  0
TEXT
  8
0
 10
-66.142853
 20
-173.049988
 40
4.500000
  1
40
 50
0.000000
 41
1.052632
 51
0.000000
  7
STANDARD
  0
TEXT
  8
0
 10
-154.142853
 20
-163.050003
 40
4.500000
  1
10
 50
0.000000
 41
1.052632
 51
0.000000
  7
STANDARD
  0
TEXT
  8
0
 10
-132.142853
 20
-163.050003
 40
4.500000
  1
15
 50
0.000000
 41
1.052632
 51
0.000000
  7
STANDARD
  0
TEXT
  8
0
 10
-110.142853
 20
-163.050003
 40
4.500000
  1
20
 50
0.000000
 41
1.052632
 51
0.000000
  7
STANDARD
  0
TEXT
  8
0
 10
-88.142853
 20
-163.050003
 40
4.500000
  1
25
 50
0.000000
 41
1.052632
 51
0.000000
  7
STANDARD
  0
TEXT
  8
0
 10
-66.142853
 20
-163.050003
 40
4.500000
  1
30
 50
0.000000
 41
1.052632
 51
0.000000
  7
STANDARD
  0
ENDSEC
  0
EOF
