  0
SECTION
  2
HEADER
  0
ENDSEC
  0
SECTION
  2
TABLES
  0
TABLE
  2
LTYPE
 70
     4
  0
LTYPE
  2
CONTINUOUS
 70
    64
  3
Solid line
 72
    65
 73
     0
 40
0.000000
  0
LTYPE
  2
DASHED
 70
    64
  3
__ __ __ __ __ __ __ __ __ __ __ __ __ __ __
 72
    65
 73
     2
 40
3.500000
 49
2.000000
 49
-1.500000
  0
LTYPE
  2
CENTER
 70
    64
  3
____ _ ____ _ ____ _ ____ _ ____ _ ____ _ ____
 72
    65
 73
     4
 40
17.500000
 49
13.000000
 49
-1.500000
 49
1.500000
 49
-1.500000
  0
LTYPE
  2
PHANTOM
 70
    64
  3
_____ _ _ _____ _ _ _____ _ _ _____ _ _ ____  
 72
    65
 73
     6
 40
15.500000
 49
8.000000
 49
-1.500000
 49
1.500000
 49
-1.500000
 49
1.500000
 49
-1.500000
  0
LTYPE
  2
DASHED1
 70
    64
  3
__ __ __ __ __ __ __ __ __ __ __ __ __ __ __
 72
    65
 73
     2
 40
1.500000
 49
1.000000
 49
-0.500000
  0
LTYPE
  2
DASHED2
 70
    64
  3
__ __ __ __ __ __ __ __ __ __ __ __ __ __ __
 72
    65
 73
     2
 40
3.500000
 49
2.500000
 49
-1.000000
  0
LTYPE
  2
DASHED3
 70
    64
  3
__ __ __ __ __ __ __ __ __ __ __ __ __ __ __
 72
    65
 73
     2
 40
6.000000
 49
4.000000
 49
-2.000000
  0
LTYPE
  2
DASHED4
 70
    64
  3
__ __ __ __ __ __ __ __ __ __ __ __ __ __ __
 72
    65
 73
     2
 40
12.000000
 49
10.000000
 49
-2.000000
  0
LTYPE
  2
DASHED5
 70
    64
  3
__ __ __ __ __ __ __ __ __ __ __ __ __ __ __
 72
    65
 73
     2
 40
17.000000
 49
15.000000
 49
-2.000000
  0
LTYPE
  2
DASHED6
 70
    64
  3
__ __ __ __ __ __ __ __ __ __ __ __ __ __ __
 72
    65
 73
     2
 40
29.000000
 49
27.000000
 49
-2.000000
  0
LTYPE
  2
PHANTOM1
 70
    64
  3
_____ _ _ _____ _ _ _____ _ _ _____ _ _ ____  
 72
    65
 73
     6
 40
31.000000
 49
25.000000
 49
-1.500000
 49
1.000000
 49
-1.000000
 49
1.000000
 49
-1.500000
  0
LTYPE
  2
PHANTOM2
 70
    64
  3
_____ _ _ _____ _ _ _____ _ _ _____ _ _ ____  
 72
    65
 73
     6
 40
36.000000
 49
27.000000
 49
-1.500000
 49
2.500000
 49
-1.000000
 49
2.500000
 49
-1.500000
  0
LTYPE
  2
PHANTOM3
 70
    64
  3
_____ _ _ _____ _ _ _____ _ _ _____ _ _ ____  
 72
    65
 73
     6
 40
78.000000
 49
64.000000
 49
-2.000000
 49
4.000000
 49
-2.000000
 49
4.000000
 49
-2.000000
  0
LTYPE
  2
CENTER1
 70
    64
  3
____ _ ____ _ ____ _ ____ _ ____ _ ____ _ ____
 72
    65
 73
     4
 40
19.000000
 49
14.000000
 49
-1.000000
 49
3.000000
 49
-1.000000
  0
LTYPE
  2
CENTER2
 70
    64
  3
____ _ ____ _ ____ _ ____ _ ____ _ ____ _ ____
 72
    65
 73
     4
 40
28.500000
 49
25.000000
 49
-1.000000
 49
1.500000
 49
-1.000000
  0
LTYPE
  2
CENTER3
 70
    64
  3
____ _ ____ _ ____ _ ____ _ ____ _ ____ _ ____
 72
    65
 73
     4
 40
31.500000
 49
27.000000
 49
-1.000000
 49
2.500000
 49
-1.000000
  0
LTYPE
  2
CENTER4
 70
    64
  3
____ _ ____ _ ____ _ ____ _ ____ _ ____ _ ____
 72
    65
 73
     4
 40
50.000000
 49
45.000000
 49
-1.000000
 49
3.000000
 49
-1.000000
  0
LTYPE
  2
CENTER5
 70
    64
  3
____ _ ____ _ ____ _ ____ _ ____ _ ____ _ ____
 72
    65
 73
     4
 40
100.000000
 49
92.000000
 49
-2.000000
 49
4.000000
 49
-2.000000
  0
LTYPE
  2
SBK1
 70
    64
  3
______ _ _ _ ______ _ _ _ ______ _ _ _ _____  
 72
    65
 73
     8
 40
60.500000
 49
45.000000
 49
-2.000000
 49
2.500000
 49
-2.000000
 49
2.500000
 49
-2.000000
 49
2.500000
 49
-2.000000
  0
LTYPE
  2
SBK2
 70
    64
  3
______ _ _ _ ______ _ _ _ ______ _ _ _ _____  
 72
    65
 73
     8
 40
84.000000
 49
64.000000
 49
-2.000000
 49
4.000000
 49
-2.000000
 49
4.000000
 49
-2.000000
 49
4.000000
 49
-2.000000
  0
LTYPE
  2
STCH
 70
    64
  3
__ __ __ __ __ __ __ __ __ __ __ __ __ __ __
 72
    65
 73
     2
 40
3.000000
 49
1.000000
 49
-2.000000
  0
LTYPE
  2
MTCH
 70
    64
  3
_____ _ _ _____ _ _ _____ _ _ _____ _ _ ____  
 72
    65
 73
     6
 40
80.000000
 49
66.000000
 49
-2.000000
 49
4.000000
 49
-2.000000
 49
4.000000
 49
-2.000000
  0
ENDTAB
  0
TABLE
  2
LAYER
 70
     1
  0
LAYER
  2
0
 70
     0
 62
     7
  6
CONTINUOUS
  0
ENDTAB
  0
TABLE
  2
STYLE
 70
     1
  0
STYLE
  2
STANDARD
 70
     0
 40
0.000000
 41
1.000000
 50
0.000000
 71
     0
 42
0.200000
  3
txt
  4
BIGFONT
  0
ENDTAB
  0
TABLE
  2
VIEW
 70
     0
  0
ENDTAB
  0
ENDSEC
  0
SECTION
  2
BLOCKS
  0
ENDSEC
  0
SECTION
  2
ENTITIES
  0
LINE
  8
0
  6
PHANTOM
 62
     3
 10
-36.500000
 20
141.000000
 11
-36.500000
 21
43.750000
  0
LINE
  8
0
 10
-50.000000
 20
110.500000
 11
-50.000000
 21
69.500000
  0
LINE
  8
0
 10
-45.000000
 20
110.500000
 11
-45.000000
 21
69.500000
  0
LINE
  8
0
 10
-28.000000
 20
110.500000
 11
-28.000000
 21
69.500000
  0
LINE
  8
0
 10
37.999935
 20
110.499954
 11
37.499931
 21
110.999954
  0
LINE
  8
0
 10
37.999969
 20
69.500015
 11
37.499969
 21
69.000015
  0
LINE
  8
0
 10
-27.500000
 20
111.000000
 11
37.499939
 21
111.000000
  0
LINE
  8
0
 10
-27.500015
 20
69.000000
 11
37.499969
 21
69.000000
  0
LINE
  8
0
 10
-27.999998
 20
110.500000
 11
-27.499996
 21
111.000000
  0
LINE
  8
0
 10
-28.000006
 20
69.500008
 11
-27.500010
 21
69.000000
  0
LINE
  8
0
 10
-50.000000
 20
110.500000
 11
-45.000000
 21
110.500000
  0
LINE
  8
0
 10
-50.000000
 20
69.500000
 11
-45.000000
 21
69.500000
  0
LINE
  8
0
  6
CENTER
 62
     2
 10
-52.024994
 20
90.000000
 11
40.998337
 21
90.000000
  0
LINE
  8
0
  6
CENTER
 62
     2
 10
-46.625000
 20
81.000000
 11
-26.025009
 21
81.000000
  0
LINE
  8
0
  6
CENTER
 62
     2
 10
-46.606201
 20
99.000000
 11
-26.025009
 21
99.000000
  0
LINE
  8
0
 10
-45.000000
 20
102.000000
 11
-28.000000
 21
102.000000
  0
LINE
  8
0
 10
-45.000000
 20
96.000000
 11
-28.000000
 21
96.000000
  0
LINE
  8
0
 10
-45.000000
 20
84.000000
 11
-28.000000
 21
84.000000
  0
LINE
  8
0
 10
-45.000000
 20
78.000000
 11
-28.000000
 21
78.000000
  0
LINE
  8
0
 10
-30.400000
 20
92.780090
 11
-30.400000
 21
87.280090
  0
LINE
  8
0
 10
-35.000000
 20
92.411652
 11
-35.000000
 21
87.648514
  0
LINE
  8
0
 10
-35.000000
 20
92.780090
 11
-35.000000
 21
87.280075
  0
LINE
  8
0
 10
-33.000000
 20
93.205505
 11
-33.000000
 21
86.854660
  0
LINE
  8
0
 10
-34.754395
 20
93.205505
 11
-33.000000
 21
93.205505
  0
LINE
  8
0
 10
-34.754395
 20
86.854660
 11
-33.000000
 21
86.854660
  0
LINE
  8
0
 10
-34.754395
 20
91.617798
 11
-33.000000
 21
91.617798
  0
LINE
  8
0
 10
-34.754379
 20
88.442368
 11
-33.000000
 21
88.442368
  0
LINE
  8
0
 10
-30.400003
 20
92.780090
 11
-30.154385
 21
93.205521
  0
LINE
  8
0
 10
-30.154333
 20
86.854698
 11
-30.399948
 21
87.280106
  0
LINE
  8
0
 10
-35.000019
 20
92.780067
 11
-34.754398
 21
93.205498
  0
LINE
  8
0
 10
-34.754368
 20
86.854683
 11
-34.999981
 21
87.280098
  0
LINE
  8
0
 10
-27.999966
 20
92.780121
 11
-28.245590
 21
93.205544
  0
LINE
  8
0
 10
-28.245644
 20
86.854675
 11
-28.000029
 21
87.280083
  0
LINE
  8
0
 10
-30.154379
 20
93.205505
 11
-28.245621
 21
93.205505
  0
LINE
  8
0
 10
-30.154379
 20
86.854660
 11
-28.245636
 21
86.854660
  0
LINE
  8
0
 10
-30.154379
 20
88.442368
 11
-28.245621
 21
88.442368
  0
LINE
  8
0
 10
-30.154379
 20
91.617798
 11
-28.245621
 21
91.617798
  0
LINE
  8
0
 62
     2
 10
-33.000000
 20
91.310486
 11
-30.400000
 21
91.310486
  0
LINE
  8
0
 62
     2
 10
-33.000000
 20
88.689484
 11
-30.400000
 21
88.689484
  0
LINE
  8
0
 10
-33.000000
 20
91.500000
 11
-30.400000
 21
91.500000
  0
LINE
  8
0
 10
-33.000000
 20
88.500000
 11
-30.400000
 21
88.500000
  0
LINE
  8
0
  6
CENTER
 62
     2
 10
-49.750000
 20
103.000000
 11
-45.250000
 21
103.000000
  0
LINE
  8
0
  6
CENTER
 62
     2
 10
-49.750000
 20
77.000000
 11
-45.250000
 21
77.000000
  0
LINE
  8
0
  6
CENTER
 62
     2
 10
-47.500000
 20
79.250000
 11
-47.500000
 21
74.750000
  0
LINE
  8
0
  6
CENTER
 62
     2
 10
-47.500000
 20
105.250000
 11
-47.500000
 21
100.750000
  0
LINE
  8
0
  6
CENTER
 62
     2
 10
-7.000000
 20
107.000000
 11
1.000000
 21
107.000000
  0
LINE
  8
0
  6
CENTER
 62
     2
 10
-7.000000
 20
73.000000
 11
1.000000
 21
73.000000
  0
LINE
  8
0
  6
CENTER
 62
     2
 10
-13.000000
 20
94.000000
 11
-13.000000
 21
86.000000
  0
LINE
  8
0
  6
CENTER
 62
     2
 10
-3.000000
 20
111.000000
 11
-3.000000
 21
103.000000
  0
LINE
  8
0
  6
CENTER
 62
     2
 10
22.000000
 20
94.000000
 11
22.000000
 21
86.000000
  0
LINE
  8
0
  6
CENTER
 62
     2
 10
-3.000000
 20
77.000000
 11
-3.000000
 21
69.000000
  0
LINE
  8
0
 10
-42.500000
 20
100.496643
 11
-42.500000
 21
97.503342
  0
LINE
  8
0
 10
-45.000000
 20
100.496643
 11
-42.500000
 21
100.496643
  0
LINE
  8
0
 10
-45.000000
 20
97.503342
 11
-42.500000
 21
97.503342
  0
LINE
  8
0
 10
-45.000000
 20
82.496643
 11
-42.500000
 21
82.496643
  0
LINE
  8
0
 10
-45.000000
 20
79.503342
 11
-42.500000
 21
79.503342
  0
LINE
  8
0
 10
-42.500000
 20
82.496643
 11
-42.500000
 21
79.503342
  0
LINE
  8
0
 62
     2
 10
-44.999981
 20
79.503334
 11
-42.499985
 21
82.496628
  0
LINE
  8
0
 62
     2
 10
-45.000011
 20
82.496620
 11
-42.500008
 21
79.503311
  0
LINE
  8
0
 62
     2
 10
-42.499996
 20
100.496635
 11
-44.999992
 21
97.503334
  0
LINE
  8
0
 62
     2
 10
-45.000023
 20
100.496597
 11
-42.500019
 21
97.503296
  0
LINE
  8
0
 10
-28.000000
 20
93.378098
 11
38.000000
 21
93.378098
  0
LINE
  8
0
 10
-28.000000
 20
104.178085
 11
-4.018234
 21
104.178085
  0
LINE
  8
0
 10
-28.000000
 20
107.378098
 11
-5.976074
 21
107.378098
  0
LINE
  8
0
 10
-28.000000
 20
90.178101
 11
-15.994705
 21
90.178101
  0
LINE
  8
0
 10
-0.023926
 20
107.378098
 11
38.000000
 21
107.378098
  0
LINE
  8
0
 10
-1.981766
 20
104.178085
 11
38.000000
 21
104.178085
  0
LINE
  8
0
 10
24.994705
 20
90.178101
 11
38.000000
 21
90.178101
  0
LINE
  8
0
 10
38.000000
 20
110.499924
 11
38.000000
 21
69.500031
  0
LINE
  8
0
  6
PHANTOM
 62
     3
 10
14.500000
 20
121.000000
 11
14.500000
 21
43.750000
  0
LINE
  8
0
 10
-10.005291
 20
90.178101
 11
19.005291
 21
90.178101
  0
LINE
  8
0
  6
PHANTOM
 62
     3
 10
-8.000000
 20
131.000000
 11
-8.000000
 21
43.750000
  0
LINE
  8
0
  6
CENTER
 62
     2
 10
-108.774994
 20
90.000000
 11
-130.375000
 21
90.000000
  0
LINE
  8
0
  6
CENTER
 62
     2
 10
-119.500000
 20
113.600006
 11
-119.500000
 21
66.800003
  0
LINE
  8
0
 10
-127.500000
 20
110.500000
 11
-127.500000
 21
69.500000
  0
LINE
  8
0
 10
-111.500000
 20
110.500000
 11
-111.500000
 21
69.500000
  0
LINE
  8
0
 10
-111.500000
 20
110.500000
 11
-127.500000
 21
110.500000
  0
LINE
  8
0
 10
-111.500000
 20
69.500000
 11
-127.500000
 21
69.500000
  0
LINE
  8
0
 10
-120.750000
 20
99.721695
 11
-120.750000
 21
98.278305
  0
LINE
  8
0
 10
-118.250000
 20
99.721680
 11
-118.250000
 21
98.278320
  0
LINE
  8
0
 10
-120.749992
 20
99.721748
 11
-119.500008
 21
100.443428
  0
LINE
  8
0
 10
-119.500015
 20
97.556686
 11
-118.250015
 21
98.278374
  0
LINE
  8
0
 10
-120.750015
 20
81.721733
 11
-119.500000
 21
82.443428
  0
LINE
  8
0
 10
-119.500008
 20
79.556679
 11
-118.250023
 21
80.278358
  0
LINE
  8
0
 10
-119.500000
 20
82.443375
 11
-118.250000
 21
81.721687
  0
LINE
  8
0
 10
-120.749992
 20
80.278313
 11
-119.500008
 21
79.556633
  0
LINE
  8
0
 10
-119.500008
 20
100.443382
 11
-118.250015
 21
99.721695
  0
LINE
  8
0
 10
-120.749992
 20
98.278328
 11
-119.500008
 21
97.556648
  0
LINE
  8
0
 10
-120.750000
 20
81.721680
 11
-120.750000
 21
80.278305
  0
LINE
  8
0
 10
-118.250000
 20
81.721680
 11
-118.250000
 21
80.278305
  0
LINE
  8
0
  6
CENTER
 62
     2
 10
-123.500000
 20
81.000000
 11
-115.500000
 21
81.000000
  0
LINE
  8
0
  6
CENTER
 62
     2
 10
-123.500000
 20
99.000000
 11
-115.500000
 21
99.000000
  0
LINE
  8
0
  6
CENTER
 62
     2
 10
-122.141571
 20
107.000000
 11
-117.250000
 21
107.000000
  0
LINE
  8
0
  6
CENTER
 62
     2
 10
-122.778595
 20
73.000000
 11
-117.250000
 21
73.000000
  0
LINE
  8
0
 10
-128.000000
 20
90.399979
 11
-128.000000
 21
69.500000
  0
LINE
  8
0
 10
-128.000000
 20
110.499985
 11
-128.000000
 21
107.599991
  0
LINE
  8
0
 10
-128.000000
 20
104.399979
 11
-128.000000
 21
93.599991
  0
LINE
  8
0
 10
-111.000000
 20
110.499985
 11
-111.000000
 21
107.599991
  0
LINE
  8
0
 10
-111.000114
 20
110.499870
 11
-111.500099
 21
110.999863
  0
LINE
  8
0
 10
-111.499992
 20
68.999901
 11
-111.000000
 21
69.499893
  0
LINE
  8
0
 10
-127.500000
 20
69.000000
 11
-111.500000
 21
69.000000
  0
LINE
  8
0
 10
-127.999870
 20
110.499847
 11
-127.499870
 21
110.999847
  0
LINE
  8
0
 10
-128.000061
 20
69.499969
 11
-127.500069
 21
68.999977
  0
LINE
  8
0
 10
-117.899994
 20
110.999985
 11
-111.500000
 21
110.999985
  0
LINE
  8
0
 10
-111.000000
 20
90.399994
 11
-111.000000
 21
69.500000
  0
LINE
  8
0
 10
-127.499802
 20
110.999985
 11
-121.100006
 21
110.999985
  0
LINE
  8
0
 10
-128.000000
 20
93.599991
 11
-127.500000
 21
93.599991
  0
LINE
  8
0
 10
-128.000000
 20
90.399979
 11
-127.500000
 21
90.399979
  0
LINE
  8
0
 10
-111.000000
 20
104.399979
 11
-111.000000
 21
93.599991
  0
LINE
  8
0
 10
-128.000000
 20
90.399994
 11
-127.500000
 21
90.399994
  0
LINE
  8
0
 10
-128.000000
 20
93.599991
 11
-127.500000
 21
93.599991
  0
LINE
  8
0
 10
-111.000000
 20
90.399994
 11
-111.500000
 21
90.399994
  0
LINE
  8
0
 10
-111.000000
 20
93.599991
 11
-111.500000
 21
93.599991
  0
LINE
  8
0
 10
-111.000000
 20
104.399979
 11
-111.500000
 21
104.399979
  0
LINE
  8
0
 10
-111.000000
 20
107.599991
 11
-111.500000
 21
107.599991
  0
LINE
  8
0
 10
-128.000000
 20
104.399979
 11
-127.500000
 21
104.399979
  0
LINE
  8
0
 10
-128.000000
 20
107.599991
 11
-127.500000
 21
107.599991
  0
LINE
  8
0
 10
-117.899994
 20
110.999985
 11
-117.899994
 21
110.500000
  0
LINE
  8
0
 10
-121.100006
 20
110.999985
 11
-121.100006
 21
110.500000
  0
LINE
  8
0
  6
CENTER
 62
     2
 10
110.500061
 20
113.150002
 11
110.500061
 21
65.900002
  0
LINE
  8
0
  6
CENTER
 62
     2
 10
103.287109
 20
98.999992
 11
117.684784
 21
98.999992
  0
LINE
  8
0
  6
CENTER
 62
     2
 10
103.287109
 20
81.000008
 11
117.684784
 21
81.000008
  0
LINE
  8
0
 10
102.000061
 20
110.499977
 11
102.000061
 21
107.599983
  0
LINE
  8
0
 10
119.000061
 20
110.499977
 11
119.000061
 21
107.599983
  0
LINE
  8
0
 10
118.999886
 20
110.499825
 11
118.499901
 21
110.999817
  0
LINE
  8
0
 10
118.500000
 20
68.999969
 11
118.999977
 21
69.499947
  0
LINE
  8
0
 10
102.500061
 20
110.999977
 11
108.900055
 21
110.999977
  0
LINE
  8
0
 10
102.500061
 20
69.000008
 11
118.500061
 21
69.000008
  0
LINE
  8
0
 10
102.000122
 20
110.499924
 11
102.500206
 21
111.000008
  0
LINE
  8
0
 10
101.999939
 20
69.499924
 11
102.499924
 21
68.999939
  0
LINE
  8
0
 10
112.100067
 20
110.999977
 11
118.500061
 21
110.999977
  0
LINE
  8
0
 10
102.000061
 20
90.399971
 11
102.000061
 21
69.500008
  0
LINE
  8
0
 10
119.000061
 20
90.399986
 11
119.000061
 21
69.500008
  0
LINE
  8
0
 10
112.600067
 20
109.967064
 11
112.600067
 21
108.367073
  0
LINE
  8
0
 10
112.099945
 20
110.466957
 11
112.599937
 21
109.966965
  0
LINE
  8
0
 10
108.900131
 20
110.466972
 11
108.400124
 21
109.966957
  0
LINE
  8
0
 10
108.400055
 20
109.967079
 11
108.400055
 21
108.367073
  0
LINE
  8
0
 10
102.000061
 20
104.399971
 11
102.000061
 21
93.599983
  0
LINE
  8
0
 10
119.000061
 20
104.399971
 11
119.000061
 21
93.599983
  0
LINE
  8
0
 10
118.000061
 20
103.899971
 11
116.400055
 21
103.899971
  0
LINE
  8
0
 10
118.500076
 20
104.399925
 11
118.000092
 21
103.899948
  0
LINE
  8
0
 10
118.499893
 20
107.599869
 11
117.999901
 21
108.099861
  0
LINE
  8
0
 10
118.000061
 20
108.099983
 11
116.400055
 21
108.099983
  0
LINE
  8
0
 10
118.499901
 20
93.599846
 11
117.999908
 21
94.099838
  0
LINE
  8
0
 10
118.000061
 20
94.099983
 11
116.400055
 21
94.099983
  0
LINE
  8
0
 10
117.999893
 20
89.899986
 11
116.400055
 21
89.899986
  0
LINE
  8
0
 10
118.499893
 20
90.399979
 11
117.999969
 21
89.900055
  0
LINE
  8
0
 10
108.900055
 20
110.999977
 11
108.900055
 21
110.467079
  0
LINE
  8
0
 10
112.100067
 20
110.999977
 11
112.100067
 21
110.467064
  0
LINE
  8
0
 10
119.000061
 20
107.599983
 11
118.500061
 21
107.599983
  0
LINE
  8
0
 10
119.000061
 20
104.399971
 11
118.500061
 21
104.399971
  0
LINE
  8
0
 10
119.000061
 20
93.599983
 11
118.500061
 21
93.599983
  0
LINE
  8
0
 10
119.000061
 20
90.399986
 11
118.500061
 21
90.399986
  0
LINE
  8
0
  6
CENTER
 62
     2
 10
100.449326
 20
89.999992
 11
120.480865
 21
89.999992
  0
LINE
  8
0
 10
103.000183
 20
89.899986
 11
104.570068
 21
89.899986
  0
LINE
  8
0
 10
102.000061
 20
90.399986
 11
102.500183
 21
90.399986
  0
LINE
  8
0
 10
102.000061
 20
93.599998
 11
102.499847
 21
93.599998
  0
LINE
  8
0
 10
102.999908
 20
94.099998
 11
104.570068
 21
94.099998
  0
LINE
  8
0
 10
102.500076
 20
90.400070
 11
103.000076
 21
89.900070
  0
LINE
  8
0
 10
103.000061
 20
89.899986
 11
104.600067
 21
89.899986
  0
LINE
  8
0
 10
103.000061
 20
94.099983
 11
104.600067
 21
94.099983
  0
LINE
  8
0
 10
102.499924
 20
93.600082
 11
102.999924
 21
94.100082
  0
LINE
  8
0
  6
CENTER
 62
     2
 10
99.564255
 20
105.999977
 11
120.480865
 21
105.999977
  0
LINE
  8
0
  6
CENTER
 62
     2
 10
99.564255
 20
91.999992
 11
120.480865
 21
91.999992
  0
LINE
  8
0
 10
103.000183
 20
103.899971
 11
104.570068
 21
103.899971
  0
LINE
  8
0
 10
102.000061
 20
104.399971
 11
102.500183
 21
104.399971
  0
LINE
  8
0
 10
102.000061
 20
107.599983
 11
102.499847
 21
107.599983
  0
LINE
  8
0
 10
102.999908
 20
108.099983
 11
104.570068
 21
108.099983
  0
LINE
  8
0
 10
102.500069
 20
104.400047
 11
103.000069
 21
103.900047
  0
LINE
  8
0
 10
103.000061
 20
103.899971
 11
104.600067
 21
103.899971
  0
LINE
  8
0
 10
103.000061
 20
108.099968
 11
104.600067
 21
108.099968
  0
LINE
  8
0
 10
102.499939
 20
107.600082
 11
102.999939
 21
108.100082
  0
LINE
  8
0
 10
-27.500000
 20
1.500000
 11
37.499985
 21
1.500000
  0
LINE
  8
0
 10
-27.500000
 20
18.500000
 11
37.499939
 21
18.500000
  0
LINE
  8
0
 10
-50.000000
 20
18.000000
 11
-50.000000
 21
2.000000
  0
LINE
  8
0
 10
-45.000000
 20
18.000000
 11
-45.000000
 21
12.600006
  0
LINE
  8
0
 10
38.000000
 20
18.000000
 11
38.000000
 21
2.000000
  0
LINE
  8
0
 10
37.999950
 20
17.999954
 11
37.499950
 21
18.499954
  0
LINE
  8
0
 10
37.999958
 20
2.000011
 11
37.499958
 21
1.500010
  0
LINE
  8
0
 10
-28.000027
 20
18.000027
 11
-27.500025
 21
18.500029
  0
LINE
  8
0
 10
-27.999998
 20
2.000000
 11
-27.499998
 21
1.500000
  0
LINE
  8
0
  6
CENTER
 62
     2
 10
-52.024994
 20
10.000000
 11
41.840363
 21
10.000000
  0
LINE
  8
0
 10
-42.500000
 20
13.000000
 11
-28.000000
 21
13.000000
  0
LINE
  8
0
 10
-42.500000
 20
7.000000
 11
-28.000015
 21
7.000000
  0
LINE
  8
0
 10
-45.500000
 20
12.600006
 11
-45.500000
 21
7.400009
  0
LINE
  8
0
 10
-45.500000
 20
12.600006
 11
-42.500000
 21
12.600006
  0
LINE
  8
0
 10
-45.500000
 20
7.400009
 11
-42.500000
 21
7.400009
  0
LINE
  8
0
 10
-45.000000
 20
7.400009
 11
-45.000000
 21
2.000000
  0
LINE
  8
0
 10
-42.500000
 20
13.000000
 11
-42.500000
 21
12.600006
  0
LINE
  8
0
 10
-42.500000
 20
7.400009
 11
-42.500000
 21
7.000000
  0
LINE
  8
0
 10
-30.400000
 20
7.000000
 11
-30.400000
 21
5.675400
  0
LINE
  8
0
 10
-33.000000
 20
7.000000
 11
-33.000000
 21
5.250000
  0
LINE
  8
0
 10
-34.754395
 20
5.250000
 11
-33.000000
 21
5.250000
  0
LINE
  8
0
 10
-30.399990
 20
5.675411
 11
-30.154385
 21
5.250010
  0
LINE
  8
0
 10
-30.154394
 20
5.250000
 11
-28.245621
 21
5.250000
  0
LINE
  8
0
 10
-35.000000
 20
7.000000
 11
-35.000000
 21
5.675400
  0
LINE
  8
0
 10
-35.000000
 20
5.675394
 11
-34.754395
 21
5.249993
  0
LINE
  8
0
 10
-28.000015
 20
18.000000
 11
-28.000015
 21
2.000000
  0
LINE
  8
0
 10
-28.000034
 20
5.675423
 11
-28.245642
 21
5.250021
  0
LINE
  8
0
 10
-33.000000
 20
6.500000
 11
-30.400000
 21
6.500000
  0
LINE
  8
0
 62
     2
 10
-33.000000
 20
6.689499
 11
-30.400000
 21
6.689499
  0
LINE
  8
0
  6
CENTER
 62
     2
 10
4.000000
 20
13.500000
 11
4.000000
 21
6.500000
  0
LINE
  8
0
  6
CENTER
 62
     2
 10
28.000000
 20
13.500000
 11
28.000000
 21
6.500000
  0
LINE
  8
0
 10
-50.000000
 20
2.000000
 11
-45.000000
 21
2.000000
  0
LINE
  8
0
 10
-50.000000
 20
18.000000
 11
-45.000000
 21
18.000000
  0
LINE
  8
0
  6
PHANTOM
 62
     3
 10
-8.000000
 20
43.750000
 11
9.500000
 21
43.750000
  0
LINE
  8
0
  6
PHANTOM
 62
     3
 10
9.500000
 20
43.750000
 11
9.500000
 21
-3.500000
  0
LINE
  8
0
  6
PHANTOM
 62
     3
 10
-36.500000
 20
43.750000
 11
-36.500000
 21
-3.500000
  0
LINE
  8
0
  6
PHANTOM
 62
     3
 10
14.500000
 20
43.750000
 11
14.500000
 21
-3.500000
  0
LINE
  8
0
 62
     4
 10
-37.341675
 20
-97.309509
 11
-32.596375
 21
-97.309509
  0
LINE
  8
0
 62
     4
 10
-41.096405
 20
-99.909515
 11
-37.340607
 21
-99.909515
  0
LINE
  8
0
 62
     4
 10
-35.840576
 20
-99.909515
 11
-32.596375
 21
-99.909515
  0
LINE
  8
0
 62
     4
 10
-63.096405
 20
-96.309525
 11
-41.096405
 21
-96.309525
  0
LINE
  8
0
 62
     4
 10
-58.396393
 20
-100.909523
 11
-41.096405
 21
-100.909523
  0
LINE
  8
0
 62
     4
 10
-41.096405
 20
-96.309525
 11
-41.096405
 21
-100.909523
  0
LINE
  8
0
 62
     4
 10
-63.096405
 20
-98.109520
 11
-63.096405
 21
-96.309525
  0
LINE
  8
0
 62
     4
 10
-58.396393
 20
-99.351486
 11
-58.396393
 21
-100.909523
  0
LINE
  8
0
 62
     4
 10
-63.096405
 20
-98.109520
 11
-58.846390
 21
-98.109520
  0
LINE
  8
0
  6
CENTER
 62
     1
 10
-61.096390
 20
-95.502808
 11
-61.096390
 21
-101.741425
  0
LINE
  8
0
 62
     4
 10
-58.846390
 20
-98.109520
 11
-58.846390
 21
-99.351486
  0
LINE
  8
0
 62
     4
 10
-59.096390
 20
-98.109520
 11
-59.096390
 21
-98.909523
  0
LINE
  8
0
 62
     4
 10
-63.096405
 20
-98.109520
 11
-63.096405
 21
-98.909523
  0
LINE
  8
0
 62
     4
 10
-63.096405
 20
-98.909523
 11
-59.096390
 21
-98.909523
  0
LINE
  8
0
 62
     4
 10
-58.896393
 20
-98.109520
 11
-58.896393
 21
-100.109520
  0
LINE
  8
0
 62
     4
 10
-58.896393
 20
-100.109520
 11
-58.396393
 21
-100.109520
  0
LINE
  8
0
 62
     4
 10
-58.846390
 20
-99.351486
 11
-58.396393
 21
-99.351486
  0
LINE
  8
0
 62
     4
 10
-32.596375
 20
-97.309509
 11
-32.596375
 21
-99.909515
  0
LINE
  8
0
  6
CENTER
 62
     1
 10
-34.319275
 20
-98.159439
 11
-22.387207
 21
-98.159439
  0
LINE
  8
0
  6
CENTER
 62
     1
 10
-34.268982
 20
-99.059433
 11
-22.345337
 21
-99.059433
  0
LINE
  8
0
 62
     4
 10
-22.596375
 20
-97.909454
 11
-22.596375
 21
-98.409454
  0
LINE
  8
0
 62
     4
 10
-22.596375
 20
-98.809448
 11
-22.596375
 21
-99.309448
  0
LINE
  8
0
 62
     4
 10
-25.596375
 20
-97.709442
 11
-25.596375
 21
-99.509460
  0
LINE
  8
0
 62
     4
 10
-32.596375
 20
-99.509445
 11
-28.590820
 21
-99.509445
  0
LINE
  8
0
 62
     4
 10
-32.596375
 20
-98.609421
 11
-29.110413
 21
-98.609421
  0
LINE
  8
0
 62
     4
 10
-27.610413
 20
-98.609421
 11
-25.596375
 21
-98.609421
  0
LINE
  8
0
 62
     4
 10
-27.090820
 20
-99.509445
 11
-25.596375
 21
-99.509445
  0
LINE
  8
0
 62
     4
 10
-32.596375
 20
-97.709427
 11
-29.630066
 21
-97.709427
  0
LINE
  8
0
 62
     4
 10
-28.130066
 20
-97.709427
 11
-25.596375
 21
-97.709427
  0
LINE
  8
0
 62
     4
 10
-25.596375
 20
-97.909439
 11
-22.596375
 21
-97.909439
  0
LINE
  8
0
 62
     4
 10
-25.596375
 20
-98.409439
 11
-22.596375
 21
-98.409439
  0
LINE
  8
0
 62
     4
 10
-25.596375
 20
-98.809433
 11
-22.596375
 21
-98.809433
  0
LINE
  8
0
 62
     4
 10
-25.596375
 20
-99.309433
 11
-22.596375
 21
-99.309433
  0
LINE
  8
0
 62
     1
 10
-28.860390
 20
-96.444504
 11
-26.360388
 21
-100.774628
  0
LINE
  8
0
  6
CENTER
 62
     1
 10
-42.410767
 20
-98.609512
 11
-32.596375
 21
-98.609512
  0
LINE
  8
0
 62
     1
 10
-30.360456
 20
-96.444473
 11
-27.860455
 21
-100.774597
  0
LINE
  8
0
 62
     1
 10
-37.841129
 20
-96.444450
 11
-35.341129
 21
-100.774582
  0
LINE
  8
0
 62
     1
 10
-39.341110
 20
-96.444519
 11
-36.841114
 21
-100.774635
  0
LINE
  8
0
 62
     4
 10
-62.121399
 20
-100.309525
 11
-60.071396
 21
-100.309525
  0
LINE
  8
0
 62
     4
 10
-60.070972
 20
-100.309967
 11
-59.845989
 21
-100.084976
  0
LINE
  8
0
 62
     4
 10
-62.121357
 20
-100.309540
 11
-62.346352
 21
-100.084549
  0
LINE
  8
0
 62
     4
 10
-62.346390
 20
-98.908707
 11
-62.346390
 21
-100.084526
  0
LINE
  8
0
 62
     1
 10
-62.121399
 20
-98.908707
 11
-62.121399
 21
-100.309525
  0
LINE
  8
0
 62
     1
 10
-60.071396
 20
-98.908707
 11
-60.071396
 21
-100.309525
  0
LINE
  8
0
 62
     4
 10
-59.846390
 20
-98.908707
 11
-59.846390
 21
-100.084518
  0
LINE
  8
0
 62
     4
 10
-62.346390
 20
-100.084526
 11
-59.846390
 21
-100.084526
  0
LINE
  8
0
 62
     4
 10
-62.346390
 20
-95.809525
 11
-62.346390
 21
-96.309525
  0
LINE
  8
0
 62
     1
 10
-62.121399
 20
-95.809525
 11
-62.121399
 21
-96.309525
  0
LINE
  8
0
 62
     1
 10
-60.071396
 20
-95.809525
 11
-60.071396
 21
-96.309525
  0
LINE
  8
0
 62
     4
 10
-59.846390
 20
-95.809525
 11
-59.846390
 21
-96.309525
  0
LINE
  8
0
 62
     4
 10
-62.346390
 20
-95.809525
 11
-59.846390
 21
-95.809525
  0
LINE
  8
0
 62
     4
 10
-63.096405
 20
-97.309525
 11
-41.096405
 21
-97.309525
  0
LINE
  8
0
 62
     4
 10
-63.096405
 20
-96.759506
 11
-41.096405
 21
-96.759506
  0
LINE
  8
0
 62
     4
 10
-41.096405
 20
-97.309509
 11
-38.841705
 21
-97.309509
  0
LINE
  8
0
 62
     4
 10
-108.889130
 20
-95.809525
 11
-106.389130
 21
-95.809525
  0
LINE
  8
0
  6
CENTER
 62
     1
 10
-107.639130
 20
-94.256554
 11
-107.639130
 21
-102.969315
  0
LINE
  8
0
 62
     4
 10
-109.689117
 20
-97.309525
 11
-109.689117
 21
-98.859520
  0
LINE
  8
0
 62
     4
 10
-109.689186
 20
-97.309502
 11
-109.139183
 21
-96.759491
  0
LINE
  8
0
 62
     4
 10
-109.139130
 20
-96.309525
 11
-109.139130
 21
-96.759521
  0
LINE
  8
0
 62
     4
 10
-109.139130
 20
-96.309525
 11
-106.139130
 21
-96.309525
  0
LINE
  8
0
 62
     4
 10
-106.139130
 20
-96.309525
 11
-106.139130
 21
-96.759521
  0
LINE
  8
0
 62
     4
 10
-105.589119
 20
-97.309471
 11
-106.139114
 21
-96.759460
  0
LINE
  8
0
 62
     4
 10
-105.589127
 20
-97.309525
 11
-105.589127
 21
-98.859520
  0
LINE
  8
0
 62
     4
 10
-109.689117
 20
-98.109520
 11
-105.589127
 21
-98.109520
  0
LINE
  8
0
 62
     4
 10
-109.689133
 20
-98.908707
 11
-105.589127
 21
-98.908707
  0
LINE
  8
0
 62
     4
 10
-108.664139
 20
-100.309525
 11
-106.614136
 21
-100.309525
  0
LINE
  8
0
 62
     4
 10
-106.613701
 20
-100.309998
 11
-106.388702
 21
-100.084984
  0
LINE
  8
0
 62
     4
 10
-108.664116
 20
-100.309563
 11
-108.889114
 21
-100.084564
  0
LINE
  8
0
 62
     4
 10
-108.889130
 20
-98.908707
 11
-108.889130
 21
-100.084526
  0
LINE
  8
0
 62
     1
 10
-108.664139
 20
-98.908707
 11
-108.664139
 21
-100.309525
  0
LINE
  8
0
 62
     1
 10
-106.614136
 20
-98.908707
 11
-106.614136
 21
-100.309525
  0
LINE
  8
0
 62
     4
 10
-106.389130
 20
-98.908707
 11
-106.389130
 21
-100.084518
  0
LINE
  8
0
 62
     4
 10
-108.889130
 20
-100.084526
 11
-106.389130
 21
-100.084526
  0
LINE
  8
0
 62
     4
 10
-108.889130
 20
-95.809525
 11
-108.889130
 21
-96.309525
  0
LINE
  8
0
 62
     1
 10
-108.664139
 20
-95.809525
 11
-108.664139
 21
-96.309525
  0
LINE
  8
0
 62
     1
 10
-106.614136
 20
-95.809525
 11
-106.614136
 21
-96.309525
  0
LINE
  8
0
 62
     4
 10
-106.389130
 20
-95.809525
 11
-106.389130
 21
-96.309525
  0
LINE
  8
0
  6
CENTER
 62
     1
 10
-65.896942
 20
-53.759521
 11
-35.688889
 21
-53.759521
  0
LINE
  8
0
 62
     4
 10
-63.096405
 20
-55.259521
 11
-41.096405
 21
-55.259521
  0
LINE
  8
0
 62
     4
 10
-63.096405
 20
-52.259521
 11
-41.096405
 21
-52.259521
  0
LINE
  8
0
 62
     4
 10
-63.096405
 20
-55.809525
 11
-41.096405
 21
-55.809525
  0
LINE
  8
0
 62
     4
 10
-63.096405
 20
-51.709518
 11
-41.096405
 21
-51.709518
  0
LINE
  8
0
 62
     4
 10
-63.096405
 20
-51.709518
 11
-63.096405
 21
-55.809525
  0
LINE
  8
0
 62
     4
 10
-41.096405
 20
-51.709518
 11
-41.096405
 21
-55.809525
  0
LINE
  8
0
  6
CENTER
 62
     1
 10
-61.096390
 20
-50.923019
 11
-61.096390
 21
-56.512344
  0
LINE
  8
0
 62
     4
 10
-62.141674
 20
-54.472595
 11
-60.408337
 21
-52.739258
  0
LINE
  8
0
 62
     4
 10
-61.788120
 20
-54.826176
 11
-60.154781
 21
-53.192837
  0
LINE
  8
0
 62
     1
 10
-40.007179
 20
-51.594425
 11
-37.507179
 21
-55.924553
  0
LINE
  8
0
 62
     4
 10
-41.096405
 20
-52.459518
 11
-39.507751
 21
-52.459518
  0
LINE
  8
0
 62
     4
 10
-41.096405
 20
-55.059525
 11
-38.006622
 21
-55.059525
  0
LINE
  8
0
 62
     4
 10
112.821899
 20
-85.654793
 11
112.821899
 21
-80.909485
  0
LINE
  8
0
 62
     4
 10
112.821899
 20
-89.409523
 11
112.821899
 21
-87.154778
  0
LINE
  8
0
 62
     4
 10
115.421875
 20
-84.153694
 11
115.421875
 21
-80.909485
  0
LINE
  8
0
 62
     4
 10
94.714539
 20
-96.309525
 11
110.814545
 21
-96.309525
  0
LINE
  8
0
 62
     4
 10
99.414520
 20
-100.909523
 11
116.714539
 21
-100.909523
  0
LINE
  8
0
 62
     4
 10
116.714539
 20
-89.409523
 11
116.714539
 21
-100.909523
  0
LINE
  8
0
 62
     4
 10
94.714539
 20
-98.909523
 11
94.714539
 21
-96.309525
  0
LINE
  8
0
 62
     4
 10
99.414520
 20
-99.291679
 11
99.414520
 21
-100.909523
  0
LINE
  8
0
  6
CENTER
 62
     1
 10
96.714539
 20
-95.579269
 11
96.714539
 21
-101.482193
  0
LINE
  8
0
 62
     4
 10
110.814514
 20
-89.409523
 11
110.814514
 21
-96.309525
  0
LINE
  8
0
 62
     4
 10
94.714539
 20
-98.109528
 11
98.988342
 21
-98.109528
  0
LINE
  8
0
 62
     4
 10
94.714539
 20
-98.909523
 11
98.714539
 21
-98.909523
  0
LINE
  8
0
 62
     4
 10
98.714539
 20
-98.109520
 11
98.714539
 21
-98.909523
  0
LINE
  8
0
 62
     4
 10
110.814545
 20
-89.409523
 11
116.714539
 21
-89.409523
  0
LINE
  8
0
 62
     4
 10
98.914520
 20
-100.109528
 11
99.414520
 21
-100.109528
  0
LINE
  8
0
 62
     4
 10
98.914520
 20
-98.109528
 11
98.914520
 21
-100.109528
  0
LINE
  8
0
 62
     4
 10
98.988342
 20
-99.291679
 11
99.414520
 21
-99.291679
  0
LINE
  8
0
 62
     4
 10
98.988342
 20
-98.109528
 11
98.988342
 21
-99.291679
  0
LINE
  8
0
 62
     4
 10
94.714539
 20
-97.309525
 11
116.714539
 21
-97.309525
  0
LINE
  8
0
 62
     4
 10
94.714539
 20
-96.759521
 11
116.714539
 21
-96.759521
  0
LINE
  8
0
 62
     4
 10
110.814514
 20
-95.159508
 11
116.714539
 21
-95.159508
  0
LINE
  8
0
 62
     4
 10
110.814514
 20
-95.909508
 11
116.714539
 21
-95.909508
  0
LINE
  8
0
 62
     4
 10
110.814514
 20
-90.909523
 11
116.714539
 21
-90.909523
  0
LINE
  8
0
 62
     4
 10
112.821899
 20
-80.909485
 11
115.421875
 21
-80.909485
  0
LINE
  8
0
  6
CENTER
 62
     1
 10
113.671814
 20
-82.632416
 11
113.671814
 21
-70.700333
  0
LINE
  8
0
  6
CENTER
 62
     1
 10
114.571808
 20
-82.582123
 11
114.571808
 21
-70.658478
  0
LINE
  8
0
 62
     4
 10
113.421814
 20
-70.909485
 11
113.921814
 21
-70.909485
  0
LINE
  8
0
 62
     4
 10
114.321808
 20
-70.909485
 11
114.821808
 21
-70.909485
  0
LINE
  8
0
 62
     4
 10
113.221802
 20
-73.909485
 11
115.021820
 21
-73.909485
  0
LINE
  8
0
 62
     4
 10
115.021820
 20
-80.909485
 11
115.021820
 21
-76.903938
  0
LINE
  8
0
 62
     4
 10
114.121796
 20
-80.909485
 11
114.121796
 21
-77.423553
  0
LINE
  8
0
 62
     4
 10
114.121796
 20
-75.923553
 11
114.121796
 21
-73.909485
  0
LINE
  8
0
 62
     4
 10
115.021820
 20
-75.403938
 11
115.021820
 21
-73.909485
  0
LINE
  8
0
 62
     4
 10
113.221802
 20
-80.909485
 11
113.221802
 21
-77.943176
  0
LINE
  8
0
 62
     4
 10
113.221802
 20
-76.443176
 11
113.221802
 21
-73.909485
  0
LINE
  8
0
 62
     4
 10
113.421814
 20
-73.909485
 11
113.421814
 21
-70.909485
  0
LINE
  8
0
 62
     4
 10
113.921814
 20
-73.909485
 11
113.921814
 21
-70.909485
  0
LINE
  8
0
 62
     4
 10
114.321808
 20
-73.909485
 11
114.321808
 21
-70.909485
  0
LINE
  8
0
 62
     4
 10
114.821808
 20
-73.909485
 11
114.821808
 21
-70.909485
  0
LINE
  8
0
 62
     1
 10
111.956955
 20
-77.173668
 11
116.287102
 21
-74.673645
  0
LINE
  8
0
  6
CENTER
 62
     1
 10
114.121887
 20
-90.723892
 11
114.121887
 21
-80.909485
  0
LINE
  8
0
 62
     1
 10
111.956856
 20
-78.673660
 11
116.287010
 21
-76.173645
  0
LINE
  8
0
 62
     1
 10
111.956825
 20
-86.154358
 11
116.286949
 21
-83.654350
  0
LINE
  8
0
 62
     1
 10
111.956871
 20
-87.654343
 11
116.286987
 21
-85.154350
  0
LINE
  8
0
 62
     4
 10
95.689514
 20
-100.309525
 11
97.739532
 21
-100.309525
  0
LINE
  8
0
 62
     4
 10
97.740097
 20
-100.310066
 11
97.965088
 21
-100.085068
  0
LINE
  8
0
 62
     4
 10
95.689598
 20
-100.309395
 11
95.464615
 21
-100.084412
  0
LINE
  8
0
 62
     4
 10
95.464539
 20
-98.909523
 11
95.464539
 21
-100.084526
  0
LINE
  8
0
 62
     1
 10
95.689514
 20
-98.909523
 11
95.689514
 21
-100.309525
  0
LINE
  8
0
 62
     1
 10
97.739532
 20
-98.909523
 11
97.739532
 21
-100.309525
  0
LINE
  8
0
 62
     4
 10
97.964539
 20
-98.909523
 11
97.964539
 21
-100.084518
  0
LINE
  8
0
 62
     4
 10
95.464539
 20
-100.084526
 11
97.964539
 21
-100.084526
  0
LINE
  8
0
 62
     4
 10
95.464539
 20
-95.809525
 11
95.464539
 21
-96.309525
  0
LINE
  8
0
 62
     1
 10
95.689514
 20
-95.809525
 11
95.689514
 21
-96.309525
  0
LINE
  8
0
 62
     1
 10
97.739532
 20
-95.809525
 11
97.739532
 21
-96.309525
  0
LINE
  8
0
 62
     4
 10
97.964539
 20
-95.809525
 11
97.964539
 21
-96.309525
  0
LINE
  8
0
 62
     4
 10
95.464539
 20
-95.809525
 11
97.964539
 21
-95.809525
  0
LINE
  8
0
 62
     4
 10
115.421875
 20
-89.409523
 11
115.421875
 21
-85.653687
  0
LINE
  8
0
 62
     4
 10
52.971802
 20
-85.653702
 11
52.971802
 21
-89.409523
  0
LINE
  8
0
 62
     4
 10
49.421814
 20
-90.909523
 11
53.921814
 21
-90.909523
  0
LINE
  8
0
 62
     4
 10
49.421814
 20
-89.409523
 11
49.421814
 21
-95.159523
  0
LINE
  8
0
 62
     4
 10
50.171764
 20
-95.909492
 11
49.421799
 21
-95.159531
  0
LINE
  8
0
 62
     4
 10
50.171814
 20
-96.759521
 11
50.171814
 21
-95.909523
  0
LINE
  8
0
 62
     4
 10
49.621777
 20
-97.309456
 11
50.171787
 21
-96.759445
  0
LINE
  8
0
 62
     4
 10
49.621796
 20
-97.309525
 11
49.621796
 21
-98.859520
  0
LINE
  8
0
 62
     4
 10
53.721802
 20
-97.309525
 11
53.721802
 21
-98.859520
  0
LINE
  8
0
 62
     4
 10
53.721794
 20
-97.309555
 11
53.171791
 21
-96.759552
  0
LINE
  8
0
 62
     4
 10
53.171814
 20
-96.759521
 11
53.171814
 21
-95.909523
  0
LINE
  8
0
 62
     4
 10
53.171894
 20
-95.909630
 11
53.921890
 21
-95.159630
  0
LINE
  8
0
 62
     4
 10
53.921814
 20
-89.409523
 11
53.921814
 21
-95.159523
  0
LINE
  8
0
  6
CENTER
 62
     1
 10
51.671814
 20
-83.748566
 11
51.671814
 21
-102.376190
  0
LINE
  8
0
 62
     4
 10
50.171814
 20
-96.309525
 11
53.171814
 21
-96.309525
  0
LINE
  8
0
 62
     4
 10
49.621796
 20
-98.109520
 11
53.721802
 21
-98.109520
  0
LINE
  8
0
 62
     4
 10
49.621796
 20
-98.911972
 11
53.721802
 21
-98.911972
  0
LINE
  8
0
 62
     4
 10
49.421814
 20
-89.409523
 11
53.921814
 21
-89.409523
  0
LINE
  8
0
 62
     1
 10
49.506836
 20
-87.654343
 11
53.836964
 21
-85.154350
  0
LINE
  8
0
 62
     4
 10
50.646790
 20
-100.309525
 11
52.696808
 21
-100.309525
  0
LINE
  8
0
 62
     4
 10
52.697315
 20
-100.310051
 11
52.922310
 21
-100.085052
  0
LINE
  8
0
 62
     4
 10
50.646858
 20
-100.309448
 11
50.421852
 21
-100.084442
  0
LINE
  8
0
 62
     4
 10
50.421814
 20
-98.911972
 11
50.421814
 21
-100.084526
  0
LINE
  8
0
 62
     1
 10
50.646790
 20
-98.911972
 11
50.646790
 21
-100.309525
  0
LINE
  8
0
 62
     1
 10
52.696808
 20
-98.911972
 11
52.696808
 21
-100.309525
  0
LINE
  8
0
 62
     4
 10
52.921814
 20
-98.911972
 11
52.921814
 21
-100.084518
  0
LINE
  8
0
 62
     4
 10
50.421814
 20
-100.084526
 11
52.921814
 21
-100.084526
  0
LINE
  8
0
 62
     4
 10
50.421814
 20
-95.809525
 11
50.421814
 21
-96.309525
  0
LINE
  8
0
 62
     1
 10
50.646790
 20
-95.809525
 11
50.646790
 21
-96.309525
  0
LINE
  8
0
 62
     1
 10
52.696808
 20
-95.809525
 11
52.696808
 21
-96.309525
  0
LINE
  8
0
 62
     4
 10
52.921814
 20
-95.809525
 11
52.921814
 21
-96.309525
  0
LINE
  8
0
 62
     4
 10
50.421814
 20
-95.809525
 11
52.921814
 21
-95.809525
  0
LINE
  8
0
 62
     4
 10
50.371826
 20
-87.154800
 11
50.371826
 21
-89.409523
  0
LINE
  8
0
  6
CENTER
 62
     1
 10
93.385345
 20
-48.709511
 11
118.294525
 21
-48.709511
  0
LINE
  8
0
 62
     4
 10
94.714539
 20
-50.209511
 11
111.275146
 21
-50.209511
  0
LINE
  8
0
 62
     4
 10
94.714539
 20
-47.209511
 11
111.275146
 21
-47.209511
  0
LINE
  8
0
 62
     4
 10
94.714539
 20
-50.759506
 11
111.628510
 21
-50.759506
  0
LINE
  8
0
 62
     4
 10
94.714539
 20
-46.659508
 11
111.628510
 21
-46.659508
  0
LINE
  8
0
 62
     4
 10
94.714539
 20
-46.659500
 11
94.714539
 21
-50.759506
  0
LINE
  8
0
  6
CENTER
 62
     1
 10
96.714539
 20
-45.873001
 11
96.714539
 21
-51.462326
  0
LINE
  8
0
 62
     4
 10
111.800507
 20
-46.459511
 11
116.714539
 21
-46.459511
  0
LINE
  8
0
 62
     4
 10
111.800507
 20
-50.959511
 11
116.714539
 21
-50.959511
  0
LINE
  8
0
 62
     4
 10
116.714539
 20
-46.459503
 11
116.714539
 21
-50.959503
  0
LINE
  8
0
 62
     4
 10
96.068794
 20
-49.779846
 11
97.784897
 21
-48.063740
  0
LINE
  8
0
 62
     4
 10
95.644516
 20
-49.355518
 11
97.360611
 21
-47.639423
  0
LINE
  8
0
 10
-281.250000
 20
195.500000
 11
282.099976
 21
195.500000
  0
LINE
  8
0
 10
-281.250000
 20
195.500000
 11
-281.250000
 21
-195.000000
  0
LINE
  8
0
 10
282.099976
 20
195.500000
 11
282.099976
 21
-195.000000
  0
LINE
  8
0
 10
-281.250000
 20
-195.000000
 11
282.099976
 21
-195.000000
  0
LINE
  8
0
 10
162.099976
 20
-175.000000
 11
162.099976
 21
-195.000000
  0
LINE
  8
0
 10
162.099976
 20
-175.000000
 11
282.099976
 21
-175.000000
  0
LINE
  8
0
 10
162.099976
 20
175.500000
 11
282.099976
 21
175.500000
  0
LINE
  8
0
 10
-281.250000
 20
175.500000
 11
-161.250000
 21
175.500000
  0
LINE
  8
0
 10
162.099976
 20
195.500000
 11
162.099976
 21
175.500000
  0
LINE
  8
0
 10
-161.250000
 20
195.500000
 11
-161.250000
 21
175.500000
  0
LINE
  8
0
 10
-271.250000
 20
-133.000000
 11
-271.250000
 21
-185.000000
  0
LINE
  8
0
 10
-271.250000
 20
-185.000000
 11
-72.250000
 21
-185.000000
  0
LINE
  8
0
 10
-271.250000
 20
-155.000015
 11
-72.250000
 21
-155.000015
  0
LINE
  8
0
 10
-271.250000
 20
-133.000000
 11
-72.250000
 21
-133.000000
  0
LINE
  8
0
 10
-226.250000
 20
-133.000000
 11
-226.250000
 21
-185.000000
  0
LINE
  8
0
 10
-204.250000
 20
-133.000000
 11
-204.250000
 21
-185.000000
  0
LINE
  8
0
 10
-182.250000
 20
-133.000000
 11
-182.250000
 21
-185.000000
  0
LINE
  8
0
 10
-160.250000
 20
-133.000000
 11
-160.250000
 21
-185.000000
  0
LINE
  8
0
 10
-138.250000
 20
-133.000000
 11
-138.250000
 21
-185.000000
  0
LINE
  8
0
 10
-116.250000
 20
-133.000000
 11
-116.250000
 21
-185.000000
  0
LINE
  8
0
 10
-94.250000
 20
-133.000000
 11
-94.250000
 21
-185.000000
  0
LINE
  8
0
 10
-72.250000
 20
-133.000000
 11
-72.250000
 21
-185.000000
  0
LINE
  8
0
 10
-271.250000
 20
-175.000015
 11
-72.250000
 21
-175.000015
  0
LINE
  8
0
 10
-271.250031
 20
-165.000000
 11
-72.250008
 21
-165.000000
  0
LINE
  8
0
 10
-271.250000
 20
-141.000000
 11
-234.517441
 21
-141.000000
  0
LINE
  8
0
 10
-234.517502
 20
-141.000046
 11
-226.250092
 21
-155.000061
  0
CIRCLE
  8
0
 10
-13.000000
 20
90.000000
 40
3.000000
  0
CIRCLE
  8
0
 10
22.000000
 20
90.000000
 40
3.000000
  0
CIRCLE
  8
0
 10
-3.000000
 20
107.000000
 40
3.000000
  0
CIRCLE
  8
0
 10
-13.000000
 20
90.000000
 40
1.700000
  0
CIRCLE
  8
0
 10
-3.000000
 20
107.000000
 40
1.700000
  0
CIRCLE
  8
0
 10
22.000000
 20
90.000000
 40
1.700000
  0
CIRCLE
  8
0
 10
-3.000000
 20
73.000000
 40
1.700000
  0
ARC
  8
0
 10
-28.994284
 20
92.411652
 40
1.405722
 50
145.616058
 51
214.383636
  0
ARC
  8
0
 10
-25.147406
 20
90.030090
 40
5.252676
 50
162.406128
 51
197.593781
  0
ARC
  8
0
 10
-28.994299
 20
87.648514
 40
1.405707
 50
145.616013
 51
214.383942
  0
ARC
  8
0
 10
-33.594284
 20
92.411652
 40
1.405722
 50
145.616058
 51
214.383682
  0
ARC
  8
0
 10
-29.747421
 20
90.030090
 40
5.252677
 50
162.406143
 51
197.593781
  0
ARC
  8
0
 10
-33.594299
 20
87.648514
 40
1.405708
 50
145.616058
 51
214.383942
  0
ARC
  8
0
 10
-29.405731
 20
92.411652
 40
1.405724
 50
325.616119
 51
34.383636
  0
ARC
  8
0
 10
-33.252594
 20
90.030090
 40
5.252676
 50
342.406128
 51
17.593782
  0
ARC
  8
0
 10
-29.405716
 20
87.648514
 40
1.405708
 50
325.616058
 51
34.383945
  0
CIRCLE
  8
0
 62
     2
 10
-47.500000
 20
103.000000
 40
1.500000
  0
CIRCLE
  8
0
 62
     2
 10
-47.500000
 20
77.000000
 40
1.500000
  0
CIRCLE
  8
0
 10
-3.000000
 20
73.000000
 40
3.000000
  0
CIRCLE
  8
0
 10
-47.500000
 20
103.000000
 40
1.250000
  0
CIRCLE
  8
0
 10
-47.500000
 20
77.000000
 40
1.250000
  0
CIRCLE
  8
0
 10
-119.500000
 20
99.000000
 40
2.403587
  0
CIRCLE
  8
0
 10
-119.500000
 20
99.000000
 40
2.750000
  0
CIRCLE
  8
0
 10
-119.500000
 20
81.000000
 40
2.403595
  0
CIRCLE
  8
0
 62
     2
 10
-119.500000
 20
107.000000
 40
1.500000
  0
CIRCLE
  8
0
 62
     2
 10
-119.500000
 20
73.000000
 40
1.500000
  0
CIRCLE
  8
0
 10
-119.500000
 20
99.000000
 40
3.250000
  0
CIRCLE
  8
0
 10
-119.500000
 20
81.000000
 40
3.250000
  0
CIRCLE
  8
0
 10
-119.500000
 20
81.000000
 40
2.750000
  0
CIRCLE
  8
0
 10
-119.500000
 20
107.000000
 40
1.250000
  0
CIRCLE
  8
0
 10
-119.500000
 20
73.000000
 40
1.250000
  0
ARC
  8
0
 10
104.600067
 20
105.999977
 40
2.099998
 50
270.000000
 51
90.000000
  0
CIRCLE
  8
0
 10
110.500061
 20
98.999992
 40
6.000000
  0
CIRCLE
  8
0
 10
110.500061
 20
81.000008
 40
6.000000
  0
ARC
  8
0
 10
110.500061
 20
108.367058
 40
2.099998
 50
180.000000
 51
0.000000
  0
ARC
  8
0
 10
116.400055
 20
105.999977
 40
2.099998
 50
90.000000
 51
270.000000
  0
ARC
  8
0
 10
116.400055
 20
91.999977
 40
2.099998
 50
90.000000
 51
270.000000
  0
ARC
  8
0
 10
104.600067
 20
91.999992
 40
2.099998
 50
270.000000
 51
90.000000
  0
ARC
  8
0
 10
-26.428289
 20
6.625000
 40
3.971709
 50
174.582199
 51
200.254913
  0
ARC
  8
0
 10
-31.028290
 20
6.625000
 40
3.971711
 50
174.582199
 51
200.254913
  0
ARC
  8
0
 10
-31.971725
 20
6.625000
 40
3.971709
 50
339.745026
 51
5.417811
  0
CIRCLE
  8
0
 62
     2
 10
4.000000
 20
10.000000
 40
2.500000
  0
CIRCLE
  8
0
 62
     2
 10
28.000000
 20
10.000000
 40
2.500000
  0
CIRCLE
  8
0
 10
4.000000
 20
10.000000
 40
2.100000
  0
CIRCLE
  8
0
 10
28.000000
 20
10.000000
 40
2.100000
  0
ARC
  8
0
 62
     4
 10
-107.639130
 20
-98.859520
 40
2.050003
 50
180.000000
 51
270.000000
  0
ARC
  8
0
 62
     4
 10
-107.639130
 20
-98.859520
 40
2.050003
 50
270.000000
 51
0.000000
  0
CIRCLE
  8
0
 62
     4
 10
-61.096390
 20
-53.759521
 40
1.250000
  0
CIRCLE
  8
0
 62
     4
 10
-61.096390
 20
-53.759521
 40
1.400000
  0
ARC
  8
0
 62
     4
 10
51.671814
 20
-98.859520
 40
2.049999
 50
180.000000
 51
270.000000
  0
ARC
  8
0
 62
     4
 10
51.671814
 20
-98.859520
 40
2.050003
 50
271.259888
 51
0.000000
  0
CIRCLE
  8
0
 62
     4
 10
114.443695
 20
-49.050514
 40
0.250000
  0
CIRCLE
  8
0
 62
     4
 10
113.831818
 20
-48.391357
 40
0.450000
  0
CIRCLE
  8
0
 62
     4
 10
113.831818
 20
-48.391357
 40
0.250000
  0
ARC
  8
0
 62
     4
 10
114.214539
 20
-48.709511
 40
3.300002
 50
137.014145
 51
222.985855
  0
CIRCLE
  8
0
 62
     4
 10
96.714539
 20
-48.709511
 40
1.250000
  0
CIRCLE
  8
0
 62
     4
 10
96.714539
 20
-48.709511
 40
1.400000
  0
CIRCLE
  8
0
 62
     4
 10
114.121887
 20
-48.709511
 40
1.300000
  0
CIRCLE
  8
0
 62
     4
 10
114.443695
 20
-49.050514
 40
0.450000
  0
TEXT
  8
0
 10
196.250259
 20
180.830002
 40
6.300000
  1
Ver. 1.0
 50
0.000000
 41
1.052632
 51
0.000000
  7
STANDARD
  0
TEXT
  8
0
 10
167.564667
 20
-192.100006
 40
9.000000
  1
KOGANEI CORP.
 50
0.000000
 41
1.052632
 51
0.000000
  7
STANDARD
  0
TEXT
  8
0
 10
-275.449738
 20
180.830002
 40
6.300000
  1
TWIN ROD CYLINDER
 50
0.000000
 41
1.052632
 51
0.000000
  7
STANDARD
  0
TEXT
  8
0
 10
-258.127045
 20
-154.550003
 40
4.500000
  1
PLACE
 50
0.000000
 41
1.052632
 51
0.000000
  7
STANDARD
  0
TEXT
  8
0
 10
-220.142654
 20
-147.050003
 40
4.500000
  1
10
 50
0.000000
 41
1.052632
 51
0.000000
  7
STANDARD
  0
TEXT
  8
0
 10
-199.142654
 20
-131.050003
 40
4.500000
  1
STRETCH LIST
 50
0.000000
 41
1.052632
 51
0.000000
  7
STANDARD
  0
TEXT
  8
0
 10
-270.049713
 20
155.830002
 40
6.300000
  1
MODEL:TBDAM10*ST(10)
 50
0.000000
 41
1.052632
 51
0.000000
  7
STANDARD
  0
TEXT
  8
0
 10
-92.642654
 20
-132.050003
 40
4.500000
  1
(mm)
 50
0.000000
 41
1.052632
 51
0.000000
  7
STANDARD
  0
TEXT
  8
0
 10
-267.127045
 20
-140.050003
 40
4.500000
  1
STROKE
 50
0.000000
 41
1.052632
 51
0.000000
  7
STANDARD
  0
TEXT
  8
0
 10
-267.127045
 20
-148.550003
 40
4.500000
  1
STRETCH
 50
0.000000
 41
1.052632
 51
0.000000
  7
STANDARD
  0
TEXT
  8
0
 10
-251.585724
 20
-163.320007
 40
4.800000
  1
A
 50
0.000000
 41
1.052632
 51
0.000000
  7
STANDARD
  0
TEXT
  8
0
 10
-251.585724
 20
-173.320007
 40
4.800000
  1
B
 50
0.000000
 41
1.052632
 51
0.000000
  7
STANDARD
  0
TEXT
  8
0
 10
-251.585724
 20
-183.320007
 40
4.800000
  1
C
 50
0.000000
 41
1.052632
 51
0.000000
  7
STANDARD
  0
TEXT
  8
0
 10
-198.142853
 20
-147.050003
 40
4.500000
  1
20
 50
0.000000
 41
1.052632
 51
0.000000
  7
STANDARD
  0
TEXT
  8
0
 10
-176.142853
 20
-147.050003
 40
4.500000
  1
30
 50
0.000000
 41
1.052632
 51
0.000000
  7
STANDARD
  0
TEXT
  8
0
 10
-154.142853
 20
-147.050003
 40
4.500000
  1
40
 50
0.000000
 41
1.052632
 51
0.000000
  7
STANDARD
  0
TEXT
  8
0
 10
-132.142853
 20
-147.050003
 40
4.500000
  1
50
 50
0.000000
 41
1.052632
 51
0.000000
  7
STANDARD
  0
TEXT
  8
0
 10
-110.142853
 20
-147.050003
 40
4.500000
  1
60
 50
0.000000
 41
1.052632
 51
0.000000
  7
STANDARD
  0
TEXT
  8
0
 10
-88.142853
 20
-147.050003
 40
4.500000
  1
70
 50
0.000000
 41
1.052632
 51
0.000000
  7
STANDARD
  0
TEXT
  8
0
 10
-88.142853
 20
-183.049973
 40
4.500000
  1
60
 50
0.000000
 41
1.052632
 51
0.000000
  7
STANDARD
  0
TEXT
  8
0
 10
-217.892853
 20
-163.050003
 40
4.500000
  1
0
 50
0.000000
 41
1.052632
 51
0.000000
  7
STANDARD
  0
TEXT
  8
0
 10
-217.892853
 20
-173.049988
 40
4.500000
  1
0
 50
0.000000
 41
1.052632
 51
0.000000
  7
STANDARD
  0
TEXT
  8
0
 10
-217.892853
 20
-183.049973
 40
4.500000
  1
0
 50
0.000000
 41
1.052632
 51
0.000000
  7
STANDARD
  0
TEXT
  8
0
 10
-198.142853
 20
-183.049973
 40
4.500000
  1
10
 50
0.000000
 41
1.052632
 51
0.000000
  7
STANDARD
  0
TEXT
  8
0
 10
-176.142853
 20
-183.049973
 40
4.500000
  1
20
 50
0.000000
 41
1.052632
 51
0.000000
  7
STANDARD
  0
TEXT
  8
0
 10
-154.142853
 20
-183.049973
 40
4.500000
  1
30
 50
0.000000
 41
1.052632
 51
0.000000
  7
STANDARD
  0
TEXT
  8
0
 10
-132.142853
 20
-183.049973
 40
4.500000
  1
40
 50
0.000000
 41
1.052632
 51
0.000000
  7
STANDARD
  0
TEXT
  8
0
 10
-110.142853
 20
-183.049973
 40
4.500000
  1
50
 50
0.000000
 41
1.052632
 51
0.000000
  7
STANDARD
  0
TEXT
  8
0
 62
     3
 10
-48.862728
 20
141.753006
 40
4.500000
  1
STRETCH LINE C
 50
0.000000
 41
1.052632
 51
0.000000
  7
STANDARD
  0
TEXT
  8
0
 62
     3
 10
-20.362728
 20
131.753006
 40
4.500000
  1
STRETCH LINE A
 50
0.000000
 41
1.052632
 51
0.000000
  7
STANDARD
  0
TEXT
  8
0
 62
     3
 10
2.137272
 20
121.753006
 40
4.500000
  1
STRETCH LINE B
 50
0.000000
 41
1.052632
 51
0.000000
  7
STANDARD
  0
TEXT
  8
0
 10
-198.142853
 20
-163.050003
 40
4.500000
  1
15
 50
0.000000
 41
1.052632
 51
0.000000
  7
STANDARD
  0
TEXT
  8
0
 10
-198.485718
 20
-173.319992
 40
4.800000
  1
-5
 50
0.000000
 41
1.052632
 51
0.000000
  7
STANDARD
  0
TEXT
  8
0
 10
-176.485718
 20
-163.320007
 40
4.800000
  1
20
 50
0.000000
 41
1.052632
 51
0.000000
  7
STANDARD
  0
TEXT
  8
0
 10
-174.085709
 20
-173.319992
 40
4.800000
  1
0
 50
0.000000
 41
1.052632
 51
0.000000
  7
STANDARD
  0
TEXT
  8
0
 10
-154.485718
 20
-163.320007
 40
4.800000
  1
25
 50
0.000000
 41
1.052632
 51
0.000000
  7
STANDARD
  0
TEXT
  8
0
 10
-152.085709
 20
-173.319992
 40
4.800000
  1
5
 50
0.000000
 41
1.052632
 51
0.000000
  7
STANDARD
  0
TEXT
  8
0
 10
-132.485718
 20
-163.320007
 40
4.800000
  1
30
 50
0.000000
 41
1.052632
 51
0.000000
  7
STANDARD
  0
TEXT
  8
0
 10
-132.485718
 20
-173.319992
 40
4.800000
  1
10
 50
0.000000
 41
1.052632
 51
0.000000
  7
STANDARD
  0
TEXT
  8
0
 10
-110.485710
 20
-163.320007
 40
4.800000
  1
35
 50
0.000000
 41
1.052632
 51
0.000000
  7
STANDARD
  0
TEXT
  8
0
 10
-110.485710
 20
-173.319992
 40
4.800000
  1
15
 50
0.000000
 41
1.052632
 51
0.000000
  7
STANDARD
  0
TEXT
  8
0
 10
-88.485710
 20
-173.319992
 40
4.800000
  1
20
 50
0.000000
 41
1.052632
 51
0.000000
  7
STANDARD
  0
TEXT
  8
0
 10
-88.485710
 20
-163.320007
 40
4.800000
  1
40
 50
0.000000
 41
1.052632
 51
0.000000
  7
STANDARD
  0
ENDSEC
  0
EOF
