  0
SECTION
  2
HEADER
  0
ENDSEC
  0
SECTION
  2
TABLES
  0
TABLE
  2
LTYPE
 70
     4
  0
LTYPE
  2
CONTINUOUS
 70
    64
  3
Solid line
 72
    65
 73
     0
 40
0.000000
  0
LTYPE
  2
DASHED
 70
    64
  3
__ __ __ __ __ __ __ __ __ __ __ __ __ __ __
 72
    65
 73
     2
 40
3.500000
 49
2.000000
 49
-1.500000
  0
LTYPE
  2
CENTER
 70
    64
  3
____ _ ____ _ ____ _ ____ _ ____ _ ____ _ ____
 72
    65
 73
     4
 40
17.500000
 49
13.000000
 49
-1.500000
 49
1.500000
 49
-1.500000
  0
LTYPE
  2
PHANTOM
 70
    64
  3
_____ _ _ _____ _ _ _____ _ _ _____ _ _ ____  
 72
    65
 73
     6
 40
15.500000
 49
8.000000
 49
-1.500000
 49
1.500000
 49
-1.500000
 49
1.500000
 49
-1.500000
  0
LTYPE
  2
DASHED1
 70
    64
  3
__ __ __ __ __ __ __ __ __ __ __ __ __ __ __
 72
    65
 73
     2
 40
1.500000
 49
1.000000
 49
-0.500000
  0
LTYPE
  2
DASHED2
 70
    64
  3
__ __ __ __ __ __ __ __ __ __ __ __ __ __ __
 72
    65
 73
     2
 40
3.500000
 49
2.500000
 49
-1.000000
  0
LTYPE
  2
DASHED3
 70
    64
  3
__ __ __ __ __ __ __ __ __ __ __ __ __ __ __
 72
    65
 73
     2
 40
6.000000
 49
4.000000
 49
-2.000000
  0
LTYPE
  2
DASHED4
 70
    64
  3
__ __ __ __ __ __ __ __ __ __ __ __ __ __ __
 72
    65
 73
     2
 40
12.000000
 49
10.000000
 49
-2.000000
  0
LTYPE
  2
DASHED5
 70
    64
  3
__ __ __ __ __ __ __ __ __ __ __ __ __ __ __
 72
    65
 73
     2
 40
17.000000
 49
15.000000
 49
-2.000000
  0
LTYPE
  2
DASHED6
 70
    64
  3
__ __ __ __ __ __ __ __ __ __ __ __ __ __ __
 72
    65
 73
     2
 40
29.000000
 49
27.000000
 49
-2.000000
  0
LTYPE
  2
PHANTOM1
 70
    64
  3
_____ _ _ _____ _ _ _____ _ _ _____ _ _ ____  
 72
    65
 73
     6
 40
31.000000
 49
25.000000
 49
-1.500000
 49
1.000000
 49
-1.000000
 49
1.000000
 49
-1.500000
  0
LTYPE
  2
PHANTOM2
 70
    64
  3
_____ _ _ _____ _ _ _____ _ _ _____ _ _ ____  
 72
    65
 73
     6
 40
36.000000
 49
27.000000
 49
-1.500000
 49
2.500000
 49
-1.000000
 49
2.500000
 49
-1.500000
  0
LTYPE
  2
PHANTOM3
 70
    64
  3
_____ _ _ _____ _ _ _____ _ _ _____ _ _ ____  
 72
    65
 73
     6
 40
78.000000
 49
64.000000
 49
-2.000000
 49
4.000000
 49
-2.000000
 49
4.000000
 49
-2.000000
  0
LTYPE
  2
CENTER1
 70
    64
  3
____ _ ____ _ ____ _ ____ _ ____ _ ____ _ ____
 72
    65
 73
     4
 40
19.000000
 49
14.000000
 49
-1.000000
 49
3.000000
 49
-1.000000
  0
LTYPE
  2
CENTER2
 70
    64
  3
____ _ ____ _ ____ _ ____ _ ____ _ ____ _ ____
 72
    65
 73
     4
 40
28.500000
 49
25.000000
 49
-1.000000
 49
1.500000
 49
-1.000000
  0
LTYPE
  2
CENTER3
 70
    64
  3
____ _ ____ _ ____ _ ____ _ ____ _ ____ _ ____
 72
    65
 73
     4
 40
31.500000
 49
27.000000
 49
-1.000000
 49
2.500000
 49
-1.000000
  0
LTYPE
  2
CENTER4
 70
    64
  3
____ _ ____ _ ____ _ ____ _ ____ _ ____ _ ____
 72
    65
 73
     4
 40
50.000000
 49
45.000000
 49
-1.000000
 49
3.000000
 49
-1.000000
  0
LTYPE
  2
CENTER5
 70
    64
  3
____ _ ____ _ ____ _ ____ _ ____ _ ____ _ ____
 72
    65
 73
     4
 40
100.000000
 49
92.000000
 49
-2.000000
 49
4.000000
 49
-2.000000
  0
LTYPE
  2
SBK1
 70
    64
  3
______ _ _ _ ______ _ _ _ ______ _ _ _ _____  
 72
    65
 73
     8
 40
60.500000
 49
45.000000
 49
-2.000000
 49
2.500000
 49
-2.000000
 49
2.500000
 49
-2.000000
 49
2.500000
 49
-2.000000
  0
LTYPE
  2
SBK2
 70
    64
  3
______ _ _ _ ______ _ _ _ ______ _ _ _ _____  
 72
    65
 73
     8
 40
84.000000
 49
64.000000
 49
-2.000000
 49
4.000000
 49
-2.000000
 49
4.000000
 49
-2.000000
 49
4.000000
 49
-2.000000
  0
LTYPE
  2
STCH
 70
    64
  3
__ __ __ __ __ __ __ __ __ __ __ __ __ __ __
 72
    65
 73
     2
 40
3.000000
 49
1.000000
 49
-2.000000
  0
LTYPE
  2
MTCH
 70
    64
  3
_____ _ _ _____ _ _ _____ _ _ _____ _ _ ____  
 72
    65
 73
     6
 40
80.000000
 49
66.000000
 49
-2.000000
 49
4.000000
 49
-2.000000
 49
4.000000
 49
-2.000000
  0
ENDTAB
  0
TABLE
  2
LAYER
 70
     1
  0
LAYER
  2
0
 70
     0
 62
     7
  6
CONTINUOUS
  0
ENDTAB
  0
TABLE
  2
STYLE
 70
     1
  0
STYLE
  2
STANDARD
 70
     0
 40
0.000000
 41
1.000000
 50
0.000000
 71
     0
 42
0.200000
  3
txt
  4
BIGFONT
  0
ENDTAB
  0
TABLE
  2
VIEW
 70
     0
  0
ENDTAB
  0
ENDSEC
  0
SECTION
  2
BLOCKS
  0
ENDSEC
  0
SECTION
  2
ENTITIES
  0
LINE
  8
0
  6
PHANTOM
 62
     3
 10
-36.500000
 20
147.000000
 11
-36.500000
 21
43.750000
  0
LINE
  8
0
  6
PHANTOM
 62
     3
 10
19.500000
 20
127.000000
 11
19.500000
 21
43.750000
  0
LINE
  8
0
  6
PHANTOM
 62
     3
 10
-3.000000
 20
137.000000
 11
-3.000000
 21
43.750000
  0
LINE
  8
0
 10
-27.499977
 20
62.999992
 11
44.500008
 21
62.999992
  0
LINE
  8
0
 10
-27.999977
 20
116.499992
 11
-27.999977
 21
63.499992
  0
LINE
  8
0
 10
-44.999977
 20
116.499992
 11
-44.999977
 21
63.499992
  0
LINE
  8
0
 10
-52.999977
 20
116.499992
 11
-52.999977
 21
63.499992
  0
LINE
  8
0
 10
-27.499977
 20
116.999992
 11
44.499870
 21
116.999992
  0
LINE
  8
0
 10
-52.999977
 20
116.499992
 11
-44.999977
 21
116.499992
  0
LINE
  8
0
 10
-52.999977
 20
63.499992
 11
-44.999977
 21
63.499992
  0
LINE
  8
0
 10
44.999981
 20
116.499939
 11
44.499985
 21
116.999947
  0
LINE
  8
0
 10
44.499996
 20
62.999996
 11
45.000000
 21
63.499996
  0
LINE
  8
0
 10
-27.999994
 20
63.499969
 11
-27.499989
 21
62.999966
  0
LINE
  8
0
 10
-27.999975
 20
116.499939
 11
-27.499973
 21
116.999939
  0
LINE
  8
0
 10
-44.999977
 20
105.999992
 11
-27.999977
 21
105.999992
  0
LINE
  8
0
 10
-44.999977
 20
97.999992
 11
-27.999977
 21
97.999992
  0
LINE
  8
0
 10
-44.999977
 20
81.999992
 11
-27.999977
 21
81.999992
  0
LINE
  8
0
 10
-44.999977
 20
73.999992
 11
-27.999977
 21
73.999992
  0
LINE
  8
0
  6
CENTER
 62
     2
 10
-55.833305
 20
101.999992
 11
-25.467079
 21
101.999992
  0
LINE
  8
0
  6
CENTER
 62
     2
 10
-55.499977
 20
89.999992
 11
47.610420
 21
89.999992
  0
LINE
  8
0
  6
CENTER
 62
     2
 10
-55.499977
 20
77.999992
 11
-26.008614
 21
77.999992
  0
LINE
  8
0
  6
CENTER
 62
     2
 10
7.000023
 20
66.499992
 11
17.000023
 21
66.499992
  0
LINE
  8
0
  6
CENTER
 62
     2
 10
7.000023
 20
113.499992
 11
17.000023
 21
113.499992
  0
LINE
  8
0
  6
CENTER
 62
     2
 10
-12.999977
 20
94.999992
 11
-12.999977
 21
84.999992
  0
LINE
  8
0
  6
CENTER
 62
     2
 10
12.000023
 20
118.499992
 11
12.000023
 21
108.499992
  0
LINE
  8
0
  6
CENTER
 62
     2
 10
27.000023
 20
94.999992
 11
27.000023
 21
84.999992
  0
LINE
  8
0
  6
CENTER
 62
     2
 10
12.000023
 20
71.499992
 11
12.000023
 21
61.499992
  0
LINE
  8
0
  6
CENTER
 62
     2
 10
-48.999977
 20
75.999992
 11
-48.999977
 21
69.999992
  0
LINE
  8
0
  6
CENTER
 62
     2
 10
-48.999977
 20
109.999992
 11
-48.999977
 21
103.999992
  0
LINE
  8
0
  6
CENTER
 62
     2
 10
-51.999977
 20
72.999992
 11
-45.999977
 21
72.999992
  0
LINE
  8
0
  6
CENTER
 62
     2
 10
-51.999977
 20
106.999992
 11
-45.999977
 21
106.999992
  0
LINE
  8
0
 10
-30.399986
 20
93.499992
 11
-30.399986
 21
86.499992
  0
LINE
  8
0
 10
-33.999977
 20
93.499992
 11
-33.999977
 21
86.499992
  0
LINE
  8
0
 10
-33.687370
 20
94.041435
 11
-31.199989
 21
94.041435
  0
LINE
  8
0
 10
-33.687370
 20
92.020714
 11
-31.199989
 21
92.020714
  0
LINE
  8
0
 10
-33.687370
 20
87.979256
 11
-31.199989
 21
87.979256
  0
LINE
  8
0
 10
-33.687370
 20
85.958534
 11
-31.199989
 21
85.958534
  0
LINE
  8
0
 10
-31.199989
 20
94.041435
 11
-31.199989
 21
85.958534
  0
LINE
  8
0
 10
-30.399973
 20
93.499962
 11
-30.087370
 21
94.041412
  0
LINE
  8
0
 10
-30.400024
 20
86.499939
 11
-30.087418
 21
85.958488
  0
LINE
  8
0
 10
-33.999977
 20
93.499969
 11
-33.687370
 21
94.041420
  0
LINE
  8
0
 10
-34.000008
 20
86.499947
 11
-33.687397
 21
85.958481
  0
LINE
  8
0
 10
-28.000029
 20
93.499962
 11
-28.312637
 21
94.041412
  0
LINE
  8
0
 10
-27.999968
 20
86.499977
 11
-28.312574
 21
85.958527
  0
LINE
  8
0
 10
-30.087379
 20
94.041435
 11
-28.312599
 21
94.041435
  0
LINE
  8
0
 10
-30.087379
 20
85.958534
 11
-28.312584
 21
85.958534
  0
LINE
  8
0
 10
-30.087379
 20
87.979256
 11
-28.312584
 21
87.979256
  0
LINE
  8
0
 10
-30.087379
 20
92.020714
 11
-28.312584
 21
92.020714
  0
LINE
  8
0
 10
-31.199989
 20
91.999992
 11
-30.399986
 21
91.999992
  0
LINE
  8
0
 10
-31.199989
 20
87.999992
 11
-30.399986
 21
87.999992
  0
LINE
  8
0
 62
     2
 10
-31.199989
 20
91.729485
 11
-30.399986
 21
91.729485
  0
LINE
  8
0
 62
     2
 10
-31.199989
 20
88.270485
 11
-30.399986
 21
88.270485
  0
LINE
  8
0
 10
-42.999977
 20
104.527840
 11
-42.999977
 21
99.472145
  0
LINE
  8
0
 10
-44.999977
 20
75.472130
 11
-42.999977
 21
75.472130
  0
LINE
  8
0
 10
-44.999977
 20
80.527824
 11
-42.999977
 21
80.527824
  0
LINE
  8
0
 10
-44.999977
 20
104.527824
 11
-42.999977
 21
104.527824
  0
LINE
  8
0
 10
-44.999977
 20
99.472130
 11
-42.999977
 21
99.472130
  0
LINE
  8
0
 10
-42.999977
 20
80.527840
 11
-42.999977
 21
75.472130
  0
LINE
  8
0
 62
     2
 10
-42.999977
 20
80.527817
 11
-44.999977
 21
75.472122
  0
LINE
  8
0
 62
     2
 10
-42.999973
 20
75.472137
 11
-44.999973
 21
80.527847
  0
LINE
  8
0
 62
     2
 10
-44.999992
 20
104.527840
 11
-42.999992
 21
99.472145
  0
LINE
  8
0
 62
     2
 10
-42.999966
 20
104.527809
 11
-44.999962
 21
99.472107
  0
LINE
  8
0
 10
-44.999977
 20
92.749992
 11
-43.999977
 21
92.749992
  0
LINE
  8
0
 10
-44.999977
 20
87.249992
 11
-43.999977
 21
87.249992
  0
LINE
  8
0
 10
-43.999977
 20
92.749992
 11
-43.999977
 21
87.249992
  0
LINE
  8
0
 10
-27.999977
 20
94.399986
 11
45.000023
 21
94.399986
  0
LINE
  8
0
 10
-27.999977
 20
91.199989
 11
-16.815742
 21
91.199989
  0
LINE
  8
0
 10
-27.999977
 20
109.699989
 11
10.751030
 21
109.699989
  0
LINE
  8
0
 10
-27.999977
 20
112.899986
 11
8.045280
 21
112.899986
  0
LINE
  8
0
 10
-9.184227
 20
91.199989
 11
23.184258
 21
91.199989
  0
LINE
  8
0
 10
15.954765
 20
112.899986
 11
45.000023
 21
112.899986
  0
LINE
  8
0
 10
30.815773
 20
91.199989
 11
45.000023
 21
91.199989
  0
LINE
  8
0
 10
13.249031
 20
109.699989
 11
45.000023
 21
109.699989
  0
LINE
  8
0
 10
45.000023
 20
116.499825
 11
45.000023
 21
63.499992
  0
LINE
  8
0
 10
-117.500000
 20
116.500000
 11
-117.500000
 21
63.500000
  0
LINE
  8
0
 10
-137.500000
 20
116.500000
 11
-137.500000
 21
63.500000
  0
LINE
  8
0
 10
-137.500000
 20
116.500000
 11
-117.500000
 21
116.500000
  0
LINE
  8
0
 10
-137.500000
 20
63.500000
 11
-117.500000
 21
63.500000
  0
LINE
  8
0
  6
CENTER
 62
     2
 10
-132.589233
 20
102.000000
 11
-122.701828
 21
102.000000
  0
LINE
  8
0
  6
CENTER
 62
     2
 10
-139.000000
 20
90.000000
 11
-115.333328
 21
90.000000
  0
LINE
  8
0
  6
CENTER
 62
     2
 10
-132.472229
 20
78.000000
 11
-122.643311
 21
78.000000
  0
LINE
  8
0
  6
CENTER
 62
     2
 10
-127.500000
 20
119.666672
 11
-127.500000
 21
59.333328
  0
LINE
  8
0
 10
-117.000000
 20
91.199982
 11
-117.000000
 21
63.500000
  0
LINE
  8
0
 10
-129.100006
 20
117.000000
 11
-137.500015
 21
117.000000
  0
LINE
  8
0
 10
-117.000000
 20
116.500000
 11
-117.000000
 21
112.900009
  0
LINE
  8
0
 10
-138.000000
 20
116.500000
 11
-138.000000
 21
112.900009
  0
LINE
  8
0
 10
-117.500000
 20
117.000000
 11
-125.899994
 21
117.000000
  0
LINE
  8
0
 10
-117.500000
 20
63.000000
 11
-137.500000
 21
63.000000
  0
LINE
  8
0
 10
-117.500023
 20
117.000008
 11
-117.000008
 21
116.500000
  0
LINE
  8
0
 10
-137.999954
 20
116.499962
 11
-137.499969
 21
116.999962
  0
LINE
  8
0
 10
-137.999969
 20
63.500023
 11
-137.499969
 21
63.000023
  0
LINE
  8
0
 10
-116.999962
 20
63.499969
 11
-117.499947
 21
62.999973
  0
LINE
  8
0
 10
-138.000000
 20
91.199982
 11
-138.000000
 21
63.500000
  0
LINE
  8
0
  6
CENTER
 62
     2
 10
-130.500000
 20
66.500000
 11
-124.500000
 21
66.500000
  0
LINE
  8
0
  6
CENTER
 62
     2
 10
-130.500000
 20
113.500000
 11
-124.500000
 21
113.500000
  0
LINE
  8
0
 10
-129.000000
 20
102.866013
 11
-129.000000
 21
101.133972
  0
LINE
  8
0
 10
-126.000000
 20
102.866028
 11
-126.000000
 21
101.133972
  0
LINE
  8
0
 10
-128.999985
 20
102.866074
 11
-127.499985
 21
103.732101
  0
LINE
  8
0
 10
-127.499992
 20
100.267998
 11
-125.999985
 21
101.134026
  0
LINE
  8
0
 10
-128.999985
 20
78.866051
 11
-127.500000
 21
79.732071
  0
LINE
  8
0
 10
-127.500000
 20
76.267982
 11
-126.000015
 21
77.134003
  0
LINE
  8
0
 10
-127.500000
 20
103.732063
 11
-126.000000
 21
102.866028
  0
LINE
  8
0
 10
-129.000000
 20
101.133987
 11
-127.500000
 21
100.267960
  0
LINE
  8
0
 10
-127.500000
 20
79.732040
 11
-126.000008
 21
78.866020
  0
LINE
  8
0
 10
-128.999969
 20
77.133957
 11
-127.499985
 21
76.267937
  0
LINE
  8
0
 10
-129.000000
 20
78.866028
 11
-129.000000
 21
77.133972
  0
LINE
  8
0
 10
-126.000000
 20
78.866028
 11
-126.000000
 21
77.133972
  0
LINE
  8
0
 10
-138.000000
 20
94.400009
 11
-137.500000
 21
94.400009
  0
LINE
  8
0
 10
-138.000000
 20
91.199982
 11
-137.500000
 21
91.199982
  0
LINE
  8
0
 10
-116.999985
 20
94.400009
 11
-117.500000
 21
94.400009
  0
LINE
  8
0
 10
-116.999985
 20
91.199982
 11
-117.500000
 21
91.199982
  0
LINE
  8
0
 10
-125.899994
 20
117.000000
 11
-125.899994
 21
116.500000
  0
LINE
  8
0
 10
-129.100006
 20
117.000000
 11
-129.100006
 21
116.500000
  0
LINE
  8
0
 10
-117.000000
 20
112.900009
 11
-117.500000
 21
112.900009
  0
LINE
  8
0
 10
-117.000000
 20
109.699997
 11
-117.500000
 21
109.699997
  0
LINE
  8
0
 10
-117.000000
 20
109.699997
 11
-117.000000
 21
94.400009
  0
LINE
  8
0
 10
-138.000000
 20
112.900009
 11
-137.500000
 21
112.900009
  0
LINE
  8
0
 10
-138.000000
 20
109.699997
 11
-137.500000
 21
109.699997
  0
LINE
  8
0
 10
-138.000000
 20
109.699997
 11
-138.000000
 21
94.400009
  0
LINE
  8
0
 10
108.000023
 20
116.499992
 11
108.000023
 21
112.900002
  0
LINE
  8
0
 10
129.000031
 20
116.499992
 11
129.000031
 21
112.900002
  0
LINE
  8
0
 10
108.500023
 20
116.999992
 11
116.900024
 21
116.999992
  0
LINE
  8
0
 10
108.500023
 20
62.999992
 11
128.500031
 21
62.999992
  0
LINE
  8
0
 10
108.499992
 20
117.000015
 11
108.000008
 21
116.500031
  0
LINE
  8
0
 10
128.999969
 20
116.499947
 11
128.499985
 21
116.999954
  0
LINE
  8
0
 10
128.999985
 20
63.500023
 11
128.500000
 21
63.000027
  0
LINE
  8
0
 10
107.999969
 20
63.499947
 11
108.499962
 21
62.999962
  0
LINE
  8
0
  6
CENTER
 62
     2
 10
106.500023
 20
101.999992
 11
131.500031
 21
101.999992
  0
LINE
  8
0
  6
CENTER
 62
     2
 10
106.166679
 20
89.999992
 11
131.500031
 21
89.999992
  0
LINE
  8
0
  6
CENTER
 62
     2
 10
106.166679
 20
77.999992
 11
131.833374
 21
77.999992
  0
LINE
  8
0
  6
CENTER
 62
     2
 10
118.500031
 20
120.333321
 11
118.500031
 21
60.666649
  0
LINE
  8
0
 10
120.100037
 20
116.999992
 11
128.500000
 21
116.999992
  0
LINE
  8
0
 10
108.000023
 20
91.199989
 11
108.000023
 21
63.499992
  0
LINE
  8
0
 10
129.000031
 20
91.199974
 11
129.000031
 21
63.499992
  0
LINE
  8
0
 10
120.600037
 20
115.983528
 11
120.600037
 21
114.383537
  0
LINE
  8
0
 10
120.099937
 20
116.483360
 11
120.599930
 21
115.983376
  0
LINE
  8
0
 10
116.400024
 20
115.983543
 11
116.400024
 21
114.383537
  0
LINE
  8
0
 10
128.000031
 20
90.699974
 11
126.400024
 21
90.699974
  0
LINE
  8
0
 10
128.500061
 20
91.199951
 11
128.000076
 21
90.699959
  0
LINE
  8
0
 10
128.499878
 20
94.399895
 11
127.999878
 21
94.899887
  0
LINE
  8
0
 10
128.000031
 20
94.900002
 11
126.400024
 21
94.900002
  0
LINE
  8
0
 10
116.900024
 20
116.999992
 11
116.900024
 21
116.483543
  0
LINE
  8
0
 10
120.100037
 20
116.999992
 11
120.100037
 21
116.483528
  0
LINE
  8
0
 10
129.000031
 20
94.400002
 11
128.500031
 21
94.400002
  0
LINE
  8
0
 10
129.000031
 20
91.199974
 11
128.500031
 21
91.199974
  0
LINE
  8
0
 10
108.999840
 20
94.900002
 11
110.570030
 21
94.900002
  0
LINE
  8
0
 10
116.400055
 20
115.983574
 11
116.900055
 21
116.483574
  0
LINE
  8
0
  6
CENTER
 62
     2
 10
106.166679
 20
92.799980
 11
130.666626
 21
92.799980
  0
LINE
  8
0
  6
CENTER
 62
     2
 10
106.166679
 20
111.299995
 11
130.333313
 21
111.299995
  0
LINE
  8
0
 10
108.000023
 20
109.699989
 11
108.000023
 21
94.400002
  0
LINE
  8
0
 10
128.000031
 20
109.199989
 11
126.400024
 21
109.199989
  0
LINE
  8
0
 10
128.500046
 20
109.699944
 11
128.000061
 21
109.199951
  0
LINE
  8
0
 10
128.499847
 20
112.899902
 11
127.999870
 21
113.399895
  0
LINE
  8
0
 10
128.000031
 20
113.400002
 11
126.400024
 21
113.400002
  0
LINE
  8
0
 10
129.000031
 20
112.900002
 11
128.500031
 21
112.900002
  0
LINE
  8
0
 10
129.000031
 20
109.699989
 11
128.500031
 21
109.699989
  0
LINE
  8
0
 10
129.000031
 20
109.699989
 11
129.000031
 21
94.400002
  0
LINE
  8
0
 10
109.000023
 20
94.899986
 11
110.599998
 21
94.899986
  0
LINE
  8
0
 10
109.000145
 20
90.699989
 11
110.570030
 21
90.699989
  0
LINE
  8
0
 10
108.000023
 20
91.199989
 11
108.500114
 21
91.199989
  0
LINE
  8
0
 10
108.000023
 20
94.400002
 11
108.499794
 21
94.400002
  0
LINE
  8
0
 10
108.500000
 20
91.200043
 11
109.000000
 21
90.700043
  0
LINE
  8
0
 10
109.000023
 20
90.699989
 11
110.599998
 21
90.699989
  0
LINE
  8
0
 10
108.499870
 20
94.400093
 11
108.999901
 21
94.900124
  0
LINE
  8
0
 10
108.999840
 20
113.400017
 11
110.570030
 21
113.400017
  0
LINE
  8
0
 10
109.000023
 20
113.400002
 11
110.599998
 21
113.400002
  0
LINE
  8
0
 10
109.000145
 20
109.200005
 11
110.570030
 21
109.200005
  0
LINE
  8
0
 10
108.000023
 20
109.700005
 11
108.500114
 21
109.700005
  0
LINE
  8
0
 10
108.000023
 20
112.900017
 11
108.499794
 21
112.900017
  0
LINE
  8
0
 10
108.500008
 20
109.700066
 11
109.000008
 21
109.200066
  0
LINE
  8
0
 10
109.000023
 20
109.200005
 11
110.599998
 21
109.200005
  0
LINE
  8
0
 10
108.499878
 20
112.900093
 11
108.999924
 21
113.400131
  0
LINE
  8
0
  6
PHANTOM
 62
     3
 10
-3.000000
 20
43.750000
 11
8.500000
 21
43.750000
  0
LINE
  8
0
  6
PHANTOM
 62
     3
 10
8.500000
 20
43.750000
 11
8.500000
 21
-3.500008
  0
LINE
  8
0
  6
PHANTOM
 62
     3
 10
-36.500000
 20
43.750000
 11
-36.500000
 21
-3.500008
  0
LINE
  8
0
  6
PHANTOM
 62
     3
 10
19.500000
 20
43.750000
 11
19.500000
 21
-3.500008
  0
LINE
  8
0
 10
-27.499977
 20
22.499992
 11
44.499962
 21
22.499992
  0
LINE
  8
0
 10
-27.499977
 20
1.499992
 11
44.499931
 21
1.499992
  0
LINE
  8
0
 10
-52.999977
 20
21.999992
 11
-44.999977
 21
21.999992
  0
LINE
  8
0
 10
-52.999977
 20
1.999992
 11
-44.999977
 21
1.999992
  0
LINE
  8
0
 10
-52.999977
 20
21.999992
 11
-52.999977
 21
1.999992
  0
LINE
  8
0
 10
-44.999977
 20
21.999992
 11
-44.999977
 21
15.099998
  0
LINE
  8
0
 10
-27.999977
 20
21.999992
 11
-27.999977
 21
1.999992
  0
LINE
  8
0
 10
45.000023
 20
21.999992
 11
45.000023
 21
1.999992
  0
LINE
  8
0
 10
44.999985
 20
21.999971
 11
44.499992
 21
22.499960
  0
LINE
  8
0
 10
44.999966
 20
2.000038
 11
44.499966
 21
1.500037
  0
LINE
  8
0
 10
-27.999983
 20
21.999994
 11
-27.499983
 21
22.499994
  0
LINE
  8
0
 10
-28.000000
 20
1.999997
 11
-27.499998
 21
1.499997
  0
LINE
  8
0
  6
CENTER
 62
     2
 10
-54.833305
 20
11.999992
 11
49.245857
 21
11.999992
  0
LINE
  8
0
 10
-42.999977
 20
15.999992
 11
-27.999977
 21
15.999992
  0
LINE
  8
0
 10
-42.999977
 20
7.999992
 11
-27.999977
 21
7.999992
  0
LINE
  8
0
 10
-30.399986
 20
7.999992
 11
-30.399986
 21
5.041451
  0
LINE
  8
0
 10
-31.199989
 20
7.999992
 11
-31.199989
 21
4.499992
  0
LINE
  8
0
 10
-33.999977
 20
7.999992
 11
-33.999977
 21
5.041451
  0
LINE
  8
0
 10
-33.687370
 20
4.499992
 11
-31.199989
 21
4.499992
  0
LINE
  8
0
 10
-30.087372
 20
4.500014
 11
-30.399979
 21
5.041465
  0
LINE
  8
0
 10
-33.687374
 20
4.500008
 11
-33.999981
 21
5.041459
  0
LINE
  8
0
 10
-28.312599
 20
4.500010
 11
-27.999992
 21
5.041461
  0
LINE
  8
0
 10
-30.087379
 20
4.499992
 11
-28.312599
 21
4.499992
  0
LINE
  8
0
 10
-31.199989
 20
5.999992
 11
-30.399986
 21
5.999992
  0
LINE
  8
0
 62
     2
 10
-31.199989
 20
6.270500
 11
-30.399986
 21
6.270500
  0
LINE
  8
0
 10
-42.999977
 20
15.999992
 11
-42.999977
 21
15.099998
  0
LINE
  8
0
 10
-45.999977
 20
15.099998
 11
-42.999977
 21
15.099998
  0
LINE
  8
0
 10
-45.999977
 20
8.900002
 11
-42.999977
 21
8.900002
  0
LINE
  8
0
 10
-42.999977
 20
8.900002
 11
-42.999977
 21
7.999992
  0
LINE
  8
0
 10
-44.999977
 20
5.249992
 11
-43.999977
 21
5.249992
  0
LINE
  8
0
 10
10.063530
 20
22.499992
 11
10.063530
 21
17.000008
  0
LINE
  8
0
 10
13.936516
 20
22.499992
 11
13.936516
 21
17.000008
  0
LINE
  8
0
 10
10.063530
 20
7.000008
 11
10.063530
 21
1.499992
  0
LINE
  8
0
 10
13.936516
 20
7.000008
 11
13.936516
 21
1.499992
  0
LINE
  8
0
 10
-43.999977
 20
8.900002
 11
-43.999977
 21
5.249992
  0
LINE
  8
0
  6
CENTER
 62
     2
 10
4.000023
 20
15.499992
 11
4.000023
 21
8.499992
  0
LINE
  8
0
  6
CENTER
 62
     2
 10
35.000023
 20
15.499992
 11
35.000023
 21
8.499992
  0
LINE
  8
0
 10
10.063530
 20
7.000008
 11
13.936516
 21
7.000008
  0
LINE
  8
0
 10
10.063530
 20
17.000008
 11
13.936516
 21
17.000008
  0
LINE
  8
0
 10
-45.999977
 20
15.099998
 11
-45.999977
 21
8.900002
  0
LINE
  8
0
 10
-44.999977
 20
8.900002
 11
-44.999977
 21
1.999992
  0
LINE
  8
0
 62
     4
 10
-37.341675
 20
-97.309509
 11
-32.596375
 21
-97.309509
  0
LINE
  8
0
 62
     4
 10
-41.096405
 20
-99.909515
 11
-37.340607
 21
-99.909515
  0
LINE
  8
0
 62
     4
 10
-35.840576
 20
-99.909515
 11
-32.596375
 21
-99.909515
  0
LINE
  8
0
 62
     4
 10
-63.096405
 20
-96.309525
 11
-41.096405
 21
-96.309525
  0
LINE
  8
0
 62
     4
 10
-58.396393
 20
-100.909523
 11
-41.096405
 21
-100.909523
  0
LINE
  8
0
 62
     4
 10
-41.096405
 20
-96.309525
 11
-41.096405
 21
-100.909523
  0
LINE
  8
0
 62
     4
 10
-63.096405
 20
-98.109520
 11
-63.096405
 21
-96.309525
  0
LINE
  8
0
 62
     4
 10
-58.396393
 20
-99.351486
 11
-58.396393
 21
-100.909523
  0
LINE
  8
0
 62
     4
 10
-63.096405
 20
-98.109520
 11
-58.846390
 21
-98.109520
  0
LINE
  8
0
  6
CENTER
 62
     1
 10
-61.096390
 20
-95.502808
 11
-61.096390
 21
-101.741425
  0
LINE
  8
0
 62
     4
 10
-58.846390
 20
-98.109520
 11
-58.846390
 21
-99.351486
  0
LINE
  8
0
 62
     4
 10
-59.096390
 20
-98.109520
 11
-59.096390
 21
-98.909523
  0
LINE
  8
0
 62
     4
 10
-63.096405
 20
-98.109520
 11
-63.096405
 21
-98.909523
  0
LINE
  8
0
 62
     4
 10
-63.096405
 20
-98.909523
 11
-59.096390
 21
-98.909523
  0
LINE
  8
0
 62
     4
 10
-58.896393
 20
-98.109520
 11
-58.896393
 21
-100.109520
  0
LINE
  8
0
 62
     4
 10
-58.896393
 20
-100.109520
 11
-58.396393
 21
-100.109520
  0
LINE
  8
0
 62
     4
 10
-58.846390
 20
-99.351486
 11
-58.396393
 21
-99.351486
  0
LINE
  8
0
 62
     4
 10
-32.596375
 20
-97.309509
 11
-32.596375
 21
-99.909515
  0
LINE
  8
0
  6
CENTER
 62
     1
 10
-34.319275
 20
-98.159439
 11
-22.387207
 21
-98.159439
  0
LINE
  8
0
  6
CENTER
 62
     1
 10
-34.268982
 20
-99.059433
 11
-22.345337
 21
-99.059433
  0
LINE
  8
0
 62
     4
 10
-22.596375
 20
-97.909454
 11
-22.596375
 21
-98.409454
  0
LINE
  8
0
 62
     4
 10
-22.596375
 20
-98.809448
 11
-22.596375
 21
-99.309448
  0
LINE
  8
0
 62
     4
 10
-25.596375
 20
-97.709442
 11
-25.596375
 21
-99.509460
  0
LINE
  8
0
 62
     4
 10
-32.596375
 20
-99.509445
 11
-28.590820
 21
-99.509445
  0
LINE
  8
0
 62
     4
 10
-32.596375
 20
-98.609421
 11
-29.110413
 21
-98.609421
  0
LINE
  8
0
 62
     4
 10
-27.610413
 20
-98.609421
 11
-25.596375
 21
-98.609421
  0
LINE
  8
0
 62
     4
 10
-27.090820
 20
-99.509445
 11
-25.596375
 21
-99.509445
  0
LINE
  8
0
 62
     4
 10
-32.596375
 20
-97.709427
 11
-29.630066
 21
-97.709427
  0
LINE
  8
0
 62
     4
 10
-28.130066
 20
-97.709427
 11
-25.596375
 21
-97.709427
  0
LINE
  8
0
 62
     4
 10
-25.596375
 20
-97.909439
 11
-22.596375
 21
-97.909439
  0
LINE
  8
0
 62
     4
 10
-25.596375
 20
-98.409439
 11
-22.596375
 21
-98.409439
  0
LINE
  8
0
 62
     4
 10
-25.596375
 20
-98.809433
 11
-22.596375
 21
-98.809433
  0
LINE
  8
0
 62
     4
 10
-25.596375
 20
-99.309433
 11
-22.596375
 21
-99.309433
  0
LINE
  8
0
 62
     1
 10
-28.860390
 20
-96.444504
 11
-26.360388
 21
-100.774628
  0
LINE
  8
0
  6
CENTER
 62
     1
 10
-42.410767
 20
-98.609512
 11
-32.596375
 21
-98.609512
  0
LINE
  8
0
 62
     1
 10
-30.360456
 20
-96.444473
 11
-27.860455
 21
-100.774597
  0
LINE
  8
0
 62
     1
 10
-37.841129
 20
-96.444450
 11
-35.341129
 21
-100.774582
  0
LINE
  8
0
 62
     1
 10
-39.341110
 20
-96.444519
 11
-36.841114
 21
-100.774635
  0
LINE
  8
0
 62
     4
 10
-62.121399
 20
-100.309525
 11
-60.071396
 21
-100.309525
  0
LINE
  8
0
 62
     4
 10
-60.070972
 20
-100.309967
 11
-59.845989
 21
-100.084976
  0
LINE
  8
0
 62
     4
 10
-62.121357
 20
-100.309540
 11
-62.346352
 21
-100.084549
  0
LINE
  8
0
 62
     4
 10
-62.346390
 20
-98.908707
 11
-62.346390
 21
-100.084526
  0
LINE
  8
0
 62
     1
 10
-62.121399
 20
-98.908707
 11
-62.121399
 21
-100.309525
  0
LINE
  8
0
 62
     1
 10
-60.071396
 20
-98.908707
 11
-60.071396
 21
-100.309525
  0
LINE
  8
0
 62
     4
 10
-59.846390
 20
-98.908707
 11
-59.846390
 21
-100.084518
  0
LINE
  8
0
 62
     4
 10
-62.346390
 20
-100.084526
 11
-59.846390
 21
-100.084526
  0
LINE
  8
0
 62
     4
 10
-62.346390
 20
-95.809525
 11
-62.346390
 21
-96.309525
  0
LINE
  8
0
 62
     1
 10
-62.121399
 20
-95.809525
 11
-62.121399
 21
-96.309525
  0
LINE
  8
0
 62
     1
 10
-60.071396
 20
-95.809525
 11
-60.071396
 21
-96.309525
  0
LINE
  8
0
 62
     4
 10
-59.846390
 20
-95.809525
 11
-59.846390
 21
-96.309525
  0
LINE
  8
0
 62
     4
 10
-62.346390
 20
-95.809525
 11
-59.846390
 21
-95.809525
  0
LINE
  8
0
 62
     4
 10
-63.096405
 20
-97.309525
 11
-41.096405
 21
-97.309525
  0
LINE
  8
0
 62
     4
 10
-63.096405
 20
-96.759506
 11
-41.096405
 21
-96.759506
  0
LINE
  8
0
 62
     4
 10
-41.096405
 20
-97.309509
 11
-38.841705
 21
-97.309509
  0
LINE
  8
0
 62
     4
 10
-108.889130
 20
-95.809525
 11
-106.389130
 21
-95.809525
  0
LINE
  8
0
  6
CENTER
 62
     1
 10
-107.639130
 20
-94.256554
 11
-107.639130
 21
-102.969315
  0
LINE
  8
0
 62
     4
 10
-109.689117
 20
-97.309525
 11
-109.689117
 21
-98.859520
  0
LINE
  8
0
 62
     4
 10
-109.689186
 20
-97.309502
 11
-109.139183
 21
-96.759491
  0
LINE
  8
0
 62
     4
 10
-109.139130
 20
-96.309525
 11
-109.139130
 21
-96.759521
  0
LINE
  8
0
 62
     4
 10
-109.139130
 20
-96.309525
 11
-106.139130
 21
-96.309525
  0
LINE
  8
0
 62
     4
 10
-106.139130
 20
-96.309525
 11
-106.139130
 21
-96.759521
  0
LINE
  8
0
 62
     4
 10
-105.589119
 20
-97.309471
 11
-106.139114
 21
-96.759460
  0
LINE
  8
0
 62
     4
 10
-105.589127
 20
-97.309525
 11
-105.589127
 21
-98.859520
  0
LINE
  8
0
 62
     4
 10
-109.689117
 20
-98.109520
 11
-105.589127
 21
-98.109520
  0
LINE
  8
0
 62
     4
 10
-109.689133
 20
-98.908707
 11
-105.589127
 21
-98.908707
  0
LINE
  8
0
 62
     4
 10
-108.664139
 20
-100.309525
 11
-106.614136
 21
-100.309525
  0
LINE
  8
0
 62
     4
 10
-106.613701
 20
-100.309998
 11
-106.388702
 21
-100.084984
  0
LINE
  8
0
 62
     4
 10
-108.664116
 20
-100.309563
 11
-108.889114
 21
-100.084564
  0
LINE
  8
0
 62
     4
 10
-108.889130
 20
-98.908707
 11
-108.889130
 21
-100.084526
  0
LINE
  8
0
 62
     1
 10
-108.664139
 20
-98.908707
 11
-108.664139
 21
-100.309525
  0
LINE
  8
0
 62
     1
 10
-106.614136
 20
-98.908707
 11
-106.614136
 21
-100.309525
  0
LINE
  8
0
 62
     4
 10
-106.389130
 20
-98.908707
 11
-106.389130
 21
-100.084518
  0
LINE
  8
0
 62
     4
 10
-108.889130
 20
-100.084526
 11
-106.389130
 21
-100.084526
  0
LINE
  8
0
 62
     4
 10
-108.889130
 20
-95.809525
 11
-108.889130
 21
-96.309525
  0
LINE
  8
0
 62
     1
 10
-108.664139
 20
-95.809525
 11
-108.664139
 21
-96.309525
  0
LINE
  8
0
 62
     1
 10
-106.614136
 20
-95.809525
 11
-106.614136
 21
-96.309525
  0
LINE
  8
0
 62
     4
 10
-106.389130
 20
-95.809525
 11
-106.389130
 21
-96.309525
  0
LINE
  8
0
  6
CENTER
 62
     1
 10
-65.896942
 20
-53.759521
 11
-35.688889
 21
-53.759521
  0
LINE
  8
0
 62
     4
 10
-63.096405
 20
-55.259521
 11
-41.096405
 21
-55.259521
  0
LINE
  8
0
 62
     4
 10
-63.096405
 20
-52.259521
 11
-41.096405
 21
-52.259521
  0
LINE
  8
0
 62
     4
 10
-63.096405
 20
-55.809525
 11
-41.096405
 21
-55.809525
  0
LINE
  8
0
 62
     4
 10
-63.096405
 20
-51.709518
 11
-41.096405
 21
-51.709518
  0
LINE
  8
0
 62
     4
 10
-63.096405
 20
-51.709518
 11
-63.096405
 21
-55.809525
  0
LINE
  8
0
 62
     4
 10
-41.096405
 20
-51.709518
 11
-41.096405
 21
-55.809525
  0
LINE
  8
0
  6
CENTER
 62
     1
 10
-61.096390
 20
-50.923019
 11
-61.096390
 21
-56.512344
  0
LINE
  8
0
 62
     4
 10
-62.141674
 20
-54.472595
 11
-60.408337
 21
-52.739258
  0
LINE
  8
0
 62
     4
 10
-61.788120
 20
-54.826176
 11
-60.154781
 21
-53.192837
  0
LINE
  8
0
 62
     1
 10
-40.007179
 20
-51.594425
 11
-37.507179
 21
-55.924553
  0
LINE
  8
0
 62
     4
 10
-41.096405
 20
-52.459518
 11
-39.507751
 21
-52.459518
  0
LINE
  8
0
 62
     4
 10
-41.096405
 20
-55.059525
 11
-38.006622
 21
-55.059525
  0
LINE
  8
0
 62
     4
 10
112.821899
 20
-85.654793
 11
112.821899
 21
-80.909485
  0
LINE
  8
0
 62
     4
 10
112.821899
 20
-89.409523
 11
112.821899
 21
-87.154778
  0
LINE
  8
0
 62
     4
 10
115.421875
 20
-84.153694
 11
115.421875
 21
-80.909485
  0
LINE
  8
0
 62
     4
 10
94.714539
 20
-96.309525
 11
110.814545
 21
-96.309525
  0
LINE
  8
0
 62
     4
 10
99.414520
 20
-100.909523
 11
116.714539
 21
-100.909523
  0
LINE
  8
0
 62
     4
 10
116.714539
 20
-89.409523
 11
116.714539
 21
-100.909523
  0
LINE
  8
0
 62
     4
 10
94.714539
 20
-98.909523
 11
94.714539
 21
-96.309525
  0
LINE
  8
0
 62
     4
 10
99.414520
 20
-99.291679
 11
99.414520
 21
-100.909523
  0
LINE
  8
0
  6
CENTER
 62
     1
 10
96.714539
 20
-95.579269
 11
96.714539
 21
-101.482193
  0
LINE
  8
0
 62
     4
 10
110.814514
 20
-89.409523
 11
110.814514
 21
-96.309525
  0
LINE
  8
0
 62
     4
 10
94.714539
 20
-98.109528
 11
98.988342
 21
-98.109528
  0
LINE
  8
0
 62
     4
 10
94.714539
 20
-98.909523
 11
98.714539
 21
-98.909523
  0
LINE
  8
0
 62
     4
 10
98.714539
 20
-98.109520
 11
98.714539
 21
-98.909523
  0
LINE
  8
0
 62
     4
 10
110.814545
 20
-89.409523
 11
116.714539
 21
-89.409523
  0
LINE
  8
0
 62
     4
 10
98.914520
 20
-100.109528
 11
99.414520
 21
-100.109528
  0
LINE
  8
0
 62
     4
 10
98.914520
 20
-98.109528
 11
98.914520
 21
-100.109528
  0
LINE
  8
0
 62
     4
 10
98.988342
 20
-99.291679
 11
99.414520
 21
-99.291679
  0
LINE
  8
0
 62
     4
 10
98.988342
 20
-98.109528
 11
98.988342
 21
-99.291679
  0
LINE
  8
0
 62
     4
 10
94.714539
 20
-97.309525
 11
116.714539
 21
-97.309525
  0
LINE
  8
0
 62
     4
 10
94.714539
 20
-96.759521
 11
116.714539
 21
-96.759521
  0
LINE
  8
0
 62
     4
 10
110.814514
 20
-95.159508
 11
116.714539
 21
-95.159508
  0
LINE
  8
0
 62
     4
 10
110.814514
 20
-95.909508
 11
116.714539
 21
-95.909508
  0
LINE
  8
0
 62
     4
 10
110.814514
 20
-90.909523
 11
116.714539
 21
-90.909523
  0
LINE
  8
0
 62
     4
 10
112.821899
 20
-80.909485
 11
115.421875
 21
-80.909485
  0
LINE
  8
0
  6
CENTER
 62
     1
 10
113.671814
 20
-82.632416
 11
113.671814
 21
-70.700333
  0
LINE
  8
0
  6
CENTER
 62
     1
 10
114.571808
 20
-82.582123
 11
114.571808
 21
-70.658478
  0
LINE
  8
0
 62
     4
 10
113.421814
 20
-70.909485
 11
113.921814
 21
-70.909485
  0
LINE
  8
0
 62
     4
 10
114.321808
 20
-70.909485
 11
114.821808
 21
-70.909485
  0
LINE
  8
0
 62
     4
 10
113.221802
 20
-73.909485
 11
115.021820
 21
-73.909485
  0
LINE
  8
0
 62
     4
 10
115.021820
 20
-80.909485
 11
115.021820
 21
-76.903938
  0
LINE
  8
0
 62
     4
 10
114.121796
 20
-80.909485
 11
114.121796
 21
-77.423553
  0
LINE
  8
0
 62
     4
 10
114.121796
 20
-75.923553
 11
114.121796
 21
-73.909485
  0
LINE
  8
0
 62
     4
 10
115.021820
 20
-75.403938
 11
115.021820
 21
-73.909485
  0
LINE
  8
0
 62
     4
 10
113.221802
 20
-80.909485
 11
113.221802
 21
-77.943176
  0
LINE
  8
0
 62
     4
 10
113.221802
 20
-76.443176
 11
113.221802
 21
-73.909485
  0
LINE
  8
0
 62
     4
 10
113.421814
 20
-73.909485
 11
113.421814
 21
-70.909485
  0
LINE
  8
0
 62
     4
 10
113.921814
 20
-73.909485
 11
113.921814
 21
-70.909485
  0
LINE
  8
0
 62
     4
 10
114.321808
 20
-73.909485
 11
114.321808
 21
-70.909485
  0
LINE
  8
0
 62
     4
 10
114.821808
 20
-73.909485
 11
114.821808
 21
-70.909485
  0
LINE
  8
0
 62
     1
 10
111.956955
 20
-77.173668
 11
116.287102
 21
-74.673645
  0
LINE
  8
0
  6
CENTER
 62
     1
 10
114.121887
 20
-90.723892
 11
114.121887
 21
-80.909485
  0
LINE
  8
0
 62
     1
 10
111.956856
 20
-78.673660
 11
116.287010
 21
-76.173645
  0
LINE
  8
0
 62
     1
 10
111.956825
 20
-86.154358
 11
116.286949
 21
-83.654350
  0
LINE
  8
0
 62
     1
 10
111.956871
 20
-87.654343
 11
116.286987
 21
-85.154350
  0
LINE
  8
0
 62
     4
 10
95.689514
 20
-100.309525
 11
97.739532
 21
-100.309525
  0
LINE
  8
0
 62
     4
 10
97.740097
 20
-100.310066
 11
97.965088
 21
-100.085068
  0
LINE
  8
0
 62
     4
 10
95.689598
 20
-100.309395
 11
95.464615
 21
-100.084412
  0
LINE
  8
0
 62
     4
 10
95.464539
 20
-98.909523
 11
95.464539
 21
-100.084526
  0
LINE
  8
0
 62
     1
 10
95.689514
 20
-98.909523
 11
95.689514
 21
-100.309525
  0
LINE
  8
0
 62
     1
 10
97.739532
 20
-98.909523
 11
97.739532
 21
-100.309525
  0
LINE
  8
0
 62
     4
 10
97.964539
 20
-98.909523
 11
97.964539
 21
-100.084518
  0
LINE
  8
0
 62
     4
 10
95.464539
 20
-100.084526
 11
97.964539
 21
-100.084526
  0
LINE
  8
0
 62
     4
 10
95.464539
 20
-95.809525
 11
95.464539
 21
-96.309525
  0
LINE
  8
0
 62
     1
 10
95.689514
 20
-95.809525
 11
95.689514
 21
-96.309525
  0
LINE
  8
0
 62
     1
 10
97.739532
 20
-95.809525
 11
97.739532
 21
-96.309525
  0
LINE
  8
0
 62
     4
 10
97.964539
 20
-95.809525
 11
97.964539
 21
-96.309525
  0
LINE
  8
0
 62
     4
 10
95.464539
 20
-95.809525
 11
97.964539
 21
-95.809525
  0
LINE
  8
0
 62
     4
 10
115.421875
 20
-89.409523
 11
115.421875
 21
-85.653687
  0
LINE
  8
0
 62
     4
 10
52.971802
 20
-85.653702
 11
52.971802
 21
-89.409523
  0
LINE
  8
0
 62
     4
 10
49.421814
 20
-90.909523
 11
53.921814
 21
-90.909523
  0
LINE
  8
0
 62
     4
 10
49.421814
 20
-89.409523
 11
49.421814
 21
-95.159523
  0
LINE
  8
0
 62
     4
 10
50.171764
 20
-95.909492
 11
49.421799
 21
-95.159531
  0
LINE
  8
0
 62
     4
 10
50.171814
 20
-96.759521
 11
50.171814
 21
-95.909523
  0
LINE
  8
0
 62
     4
 10
49.621777
 20
-97.309456
 11
50.171787
 21
-96.759445
  0
LINE
  8
0
 62
     4
 10
49.621796
 20
-97.309525
 11
49.621796
 21
-98.859520
  0
LINE
  8
0
 62
     4
 10
53.721802
 20
-97.309525
 11
53.721802
 21
-98.859520
  0
LINE
  8
0
 62
     4
 10
53.721794
 20
-97.309555
 11
53.171791
 21
-96.759552
  0
LINE
  8
0
 62
     4
 10
53.171814
 20
-96.759521
 11
53.171814
 21
-95.909523
  0
LINE
  8
0
 62
     4
 10
53.171894
 20
-95.909630
 11
53.921890
 21
-95.159630
  0
LINE
  8
0
 62
     4
 10
53.921814
 20
-89.409523
 11
53.921814
 21
-95.159523
  0
LINE
  8
0
  6
CENTER
 62
     1
 10
51.671814
 20
-83.748566
 11
51.671814
 21
-102.376190
  0
LINE
  8
0
 62
     4
 10
50.171814
 20
-96.309525
 11
53.171814
 21
-96.309525
  0
LINE
  8
0
 62
     4
 10
49.621796
 20
-98.109520
 11
53.721802
 21
-98.109520
  0
LINE
  8
0
 62
     4
 10
49.621796
 20
-98.911972
 11
53.721802
 21
-98.911972
  0
LINE
  8
0
 62
     4
 10
49.421814
 20
-89.409523
 11
53.921814
 21
-89.409523
  0
LINE
  8
0
 62
     1
 10
49.506836
 20
-87.654343
 11
53.836964
 21
-85.154350
  0
LINE
  8
0
 62
     4
 10
50.646790
 20
-100.309525
 11
52.696808
 21
-100.309525
  0
LINE
  8
0
 62
     4
 10
52.697315
 20
-100.310051
 11
52.922310
 21
-100.085052
  0
LINE
  8
0
 62
     4
 10
50.646858
 20
-100.309448
 11
50.421852
 21
-100.084442
  0
LINE
  8
0
 62
     4
 10
50.421814
 20
-98.911972
 11
50.421814
 21
-100.084526
  0
LINE
  8
0
 62
     1
 10
50.646790
 20
-98.911972
 11
50.646790
 21
-100.309525
  0
LINE
  8
0
 62
     1
 10
52.696808
 20
-98.911972
 11
52.696808
 21
-100.309525
  0
LINE
  8
0
 62
     4
 10
52.921814
 20
-98.911972
 11
52.921814
 21
-100.084518
  0
LINE
  8
0
 62
     4
 10
50.421814
 20
-100.084526
 11
52.921814
 21
-100.084526
  0
LINE
  8
0
 62
     4
 10
50.421814
 20
-95.809525
 11
50.421814
 21
-96.309525
  0
LINE
  8
0
 62
     1
 10
50.646790
 20
-95.809525
 11
50.646790
 21
-96.309525
  0
LINE
  8
0
 62
     1
 10
52.696808
 20
-95.809525
 11
52.696808
 21
-96.309525
  0
LINE
  8
0
 62
     4
 10
52.921814
 20
-95.809525
 11
52.921814
 21
-96.309525
  0
LINE
  8
0
 62
     4
 10
50.421814
 20
-95.809525
 11
52.921814
 21
-95.809525
  0
LINE
  8
0
 62
     4
 10
50.371826
 20
-87.154800
 11
50.371826
 21
-89.409523
  0
LINE
  8
0
  6
CENTER
 62
     1
 10
93.385345
 20
-48.709511
 11
118.294525
 21
-48.709511
  0
LINE
  8
0
 62
     4
 10
94.714539
 20
-50.209511
 11
111.275146
 21
-50.209511
  0
LINE
  8
0
 62
     4
 10
94.714539
 20
-47.209511
 11
111.275146
 21
-47.209511
  0
LINE
  8
0
 62
     4
 10
94.714539
 20
-50.759506
 11
111.628510
 21
-50.759506
  0
LINE
  8
0
 62
     4
 10
94.714539
 20
-46.659508
 11
111.628510
 21
-46.659508
  0
LINE
  8
0
 62
     4
 10
94.714539
 20
-46.659500
 11
94.714539
 21
-50.759506
  0
LINE
  8
0
  6
CENTER
 62
     1
 10
96.714539
 20
-45.873001
 11
96.714539
 21
-51.462326
  0
LINE
  8
0
 62
     4
 10
111.800507
 20
-46.459511
 11
116.714539
 21
-46.459511
  0
LINE
  8
0
 62
     4
 10
111.800507
 20
-50.959511
 11
116.714539
 21
-50.959511
  0
LINE
  8
0
 62
     4
 10
116.714539
 20
-46.459503
 11
116.714539
 21
-50.959503
  0
LINE
  8
0
 62
     4
 10
96.068794
 20
-49.779846
 11
97.784897
 21
-48.063740
  0
LINE
  8
0
 62
     4
 10
95.644516
 20
-49.355518
 11
97.360611
 21
-47.639423
  0
LINE
  8
0
 10
-281.250000
 20
195.500000
 11
282.099976
 21
195.500000
  0
LINE
  8
0
 10
-281.250000
 20
195.500000
 11
-281.250000
 21
-195.000000
  0
LINE
  8
0
 10
282.099976
 20
195.500000
 11
282.099976
 21
-195.000000
  0
LINE
  8
0
 10
-281.250000
 20
-195.000000
 11
282.099976
 21
-195.000000
  0
LINE
  8
0
 10
162.099976
 20
-175.000000
 11
162.099976
 21
-195.000000
  0
LINE
  8
0
 10
162.099976
 20
-175.000000
 11
282.099976
 21
-175.000000
  0
LINE
  8
0
 10
162.099976
 20
175.500000
 11
282.099976
 21
175.500000
  0
LINE
  8
0
 10
-281.250000
 20
175.500000
 11
-161.250000
 21
175.500000
  0
LINE
  8
0
 10
162.099976
 20
195.500000
 11
162.099976
 21
175.500000
  0
LINE
  8
0
 10
-161.250000
 20
195.500000
 11
-161.250000
 21
175.500000
  0
LINE
  8
0
 10
-271.250000
 20
-133.000000
 11
-271.250000
 21
-185.000000
  0
LINE
  8
0
 10
-271.250000
 20
-185.000000
 11
-6.250000
 21
-185.000000
  0
LINE
  8
0
 10
-271.250000
 20
-155.000015
 11
-6.250000
 21
-155.000015
  0
LINE
  8
0
 10
-271.250000
 20
-133.000000
 11
-6.250000
 21
-133.000000
  0
LINE
  8
0
 10
-226.250000
 20
-133.000000
 11
-226.250000
 21
-185.000000
  0
LINE
  8
0
 10
-204.250000
 20
-133.000000
 11
-204.250000
 21
-185.000000
  0
LINE
  8
0
 10
-182.250000
 20
-133.000000
 11
-182.250000
 21
-185.000000
  0
LINE
  8
0
 10
-160.250000
 20
-133.000000
 11
-160.250000
 21
-185.000000
  0
LINE
  8
0
 10
-138.250000
 20
-133.000000
 11
-138.250000
 21
-185.000000
  0
LINE
  8
0
 10
-116.250000
 20
-133.000000
 11
-116.250000
 21
-185.000000
  0
LINE
  8
0
 10
-94.250000
 20
-133.000000
 11
-94.250000
 21
-185.000000
  0
LINE
  8
0
 10
-6.250000
 20
-133.000000
 11
-6.250000
 21
-185.000000
  0
LINE
  8
0
 10
-271.250000
 20
-175.000015
 11
-6.250000
 21
-175.000015
  0
LINE
  8
0
 10
-271.250031
 20
-165.000000
 11
-6.250000
 21
-165.000000
  0
LINE
  8
0
 10
-271.250000
 20
-141.000000
 11
-234.517441
 21
-141.000000
  0
LINE
  8
0
 10
-234.517502
 20
-141.000046
 11
-226.250092
 21
-155.000061
  0
LINE
  8
0
 10
-72.250000
 20
-133.000000
 11
-72.250000
 21
-185.000000
  0
LINE
  8
0
 10
-50.250000
 20
-133.000000
 11
-50.250000
 21
-185.000000
  0
LINE
  8
0
 10
-28.250000
 20
-133.000000
 11
-28.250000
 21
-185.000000
  0
ARC
  8
0
 10
-27.312599
 20
89.999992
 40
6.687389
 50
162.412079
 51
197.587921
  0
ARC
  8
0
 10
-32.210899
 20
86.968895
 40
1.789077
 50
145.615860
 51
214.384140
  0
ARC
  8
0
 10
-32.210899
 20
93.031075
 40
1.789073
 50
145.615784
 51
214.384216
  0
ARC
  8
0
 10
-29.789055
 20
93.031075
 40
1.789073
 50
325.615784
 51
34.384178
  0
ARC
  8
0
 10
-29.789055
 20
86.968895
 40
1.789075
 50
325.615814
 51
34.384144
  0
ARC
  8
0
 10
-34.687370
 20
89.999992
 40
6.687391
 50
342.412018
 51
17.587919
  0
CIRCLE
  8
0
 10
-12.999977
 20
89.999992
 40
2.250000
  0
CIRCLE
  8
0
 10
12.000023
 20
113.499992
 40
2.250000
  0
CIRCLE
  8
0
 10
27.000023
 20
89.999992
 40
2.250000
  0
CIRCLE
  8
0
 10
12.000023
 20
66.499992
 40
2.250000
  0
CIRCLE
  8
0
 10
-12.999977
 20
89.999992
 40
4.000000
  0
CIRCLE
  8
0
 10
27.000023
 20
89.999992
 40
4.000000
  0
ARC
  8
0
 10
12.000023
 20
66.499992
 40
4.000000
 50
298.955048
 51
241.044937
  0
ARC
  8
0
 10
12.000023
 20
113.499992
 40
4.000000
 50
118.955040
 51
61.044949
  0
CIRCLE
  8
0
 62
     2
 10
-48.999977
 20
106.999992
 40
2.000000
  0
CIRCLE
  8
0
 62
     2
 10
-48.999977
 20
72.999992
 40
2.000000
  0
ARC
  8
0
 10
-28.610909
 20
93.031075
 40
1.789073
 50
145.615784
 51
214.384186
  0
ARC
  8
0
 10
-23.712593
 20
89.999992
 40
6.687389
 50
162.412079
 51
197.587921
  0
ARC
  8
0
 10
-28.610909
 20
86.968895
 40
1.789075
 50
145.615814
 51
214.384140
  0
CIRCLE
  8
0
 10
-48.999977
 20
106.999992
 40
1.650000
  0
CIRCLE
  8
0
 10
-48.999977
 20
72.999992
 40
1.650000
  0
CIRCLE
  8
0
 10
-127.500000
 20
78.000000
 40
3.900000
  0
CIRCLE
  8
0
 10
-127.500000
 20
78.000000
 40
2.980381
  0
CIRCLE
  8
0
 10
-127.500000
 20
102.000000
 40
3.900000
  0
CIRCLE
  8
0
 62
     2
 10
-127.500000
 20
113.500000
 40
2.000000
  0
CIRCLE
  8
0
 62
     2
 10
-127.500000
 20
66.500000
 40
2.000000
  0
CIRCLE
  8
0
 10
-127.500000
 20
102.000000
 40
3.500000
  0
CIRCLE
  8
0
 10
-127.500000
 20
78.000000
 40
3.500000
  0
CIRCLE
  8
0
 10
-127.500000
 20
102.000000
 40
2.980377
  0
CIRCLE
  8
0
 10
-127.500000
 20
113.500000
 40
1.650000
  0
CIRCLE
  8
0
 10
-127.500000
 20
66.500000
 40
1.650000
  0
ARC
  8
0
 10
110.599998
 20
111.300011
 40
2.099998
 50
270.000000
 51
90.000000
  0
CIRCLE
  8
0
 10
118.500031
 20
101.999992
 40
9.000000
  0
CIRCLE
  8
0
 10
118.500031
 20
77.999992
 40
9.000000
  0
ARC
  8
0
 10
118.500031
 20
114.383522
 40
2.099998
 50
180.000000
 51
0.000000
  0
ARC
  8
0
 10
126.400024
 20
92.799980
 40
2.099998
 50
90.000000
 51
270.000000
  0
ARC
  8
0
 10
126.400024
 20
111.299995
 40
2.099998
 50
90.000000
 51
270.000000
  0
ARC
  8
0
 10
110.599998
 20
92.799995
 40
2.099998
 50
270.000000
 51
90.000000
  0
ARC
  8
0
 10
-25.345375
 20
6.249992
 40
5.054614
 50
159.743805
 51
200.256119
  0
ARC
  8
0
 10
-33.054604
 20
6.249992
 40
5.054614
 50
339.743805
 51
20.256126
  0
ARC
  8
0
 10
-28.945366
 20
6.249992
 40
5.054613
 50
159.743805
 51
200.256119
  0
CIRCLE
  8
0
 62
     2
 10
4.000023
 20
11.999992
 40
2.500000
  0
CIRCLE
  8
0
 62
     2
 10
35.000023
 20
11.999992
 40
2.500000
  0
CIRCLE
  8
0
 10
4.000023
 20
11.999992
 40
2.100000
  0
CIRCLE
  8
0
 10
35.000023
 20
11.999992
 40
2.100000
  0
ARC
  8
0
 62
     4
 10
-107.639130
 20
-98.859520
 40
2.050003
 50
180.000000
 51
270.000000
  0
ARC
  8
0
 62
     4
 10
-107.639130
 20
-98.859520
 40
2.050003
 50
270.000000
 51
0.000000
  0
CIRCLE
  8
0
 62
     4
 10
-61.096390
 20
-53.759521
 40
1.250000
  0
CIRCLE
  8
0
 62
     4
 10
-61.096390
 20
-53.759521
 40
1.400000
  0
ARC
  8
0
 62
     4
 10
51.671814
 20
-98.859520
 40
2.049999
 50
180.000000
 51
270.000000
  0
ARC
  8
0
 62
     4
 10
51.671814
 20
-98.859520
 40
2.050003
 50
271.259888
 51
0.000000
  0
CIRCLE
  8
0
 62
     4
 10
114.443695
 20
-49.050514
 40
0.250000
  0
CIRCLE
  8
0
 62
     4
 10
113.831818
 20
-48.391357
 40
0.450000
  0
CIRCLE
  8
0
 62
     4
 10
113.831818
 20
-48.391357
 40
0.250000
  0
ARC
  8
0
 62
     4
 10
114.214539
 20
-48.709511
 40
3.300002
 50
137.014145
 51
222.985855
  0
CIRCLE
  8
0
 62
     4
 10
96.714539
 20
-48.709511
 40
1.250000
  0
CIRCLE
  8
0
 62
     4
 10
96.714539
 20
-48.709511
 40
1.400000
  0
CIRCLE
  8
0
 62
     4
 10
114.121887
 20
-48.709511
 40
1.300000
  0
CIRCLE
  8
0
 62
     4
 10
114.443695
 20
-49.050514
 40
0.450000
  0
TEXT
  8
0
 10
196.250259
 20
180.830002
 40
6.300000
  1
Ver. 1.0
 50
0.000000
 41
1.052632
 51
0.000000
  7
STANDARD
  0
TEXT
  8
0
 10
167.564667
 20
-192.100006
 40
9.000000
  1
KOGANEI CORP.
 50
0.000000
 41
1.052632
 51
0.000000
  7
STANDARD
  0
TEXT
  8
0
 10
-275.449738
 20
180.830002
 40
6.300000
  1
TWIN ROD CYLINDER
 50
0.000000
 41
1.052632
 51
0.000000
  7
STANDARD
  0
TEXT
  8
0
 10
-258.127045
 20
-154.550003
 40
4.500000
  1
PLACE
 50
0.000000
 41
1.052632
 51
0.000000
  7
STANDARD
  0
TEXT
  8
0
 10
-220.142654
 20
-147.050003
 40
4.500000
  1
10
 50
0.000000
 41
1.052632
 51
0.000000
  7
STANDARD
  0
TEXT
  8
0
 10
-166.142654
 20
-131.050003
 40
4.500000
  1
STRETCH LIST
 50
0.000000
 41
1.052632
 51
0.000000
  7
STANDARD
  0
TEXT
  8
0
 10
-270.049713
 20
155.830002
 40
6.300000
  1
MODEL:TBDAM16*ST(10)
 50
0.000000
 41
1.052632
 51
0.000000
  7
STANDARD
  0
TEXT
  8
0
 10
-26.642656
 20
-132.050003
 40
4.500000
  1
(mm)
 50
0.000000
 41
1.052632
 51
0.000000
  7
STANDARD
  0
TEXT
  8
0
 10
-267.127045
 20
-140.050003
 40
4.500000
  1
STROKE
 50
0.000000
 41
1.052632
 51
0.000000
  7
STANDARD
  0
TEXT
  8
0
 10
-267.127045
 20
-148.550003
 40
4.500000
  1
STRETCH
 50
0.000000
 41
1.052632
 51
0.000000
  7
STANDARD
  0
TEXT
  8
0
 10
-251.585724
 20
-163.320007
 40
4.800000
  1
A
 50
0.000000
 41
1.052632
 51
0.000000
  7
STANDARD
  0
TEXT
  8
0
 10
-251.585724
 20
-173.320007
 40
4.800000
  1
B
 50
0.000000
 41
1.052632
 51
0.000000
  7
STANDARD
  0
TEXT
  8
0
 10
-251.585724
 20
-183.320007
 40
4.800000
  1
C
 50
0.000000
 41
1.052632
 51
0.000000
  7
STANDARD
  0
TEXT
  8
0
 10
-198.142853
 20
-147.050003
 40
4.500000
  1
20
 50
0.000000
 41
1.052632
 51
0.000000
  7
STANDARD
  0
TEXT
  8
0
 10
-176.142853
 20
-147.050003
 40
4.500000
  1
30
 50
0.000000
 41
1.052632
 51
0.000000
  7
STANDARD
  0
TEXT
  8
0
 10
-154.142853
 20
-147.050003
 40
4.500000
  1
40
 50
0.000000
 41
1.052632
 51
0.000000
  7
STANDARD
  0
TEXT
  8
0
 10
-132.142853
 20
-147.050003
 40
4.500000
  1
50
 50
0.000000
 41
1.052632
 51
0.000000
  7
STANDARD
  0
TEXT
  8
0
 10
-110.142853
 20
-147.050003
 40
4.500000
  1
60
 50
0.000000
 41
1.052632
 51
0.000000
  7
STANDARD
  0
TEXT
  8
0
 10
-24.392857
 20
-147.050003
 40
4.500000
  1
100
 50
0.000000
 41
1.052632
 51
0.000000
  7
STANDARD
  0
TEXT
  8
0
 10
-22.142857
 20
-183.049973
 40
4.500000
  1
90
 50
0.000000
 41
1.052632
 51
0.000000
  7
STANDARD
  0
TEXT
  8
0
 10
-217.892853
 20
-163.050003
 40
4.500000
  1
0
 50
0.000000
 41
1.052632
 51
0.000000
  7
STANDARD
  0
TEXT
  8
0
 10
-217.892853
 20
-173.049988
 40
4.500000
  1
0
 50
0.000000
 41
1.052632
 51
0.000000
  7
STANDARD
  0
TEXT
  8
0
 10
-217.892853
 20
-183.049973
 40
4.500000
  1
0
 50
0.000000
 41
1.052632
 51
0.000000
  7
STANDARD
  0
TEXT
  8
0
 10
-198.142853
 20
-183.049973
 40
4.500000
  1
10
 50
0.000000
 41
1.052632
 51
0.000000
  7
STANDARD
  0
TEXT
  8
0
 10
-176.142853
 20
-183.049973
 40
4.500000
  1
20
 50
0.000000
 41
1.052632
 51
0.000000
  7
STANDARD
  0
TEXT
  8
0
 10
-154.142853
 20
-183.049973
 40
4.500000
  1
30
 50
0.000000
 41
1.052632
 51
0.000000
  7
STANDARD
  0
TEXT
  8
0
 10
-132.142853
 20
-183.049973
 40
4.500000
  1
40
 50
0.000000
 41
1.052632
 51
0.000000
  7
STANDARD
  0
TEXT
  8
0
 10
-110.142853
 20
-183.049973
 40
4.500000
  1
50
 50
0.000000
 41
1.052632
 51
0.000000
  7
STANDARD
  0
TEXT
  8
0
 62
     3
 10
-48.862728
 20
147.753006
 40
4.500000
  1
STRETCH LINE C
 50
0.000000
 41
1.052632
 51
0.000000
  7
STANDARD
  0
TEXT
  8
0
 62
     3
 10
-15.362728
 20
137.753006
 40
4.500000
  1
STRETCH LINE A
 50
0.000000
 41
1.052632
 51
0.000000
  7
STANDARD
  0
TEXT
  8
0
 62
     3
 10
7.137272
 20
127.753006
 40
4.500000
  1
STRETCH LINE B
 50
0.000000
 41
1.052632
 51
0.000000
  7
STANDARD
  0
TEXT
  8
0
 10
-88.142853
 20
-183.049973
 40
4.500000
  1
60
 50
0.000000
 41
1.052632
 51
0.000000
  7
STANDARD
  0
TEXT
  8
0
 10
-88.142853
 20
-147.050003
 40
4.500000
  1
70
 50
0.000000
 41
1.052632
 51
0.000000
  7
STANDARD
  0
TEXT
  8
0
 10
-66.142853
 20
-183.049973
 40
4.500000
  1
70
 50
0.000000
 41
1.052632
 51
0.000000
  7
STANDARD
  0
TEXT
  8
0
 10
-66.142853
 20
-147.050003
 40
4.500000
  1
80
 50
0.000000
 41
1.052632
 51
0.000000
  7
STANDARD
  0
TEXT
  8
0
 10
-44.142857
 20
-183.049973
 40
4.500000
  1
80
 50
0.000000
 41
1.052632
 51
0.000000
  7
STANDARD
  0
TEXT
  8
0
 10
-44.142857
 20
-147.050003
 40
4.500000
  1
90
 50
0.000000
 41
1.052632
 51
0.000000
  7
STANDARD
  0
TEXT
  8
0
 10
-195.892853
 20
-163.050003
 40
4.500000
  1
5
 50
0.000000
 41
1.052632
 51
0.000000
  7
STANDARD
  0
TEXT
  8
0
 10
-195.892853
 20
-173.049988
 40
4.500000
  1
5
 50
0.000000
 41
1.052632
 51
0.000000
  7
STANDARD
  0
TEXT
  8
0
 10
-176.142853
 20
-163.050003
 40
4.500000
  1
10
 50
0.000000
 41
1.052632
 51
0.000000
  7
STANDARD
  0
TEXT
  8
0
 10
-176.142853
 20
-173.049988
 40
4.500000
  1
10
 50
0.000000
 41
1.052632
 51
0.000000
  7
STANDARD
  0
TEXT
  8
0
 10
-154.142853
 20
-173.049988
 40
4.500000
  1
15
 50
0.000000
 41
1.052632
 51
0.000000
  7
STANDARD
  0
TEXT
  8
0
 10
-132.142853
 20
-173.049988
 40
4.500000
  1
20
 50
0.000000
 41
1.052632
 51
0.000000
  7
STANDARD
  0
TEXT
  8
0
 10
-110.142853
 20
-173.049988
 40
4.500000
  1
25
 50
0.000000
 41
1.052632
 51
0.000000
  7
STANDARD
  0
TEXT
  8
0
 10
-88.142853
 20
-173.049988
 40
4.500000
  1
30
 50
0.000000
 41
1.052632
 51
0.000000
  7
STANDARD
  0
TEXT
  8
0
 10
-66.142853
 20
-173.049988
 40
4.500000
  1
35
 50
0.000000
 41
1.052632
 51
0.000000
  7
STANDARD
  0
TEXT
  8
0
 10
-44.142857
 20
-173.049988
 40
4.500000
  1
40
 50
0.000000
 41
1.052632
 51
0.000000
  7
STANDARD
  0
TEXT
  8
0
 10
-22.142857
 20
-173.049988
 40
4.500000
  1
45
 50
0.000000
 41
1.052632
 51
0.000000
  7
STANDARD
  0
TEXT
  8
0
 10
-154.142853
 20
-163.050003
 40
4.500000
  1
15
 50
0.000000
 41
1.052632
 51
0.000000
  7
STANDARD
  0
TEXT
  8
0
 10
-132.142853
 20
-163.050003
 40
4.500000
  1
20
 50
0.000000
 41
1.052632
 51
0.000000
  7
STANDARD
  0
TEXT
  8
0
 10
-110.142853
 20
-163.050003
 40
4.500000
  1
25
 50
0.000000
 41
1.052632
 51
0.000000
  7
STANDARD
  0
TEXT
  8
0
 10
-88.142853
 20
-163.050003
 40
4.500000
  1
30
 50
0.000000
 41
1.052632
 51
0.000000
  7
STANDARD
  0
TEXT
  8
0
 10
-66.142853
 20
-163.050003
 40
4.500000
  1
35
 50
0.000000
 41
1.052632
 51
0.000000
  7
STANDARD
  0
TEXT
  8
0
 10
-44.142857
 20
-163.050003
 40
4.500000
  1
40
 50
0.000000
 41
1.052632
 51
0.000000
  7
STANDARD
  0
TEXT
  8
0
 10
-22.142857
 20
-163.050003
 40
4.500000
  1
45
 50
0.000000
 41
1.052632
 51
0.000000
  7
STANDARD
  0
ENDSEC
  0
EOF
