  0
SECTION
  2
HEADER
  0
ENDSEC
  0
SECTION
  2
TABLES
  0
TABLE
  2
LTYPE
 70
     4
  0
LTYPE
  2
CONTINUOUS
 70
    64
  3
Solid line
 72
    65
 73
     0
 40
0.000000
  0
LTYPE
  2
DASHED
 70
    64
  3
__ __ __ __ __ __ __ __ __ __ __ __ __ __ __
 72
    65
 73
     2
 40
3.500000
 49
2.000000
 49
-1.500000
  0
LTYPE
  2
CENTER
 70
    64
  3
____ _ ____ _ ____ _ ____ _ ____ _ ____ _ ____
 72
    65
 73
     4
 40
17.500000
 49
13.000000
 49
-1.500000
 49
1.500000
 49
-1.500000
  0
LTYPE
  2
PHANTOM
 70
    64
  3
_____ _ _ _____ _ _ _____ _ _ _____ _ _ ____  
 72
    65
 73
     6
 40
15.500000
 49
8.000000
 49
-1.500000
 49
1.500000
 49
-1.500000
 49
1.500000
 49
-1.500000
  0
LTYPE
  2
DASHED1
 70
    64
  3
__ __ __ __ __ __ __ __ __ __ __ __ __ __ __
 72
    65
 73
     2
 40
1.500000
 49
1.000000
 49
-0.500000
  0
LTYPE
  2
DASHED2
 70
    64
  3
__ __ __ __ __ __ __ __ __ __ __ __ __ __ __
 72
    65
 73
     2
 40
3.500000
 49
2.500000
 49
-1.000000
  0
LTYPE
  2
DASHED3
 70
    64
  3
__ __ __ __ __ __ __ __ __ __ __ __ __ __ __
 72
    65
 73
     2
 40
6.000000
 49
4.000000
 49
-2.000000
  0
LTYPE
  2
DASHED4
 70
    64
  3
__ __ __ __ __ __ __ __ __ __ __ __ __ __ __
 72
    65
 73
     2
 40
12.000000
 49
10.000000
 49
-2.000000
  0
LTYPE
  2
DASHED5
 70
    64
  3
__ __ __ __ __ __ __ __ __ __ __ __ __ __ __
 72
    65
 73
     2
 40
17.000000
 49
15.000000
 49
-2.000000
  0
LTYPE
  2
DASHED6
 70
    64
  3
__ __ __ __ __ __ __ __ __ __ __ __ __ __ __
 72
    65
 73
     2
 40
29.000000
 49
27.000000
 49
-2.000000
  0
LTYPE
  2
PHANTOM1
 70
    64
  3
_____ _ _ _____ _ _ _____ _ _ _____ _ _ ____  
 72
    65
 73
     6
 40
31.000000
 49
25.000000
 49
-1.500000
 49
1.000000
 49
-1.000000
 49
1.000000
 49
-1.500000
  0
LTYPE
  2
PHANTOM2
 70
    64
  3
_____ _ _ _____ _ _ _____ _ _ _____ _ _ ____  
 72
    65
 73
     6
 40
36.000000
 49
27.000000
 49
-1.500000
 49
2.500000
 49
-1.000000
 49
2.500000
 49
-1.500000
  0
LTYPE
  2
PHANTOM3
 70
    64
  3
_____ _ _ _____ _ _ _____ _ _ _____ _ _ ____  
 72
    65
 73
     6
 40
78.000000
 49
64.000000
 49
-2.000000
 49
4.000000
 49
-2.000000
 49
4.000000
 49
-2.000000
  0
LTYPE
  2
CENTER1
 70
    64
  3
____ _ ____ _ ____ _ ____ _ ____ _ ____ _ ____
 72
    65
 73
     4
 40
19.000000
 49
14.000000
 49
-1.000000
 49
3.000000
 49
-1.000000
  0
LTYPE
  2
CENTER2
 70
    64
  3
____ _ ____ _ ____ _ ____ _ ____ _ ____ _ ____
 72
    65
 73
     4
 40
28.500000
 49
25.000000
 49
-1.000000
 49
1.500000
 49
-1.000000
  0
LTYPE
  2
CENTER3
 70
    64
  3
____ _ ____ _ ____ _ ____ _ ____ _ ____ _ ____
 72
    65
 73
     4
 40
31.500000
 49
27.000000
 49
-1.000000
 49
2.500000
 49
-1.000000
  0
LTYPE
  2
CENTER4
 70
    64
  3
____ _ ____ _ ____ _ ____ _ ____ _ ____ _ ____
 72
    65
 73
     4
 40
50.000000
 49
45.000000
 49
-1.000000
 49
3.000000
 49
-1.000000
  0
LTYPE
  2
CENTER5
 70
    64
  3
____ _ ____ _ ____ _ ____ _ ____ _ ____ _ ____
 72
    65
 73
     4
 40
100.000000
 49
92.000000
 49
-2.000000
 49
4.000000
 49
-2.000000
  0
LTYPE
  2
SBK1
 70
    64
  3
______ _ _ _ ______ _ _ _ ______ _ _ _ _____  
 72
    65
 73
     8
 40
60.500000
 49
45.000000
 49
-2.000000
 49
2.500000
 49
-2.000000
 49
2.500000
 49
-2.000000
 49
2.500000
 49
-2.000000
  0
LTYPE
  2
SBK2
 70
    64
  3
______ _ _ _ ______ _ _ _ ______ _ _ _ _____  
 72
    65
 73
     8
 40
84.000000
 49
64.000000
 49
-2.000000
 49
4.000000
 49
-2.000000
 49
4.000000
 49
-2.000000
 49
4.000000
 49
-2.000000
  0
LTYPE
  2
STCH
 70
    64
  3
__ __ __ __ __ __ __ __ __ __ __ __ __ __ __
 72
    65
 73
     2
 40
3.000000
 49
1.000000
 49
-2.000000
  0
LTYPE
  2
MTCH
 70
    64
  3
_____ _ _ _____ _ _ _____ _ _ _____ _ _ ____  
 72
    65
 73
     6
 40
80.000000
 49
66.000000
 49
-2.000000
 49
4.000000
 49
-2.000000
 49
4.000000
 49
-2.000000
  0
ENDTAB
  0
TABLE
  2
LAYER
 70
     1
  0
LAYER
  2
0
 70
     0
 62
     7
  6
CONTINUOUS
  0
ENDTAB
  0
TABLE
  2
STYLE
 70
     1
  0
STYLE
  2
STANDARD
 70
     0
 40
0.000000
 41
1.000000
 50
0.000000
 71
     0
 42
0.200000
  3
txt
  4
BIGFONT
  0
ENDTAB
  0
TABLE
  2
VIEW
 70
     0
  0
ENDTAB
  0
ENDSEC
  0
SECTION
  2
BLOCKS
  0
ENDSEC
  0
SECTION
  2
ENTITIES
  0
LINE
  8
0
  6
PHANTOM
 62
     3
 10
-39.500000
 20
150.500000
 11
-39.500000
 21
36.500000
  0
LINE
  8
0
  6
PHANTOM
 62
     3
 10
22.000002
 20
130.500000
 11
22.000002
 21
36.500000
  0
LINE
  8
0
  6
PHANTOM
 62
     3
 10
-1.000000
 20
140.500000
 11
-1.000000
 21
38.750000
  0
LINE
  8
0
  6
CENTER
 62
     2
 10
-12.999998
 20
95.799995
 11
-12.999998
 21
83.800003
  0
LINE
  8
0
  6
CENTER
 62
     2
 10
27.000010
 20
96.199997
 11
27.000010
 21
84.010818
  0
LINE
  8
0
  6
CENTER
 62
     2
 10
17.000010
 20
122.999992
 11
17.000010
 21
111.101402
  0
LINE
  8
0
  6
CENTER
 62
     2
 10
11.199991
 20
62.499977
 11
22.805323
 21
62.499977
  0
LINE
  8
0
  6
CENTER
 62
     2
 10
10.506388
 20
117.499977
 11
23.199999
 21
117.499977
  0
LINE
  8
0
  6
CENTER
 62
     2
 10
17.000010
 20
68.473381
 11
17.000010
 21
56.280212
  0
LINE
  8
0
 10
-27.499918
 20
120.999992
 11
49.285706
 21
120.999992
  0
LINE
  8
0
 10
-27.499987
 20
58.999981
 11
49.285706
 21
58.999981
  0
LINE
  8
0
 10
49.285702
 20
120.999977
 11
49.999989
 21
120.285706
  0
LINE
  8
0
 10
50.000000
 20
59.714302
 11
49.285713
 21
59.000015
  0
LINE
  8
0
  6
CENTER
 62
     2
 10
-62.081673
 20
89.999977
 11
53.919174
 21
89.999977
  0
LINE
  8
0
 10
-27.999994
 20
115.799973
 11
13.379229
 21
115.799973
  0
LINE
  8
0
 10
-27.999971
 20
112.599991
 11
50.000000
 21
112.599991
  0
LINE
  8
0
 10
-27.999994
 20
92.599991
 11
-16.039717
 21
92.599991
  0
LINE
  8
0
 10
-27.999994
 20
95.799973
 11
50.000000
 21
95.799973
  0
LINE
  8
0
 10
20.620790
 20
115.799973
 11
50.000000
 21
115.799973
  0
LINE
  8
0
 10
-9.960268
 20
92.599991
 11
23.960283
 21
92.599991
  0
LINE
  8
0
 10
30.039736
 20
92.599991
 11
50.000000
 21
92.599991
  0
LINE
  8
0
 10
15.500071
 20
95.799973
 11
18.000071
 21
95.799973
  0
LINE
  8
0
 10
15.500071
 20
92.599968
 11
18.000071
 21
92.599968
  0
LINE
  8
0
 10
-27.999975
 20
120.499969
 11
-27.999975
 21
59.499969
  0
LINE
  8
0
 10
-36.999977
 20
94.118782
 11
-36.999977
 21
85.881180
  0
LINE
  8
0
 10
-46.999954
 20
93.999985
 11
-46.999954
 21
85.999969
  0
LINE
  8
0
 10
-47.999954
 20
120.499969
 11
-47.999954
 21
59.499969
  0
LINE
  8
0
 10
-57.999954
 20
120.499969
 11
-57.999954
 21
59.499969
  0
LINE
  8
0
  6
CENTER
 62
     2
 10
-56.234970
 20
67.999962
 11
-50.201538
 21
67.999962
  0
LINE
  8
0
  6
CENTER
 62
     2
 10
-56.583046
 20
111.999947
 11
-49.853462
 21
111.999947
  0
LINE
  8
0
 10
-47.999954
 20
98.999985
 11
-27.999971
 21
98.999985
  0
LINE
  8
0
 10
-47.999954
 20
108.999985
 11
-27.999971
 21
108.999985
  0
LINE
  8
0
 10
-47.999954
 20
70.999969
 11
-27.999971
 21
70.999969
  0
LINE
  8
0
 10
-47.999954
 20
80.999969
 11
-27.999971
 21
80.999969
  0
LINE
  8
0
 10
-47.999954
 20
93.999985
 11
-46.999954
 21
93.999985
  0
LINE
  8
0
 10
-47.999954
 20
85.999969
 11
-46.999954
 21
85.999969
  0
LINE
  8
0
  6
CENTER
 62
     2
 10
-64.795883
 20
103.999985
 11
-22.599974
 21
103.999985
  0
LINE
  8
0
  6
CENTER
 62
     2
 10
-65.180771
 20
75.999969
 11
-22.999971
 21
75.999969
  0
LINE
  8
0
  6
CENTER
 62
     2
 10
-52.999954
 20
115.570290
 11
-52.999954
 21
108.260567
  0
LINE
  8
0
  6
CENTER
 62
     2
 10
-52.999954
 20
71.363785
 11
-52.999954
 21
64.402115
  0
LINE
  8
0
 10
-47.999954
 20
106.861794
 11
-45.999962
 21
106.861794
  0
LINE
  8
0
 10
-47.999954
 20
101.138130
 11
-45.999962
 21
101.138130
  0
LINE
  8
0
 10
-47.999954
 20
78.861778
 11
-45.999962
 21
78.861778
  0
LINE
  8
0
 10
-47.999954
 20
73.138145
 11
-45.999962
 21
73.138145
  0
LINE
  8
0
 10
-45.999962
 20
106.861794
 11
-45.999962
 21
101.138153
  0
LINE
  8
0
 10
-45.999962
 20
78.861786
 11
-45.999962
 21
73.138145
  0
LINE
  8
0
 10
-36.711304
 20
94.618790
 11
-33.499977
 21
94.618790
  0
LINE
  8
0
 10
-36.711304
 20
92.309372
 11
-33.499977
 21
92.309372
  0
LINE
  8
0
 10
-36.711304
 20
87.690559
 11
-33.499977
 21
87.690559
  0
LINE
  8
0
 10
-36.711304
 20
85.381165
 11
-33.499977
 21
85.381165
  0
LINE
  8
0
 10
-33.499985
 20
94.618790
 11
-33.499985
 21
85.381165
  0
LINE
  8
0
 10
-30.479986
 20
94.118782
 11
-30.479986
 21
85.881180
  0
LINE
  8
0
 10
-36.999962
 20
94.118752
 11
-36.711266
 21
94.618790
  0
LINE
  8
0
 10
-36.999989
 20
85.881126
 11
-36.711315
 21
85.381126
  0
LINE
  8
0
 10
-30.191309
 20
94.618790
 11
-28.288668
 21
94.618790
  0
LINE
  8
0
 10
-30.191309
 20
85.381165
 11
-28.288645
 21
85.381165
  0
LINE
  8
0
 10
-27.999998
 20
94.118736
 11
-28.288679
 21
94.618736
  0
LINE
  8
0
 10
-27.999950
 20
85.881134
 11
-28.288624
 21
85.381142
  0
LINE
  8
0
 10
-30.479942
 20
94.118790
 11
-30.191271
 21
94.618774
  0
LINE
  8
0
 10
-30.480074
 20
85.881126
 11
-30.191389
 21
85.381111
  0
LINE
  8
0
 10
-30.191309
 20
87.690559
 11
-28.288645
 21
87.690559
  0
LINE
  8
0
 10
-30.191309
 20
92.309372
 11
-28.288645
 21
92.309372
  0
LINE
  8
0
 10
-33.499977
 20
92.499954
 11
-30.479982
 21
92.499954
  0
LINE
  8
0
 10
-33.499977
 20
87.499954
 11
-30.479982
 21
87.499954
  0
LINE
  8
0
 62
     2
 10
-33.499977
 20
87.904968
 11
-30.479982
 21
87.904968
  0
LINE
  8
0
 62
     2
 10
-33.499977
 20
92.094986
 11
-30.479982
 21
92.094986
  0
LINE
  8
0
 10
-57.999954
 20
59.499969
 11
-47.999954
 21
59.499969
  0
LINE
  8
0
 10
-57.999954
 20
120.499962
 11
-47.999954
 21
120.499962
  0
LINE
  8
0
 10
-27.499949
 20
120.999939
 11
-27.999937
 21
120.499947
  0
LINE
  8
0
 10
-27.999969
 20
59.499954
 11
-27.499973
 21
58.999958
  0
LINE
  8
0
 10
50.000000
 20
120.285660
 11
50.000000
 21
59.714268
  0
LINE
  8
0
 62
     2
 10
-45.999966
 20
106.861801
 11
-47.999958
 21
101.138138
  0
LINE
  8
0
 62
     2
 10
-47.999954
 20
106.861794
 11
-45.999962
 21
101.138130
  0
LINE
  8
0
 62
     2
 10
-45.999966
 20
78.861778
 11
-47.999958
 21
73.138145
  0
LINE
  8
0
 62
     2
 10
-45.999962
 20
73.138145
 11
-47.999954
 21
78.861778
  0
LINE
  8
0
  6
CENTER
 62
     2
 10
-151.900024
 20
90.000015
 11
-119.900009
 21
90.000015
  0
LINE
  8
0
 10
-147.285736
 20
121.000015
 11
-137.100006
 21
121.000015
  0
LINE
  8
0
  6
CENTER
 62
     2
 10
-142.371796
 20
76.000031
 11
-128.855484
 21
76.000031
  0
LINE
  8
0
  6
CENTER
 62
     2
 10
-142.168533
 20
104.000046
 11
-128.855484
 21
104.000046
  0
LINE
  8
0
  6
CENTER
 62
     2
 10
-135.500031
 20
125.800018
 11
-135.500031
 21
52.600029
  0
LINE
  8
0
 10
-123.500015
 20
120.500046
 11
-123.500015
 21
59.500031
  0
LINE
  8
0
 10
-147.500015
 20
120.500046
 11
-147.500015
 21
59.500031
  0
LINE
  8
0
 10
-123.000031
 20
120.285728
 11
-123.000031
 21
115.800034
  0
LINE
  8
0
 10
-148.000031
 20
120.285728
 11
-148.000031
 21
115.800034
  0
LINE
  8
0
 10
-123.000031
 20
92.600029
 11
-123.000031
 21
59.714306
  0
LINE
  8
0
 10
-148.000031
 20
92.600052
 11
-148.000031
 21
59.714306
  0
LINE
  8
0
  6
CENTER
 62
     2
 10
-138.713242
 20
117.500015
 11
-132.107544
 21
117.500015
  0
LINE
  8
0
  6
CENTER
 62
     2
 10
-138.713242
 20
62.500015
 11
-132.615662
 21
62.500015
  0
LINE
  8
0
 10
-138.000031
 20
105.443413
 11
-138.000031
 21
102.556671
  0
LINE
  8
0
 10
-133.000031
 20
105.443413
 11
-133.000031
 21
102.556671
  0
LINE
  8
0
 10
-135.500076
 20
106.886780
 11
-133.000046
 21
105.443390
  0
LINE
  8
0
 10
-138.000031
 20
102.556610
 11
-135.500031
 21
101.113235
  0
LINE
  8
0
 10
-138.000092
 20
105.443542
 11
-135.500076
 21
106.886925
  0
LINE
  8
0
 10
-135.500046
 20
101.113327
 11
-133.000046
 21
102.556709
  0
LINE
  8
0
 10
-138.000031
 20
77.443413
 11
-138.000031
 21
74.556664
  0
LINE
  8
0
 10
-133.000031
 20
77.443413
 11
-133.000031
 21
74.556664
  0
LINE
  8
0
 10
-135.500046
 20
78.886772
 11
-133.000046
 21
77.443398
  0
LINE
  8
0
 10
-138.000061
 20
74.556671
 11
-135.500031
 21
73.113274
  0
LINE
  8
0
 10
-138.000046
 20
77.443504
 11
-135.500046
 21
78.886879
  0
LINE
  8
0
 10
-135.500046
 20
73.113342
 11
-133.000046
 21
74.556717
  0
LINE
  8
0
 10
-147.500015
 20
59.500008
 11
-123.500015
 21
59.500008
  0
LINE
  8
0
 10
-147.285736
 20
59.000019
 11
-123.714317
 21
59.000019
  0
LINE
  8
0
 10
-147.500015
 20
120.500023
 11
-123.500015
 21
120.500023
  0
LINE
  8
0
 10
-147.285721
 20
120.999992
 11
-148.000000
 21
120.285706
  0
LINE
  8
0
 10
-123.714302
 20
121.000008
 11
-123.000031
 21
120.285736
  0
LINE
  8
0
 10
-148.000031
 20
59.714363
 11
-147.285736
 21
59.000072
  0
LINE
  8
0
 10
-123.000053
 20
59.714367
 11
-123.714348
 21
59.000084
  0
LINE
  8
0
 10
-147.999939
 20
95.800034
 11
-147.499969
 21
95.800034
  0
LINE
  8
0
 10
-147.999939
 20
92.600044
 11
-147.499969
 21
92.600044
  0
LINE
  8
0
 10
-123.000031
 20
112.600029
 11
-123.000031
 21
95.800034
  0
LINE
  8
0
 10
-123.000137
 20
115.800034
 11
-123.500107
 21
115.800034
  0
LINE
  8
0
 10
-123.000137
 20
112.600029
 11
-123.500107
 21
112.600029
  0
LINE
  8
0
 10
-123.000114
 20
95.800034
 11
-123.500084
 21
95.800034
  0
LINE
  8
0
 10
-123.000114
 20
92.600029
 11
-123.500084
 21
92.600029
  0
LINE
  8
0
 10
-137.100006
 20
120.999924
 11
-137.100006
 21
120.499962
  0
LINE
  8
0
 10
-133.899994
 20
120.999924
 11
-133.899994
 21
120.499962
  0
LINE
  8
0
 10
-147.999939
 20
112.600052
 11
-147.499969
 21
112.600052
  0
LINE
  8
0
 10
-147.999939
 20
115.800034
 11
-147.499969
 21
115.800034
  0
LINE
  8
0
 10
-148.000031
 20
112.600052
 11
-148.000031
 21
95.800034
  0
LINE
  8
0
 10
-133.899994
 20
121.000015
 11
-123.714294
 21
121.000015
  0
LINE
  8
0
  6
PHANTOM
 62
     3
 10
-1.000000
 20
38.750000
 11
12.499998
 21
38.750000
  0
LINE
  8
0
  6
PHANTOM
 62
     3
 10
12.499998
 20
38.750000
 11
12.499998
 21
-8.499989
  0
LINE
  8
0
  6
PHANTOM
 62
     3
 10
-39.500000
 20
36.500000
 11
-39.500000
 21
-8.499989
  0
LINE
  8
0
  6
PHANTOM
 62
     3
 10
21.999998
 20
36.500000
 11
21.999998
 21
-8.499989
  0
LINE
  8
0
 10
49.999977
 20
25.785732
 11
49.999977
 21
2.214306
  0
LINE
  8
0
  6
CENTER
 62
     2
 10
-61.400009
 20
14.000011
 11
56.293037
 21
14.000011
  0
LINE
  8
0
 10
-27.285734
 20
26.500011
 11
49.285683
 21
26.500011
  0
LINE
  8
0
 10
-27.285734
 20
1.500011
 11
49.285622
 21
1.500011
  0
LINE
  8
0
  6
CENTER
 62
     2
 10
6.999983
 20
18.373058
 11
6.999983
 21
9.716152
  0
LINE
  8
0
  6
CENTER
 62
     2
 10
37.999962
 20
17.988293
 11
37.999962
 21
9.908520
  0
LINE
  8
0
 10
49.285698
 20
26.500006
 11
49.999981
 21
25.785723
  0
LINE
  8
0
 10
49.999954
 20
2.214329
 11
49.285690
 21
1.500052
  0
LINE
  8
0
 10
-28.000002
 20
25.785740
 11
-28.000002
 21
2.214306
  0
LINE
  8
0
 10
-37.000004
 20
9.000011
 11
-37.000004
 21
4.500027
  0
LINE
  8
0
 10
-36.711330
 20
4.000011
 11
-33.500004
 21
4.000011
  0
LINE
  8
0
 10
-33.500011
 20
9.000011
 11
-33.500011
 21
4.000011
  0
LINE
  8
0
 10
-30.480013
 20
9.000011
 11
-30.480013
 21
4.500027
  0
LINE
  8
0
 10
-37.000015
 20
4.500001
 11
-36.711342
 21
4.000004
  0
LINE
  8
0
 10
-30.480034
 20
4.499995
 11
-30.191357
 21
3.999991
  0
LINE
  8
0
 10
-28.000042
 20
4.500016
 11
-28.288717
 21
4.000011
  0
LINE
  8
0
 10
-30.191336
 20
4.000011
 11
-28.288671
 21
4.000011
  0
LINE
  8
0
 10
-33.500004
 20
5.500011
 11
-30.480009
 21
5.500011
  0
LINE
  8
0
 62
     2
 10
-33.500004
 20
5.905010
 11
-30.480009
 21
5.905010
  0
LINE
  8
0
 10
-47.999981
 20
9.900021
 11
-47.999981
 21
2.000027
  0
LINE
  8
0
 10
-57.999981
 20
26.000019
 11
-57.999981
 21
2.000027
  0
LINE
  8
0
 10
-46.999981
 20
9.900021
 11
-46.999981
 21
4.000011
  0
LINE
  8
0
 10
-47.999981
 20
26.000019
 11
-47.999981
 21
18.100033
  0
LINE
  8
0
 10
-47.999981
 20
4.000011
 11
-46.999981
 21
4.000011
  0
LINE
  8
0
 10
-57.999981
 20
2.000027
 11
-47.999981
 21
2.000027
  0
LINE
  8
0
 10
-57.999981
 20
26.000011
 11
-47.999981
 21
26.000011
  0
LINE
  8
0
 10
-45.999989
 20
9.000011
 11
-27.999998
 21
9.000011
  0
LINE
  8
0
 10
-45.999989
 20
19.000011
 11
-27.999998
 21
19.000011
  0
LINE
  8
0
 10
-48.999996
 20
18.100033
 11
-48.999996
 21
9.900021
  0
LINE
  8
0
 10
-48.999996
 20
9.900021
 11
-45.999989
 21
9.900021
  0
LINE
  8
0
 10
-48.999996
 20
18.100025
 11
-45.999989
 21
18.100025
  0
LINE
  8
0
 10
-45.999989
 20
19.000011
 11
-45.999989
 21
18.100033
  0
LINE
  8
0
 10
-45.999989
 20
9.900021
 11
-45.999989
 21
9.000011
  0
LINE
  8
0
 10
-27.285744
 20
26.500044
 11
-28.000017
 21
25.785776
  0
LINE
  8
0
 10
-27.999994
 20
2.214297
 11
-27.285702
 21
1.500005
  0
LINE
  8
0
 10
-57.999981
 20
26.000019
 11
-57.999981
 21
2.000027
  0
LINE
  8
0
 10
15.063490
 20
26.500011
 11
15.063490
 21
21.000011
  0
LINE
  8
0
 10
18.936476
 20
26.500011
 11
18.936476
 21
21.000011
  0
LINE
  8
0
 10
15.063490
 20
7.000011
 11
15.063490
 21
1.500011
  0
LINE
  8
0
 10
18.936476
 20
7.000011
 11
18.936476
 21
1.500011
  0
LINE
  8
0
 10
15.063490
 20
21.000011
 11
18.936476
 21
21.000011
  0
LINE
  8
0
 10
15.063490
 20
7.000011
 11
18.936476
 21
7.000011
  0
LINE
  8
0
 62
     4
 10
-37.341675
 20
-97.309509
 11
-32.596375
 21
-97.309509
  0
LINE
  8
0
 62
     4
 10
-41.096405
 20
-99.909515
 11
-37.340607
 21
-99.909515
  0
LINE
  8
0
 62
     4
 10
-35.840576
 20
-99.909515
 11
-32.596375
 21
-99.909515
  0
LINE
  8
0
 62
     4
 10
-63.096405
 20
-96.309525
 11
-41.096405
 21
-96.309525
  0
LINE
  8
0
 62
     4
 10
-58.396393
 20
-100.909523
 11
-41.096405
 21
-100.909523
  0
LINE
  8
0
 62
     4
 10
-41.096405
 20
-96.309525
 11
-41.096405
 21
-100.909523
  0
LINE
  8
0
 62
     4
 10
-63.096405
 20
-98.109520
 11
-63.096405
 21
-96.309525
  0
LINE
  8
0
 62
     4
 10
-58.396393
 20
-99.351486
 11
-58.396393
 21
-100.909523
  0
LINE
  8
0
 62
     4
 10
-63.096405
 20
-98.109520
 11
-58.846390
 21
-98.109520
  0
LINE
  8
0
  6
CENTER
 62
     1
 10
-61.096390
 20
-95.502808
 11
-61.096390
 21
-101.741425
  0
LINE
  8
0
 62
     4
 10
-58.846390
 20
-98.109520
 11
-58.846390
 21
-99.351486
  0
LINE
  8
0
 62
     4
 10
-59.096390
 20
-98.109520
 11
-59.096390
 21
-98.909523
  0
LINE
  8
0
 62
     4
 10
-63.096405
 20
-98.109520
 11
-63.096405
 21
-98.909523
  0
LINE
  8
0
 62
     4
 10
-63.096405
 20
-98.909523
 11
-59.096390
 21
-98.909523
  0
LINE
  8
0
 62
     4
 10
-58.896393
 20
-98.109520
 11
-58.896393
 21
-100.109520
  0
LINE
  8
0
 62
     4
 10
-58.896393
 20
-100.109520
 11
-58.396393
 21
-100.109520
  0
LINE
  8
0
 62
     4
 10
-58.846390
 20
-99.351486
 11
-58.396393
 21
-99.351486
  0
LINE
  8
0
 62
     4
 10
-32.596375
 20
-97.309509
 11
-32.596375
 21
-99.909515
  0
LINE
  8
0
  6
CENTER
 62
     1
 10
-34.319275
 20
-98.159439
 11
-22.387207
 21
-98.159439
  0
LINE
  8
0
  6
CENTER
 62
     1
 10
-34.268982
 20
-99.059433
 11
-22.345337
 21
-99.059433
  0
LINE
  8
0
 62
     4
 10
-22.596375
 20
-97.909454
 11
-22.596375
 21
-98.409454
  0
LINE
  8
0
 62
     4
 10
-22.596375
 20
-98.809448
 11
-22.596375
 21
-99.309448
  0
LINE
  8
0
 62
     4
 10
-25.596375
 20
-97.709442
 11
-25.596375
 21
-99.509460
  0
LINE
  8
0
 62
     4
 10
-32.596375
 20
-99.509445
 11
-28.590820
 21
-99.509445
  0
LINE
  8
0
 62
     4
 10
-32.596375
 20
-98.609421
 11
-29.110413
 21
-98.609421
  0
LINE
  8
0
 62
     4
 10
-27.610413
 20
-98.609421
 11
-25.596375
 21
-98.609421
  0
LINE
  8
0
 62
     4
 10
-27.090820
 20
-99.509445
 11
-25.596375
 21
-99.509445
  0
LINE
  8
0
 62
     4
 10
-32.596375
 20
-97.709427
 11
-29.630066
 21
-97.709427
  0
LINE
  8
0
 62
     4
 10
-28.130066
 20
-97.709427
 11
-25.596375
 21
-97.709427
  0
LINE
  8
0
 62
     4
 10
-25.596375
 20
-97.909439
 11
-22.596375
 21
-97.909439
  0
LINE
  8
0
 62
     4
 10
-25.596375
 20
-98.409439
 11
-22.596375
 21
-98.409439
  0
LINE
  8
0
 62
     4
 10
-25.596375
 20
-98.809433
 11
-22.596375
 21
-98.809433
  0
LINE
  8
0
 62
     4
 10
-25.596375
 20
-99.309433
 11
-22.596375
 21
-99.309433
  0
LINE
  8
0
 62
     1
 10
-28.860390
 20
-96.444504
 11
-26.360388
 21
-100.774628
  0
LINE
  8
0
  6
CENTER
 62
     1
 10
-42.410767
 20
-98.609512
 11
-32.596375
 21
-98.609512
  0
LINE
  8
0
 62
     1
 10
-30.360456
 20
-96.444473
 11
-27.860455
 21
-100.774597
  0
LINE
  8
0
 62
     1
 10
-37.841129
 20
-96.444450
 11
-35.341129
 21
-100.774582
  0
LINE
  8
0
 62
     1
 10
-39.341110
 20
-96.444519
 11
-36.841114
 21
-100.774635
  0
LINE
  8
0
 62
     4
 10
-62.121399
 20
-100.309525
 11
-60.071396
 21
-100.309525
  0
LINE
  8
0
 62
     4
 10
-60.070972
 20
-100.309967
 11
-59.845989
 21
-100.084976
  0
LINE
  8
0
 62
     4
 10
-62.121357
 20
-100.309540
 11
-62.346352
 21
-100.084549
  0
LINE
  8
0
 62
     4
 10
-62.346390
 20
-98.908707
 11
-62.346390
 21
-100.084526
  0
LINE
  8
0
 62
     1
 10
-62.121399
 20
-98.908707
 11
-62.121399
 21
-100.309525
  0
LINE
  8
0
 62
     1
 10
-60.071396
 20
-98.908707
 11
-60.071396
 21
-100.309525
  0
LINE
  8
0
 62
     4
 10
-59.846390
 20
-98.908707
 11
-59.846390
 21
-100.084518
  0
LINE
  8
0
 62
     4
 10
-62.346390
 20
-100.084526
 11
-59.846390
 21
-100.084526
  0
LINE
  8
0
 62
     4
 10
-62.346390
 20
-95.809525
 11
-62.346390
 21
-96.309525
  0
LINE
  8
0
 62
     1
 10
-62.121399
 20
-95.809525
 11
-62.121399
 21
-96.309525
  0
LINE
  8
0
 62
     1
 10
-60.071396
 20
-95.809525
 11
-60.071396
 21
-96.309525
  0
LINE
  8
0
 62
     4
 10
-59.846390
 20
-95.809525
 11
-59.846390
 21
-96.309525
  0
LINE
  8
0
 62
     4
 10
-62.346390
 20
-95.809525
 11
-59.846390
 21
-95.809525
  0
LINE
  8
0
 62
     4
 10
-63.096405
 20
-97.309525
 11
-41.096405
 21
-97.309525
  0
LINE
  8
0
 62
     4
 10
-63.096405
 20
-96.759506
 11
-41.096405
 21
-96.759506
  0
LINE
  8
0
 62
     4
 10
-41.096405
 20
-97.309509
 11
-38.841705
 21
-97.309509
  0
LINE
  8
0
 62
     4
 10
-108.889130
 20
-95.809525
 11
-106.389130
 21
-95.809525
  0
LINE
  8
0
  6
CENTER
 62
     1
 10
-107.639130
 20
-94.256554
 11
-107.639130
 21
-102.969315
  0
LINE
  8
0
 62
     4
 10
-109.689117
 20
-97.309525
 11
-109.689117
 21
-98.859520
  0
LINE
  8
0
 62
     4
 10
-109.689186
 20
-97.309502
 11
-109.139183
 21
-96.759491
  0
LINE
  8
0
 62
     4
 10
-109.139130
 20
-96.309525
 11
-109.139130
 21
-96.759521
  0
LINE
  8
0
 62
     4
 10
-109.139130
 20
-96.309525
 11
-106.139130
 21
-96.309525
  0
LINE
  8
0
 62
     4
 10
-106.139130
 20
-96.309525
 11
-106.139130
 21
-96.759521
  0
LINE
  8
0
 62
     4
 10
-105.589119
 20
-97.309471
 11
-106.139114
 21
-96.759460
  0
LINE
  8
0
 62
     4
 10
-105.589127
 20
-97.309525
 11
-105.589127
 21
-98.859520
  0
LINE
  8
0
 62
     4
 10
-109.689117
 20
-98.109520
 11
-105.589127
 21
-98.109520
  0
LINE
  8
0
 62
     4
 10
-109.689133
 20
-98.908707
 11
-105.589127
 21
-98.908707
  0
LINE
  8
0
 62
     4
 10
-108.664139
 20
-100.309525
 11
-106.614136
 21
-100.309525
  0
LINE
  8
0
 62
     4
 10
-106.613701
 20
-100.309998
 11
-106.388702
 21
-100.084984
  0
LINE
  8
0
 62
     4
 10
-108.664116
 20
-100.309563
 11
-108.889114
 21
-100.084564
  0
LINE
  8
0
 62
     4
 10
-108.889130
 20
-98.908707
 11
-108.889130
 21
-100.084526
  0
LINE
  8
0
 62
     1
 10
-108.664139
 20
-98.908707
 11
-108.664139
 21
-100.309525
  0
LINE
  8
0
 62
     1
 10
-106.614136
 20
-98.908707
 11
-106.614136
 21
-100.309525
  0
LINE
  8
0
 62
     4
 10
-106.389130
 20
-98.908707
 11
-106.389130
 21
-100.084518
  0
LINE
  8
0
 62
     4
 10
-108.889130
 20
-100.084526
 11
-106.389130
 21
-100.084526
  0
LINE
  8
0
 62
     4
 10
-108.889130
 20
-95.809525
 11
-108.889130
 21
-96.309525
  0
LINE
  8
0
 62
     1
 10
-108.664139
 20
-95.809525
 11
-108.664139
 21
-96.309525
  0
LINE
  8
0
 62
     1
 10
-106.614136
 20
-95.809525
 11
-106.614136
 21
-96.309525
  0
LINE
  8
0
 62
     4
 10
-106.389130
 20
-95.809525
 11
-106.389130
 21
-96.309525
  0
LINE
  8
0
  6
CENTER
 62
     1
 10
-65.896942
 20
-53.759521
 11
-35.688889
 21
-53.759521
  0
LINE
  8
0
 62
     4
 10
-63.096405
 20
-55.259521
 11
-41.096405
 21
-55.259521
  0
LINE
  8
0
 62
     4
 10
-63.096405
 20
-52.259521
 11
-41.096405
 21
-52.259521
  0
LINE
  8
0
 62
     4
 10
-63.096405
 20
-55.809525
 11
-41.096405
 21
-55.809525
  0
LINE
  8
0
 62
     4
 10
-63.096405
 20
-51.709518
 11
-41.096405
 21
-51.709518
  0
LINE
  8
0
 62
     4
 10
-63.096405
 20
-51.709518
 11
-63.096405
 21
-55.809525
  0
LINE
  8
0
 62
     4
 10
-41.096405
 20
-51.709518
 11
-41.096405
 21
-55.809525
  0
LINE
  8
0
  6
CENTER
 62
     1
 10
-61.096390
 20
-50.923019
 11
-61.096390
 21
-56.512344
  0
LINE
  8
0
 62
     4
 10
-62.141674
 20
-54.472595
 11
-60.408337
 21
-52.739258
  0
LINE
  8
0
 62
     4
 10
-61.788120
 20
-54.826176
 11
-60.154781
 21
-53.192837
  0
LINE
  8
0
 62
     1
 10
-40.007179
 20
-51.594425
 11
-37.507179
 21
-55.924553
  0
LINE
  8
0
 62
     4
 10
-41.096405
 20
-52.459518
 11
-39.507751
 21
-52.459518
  0
LINE
  8
0
 62
     4
 10
-41.096405
 20
-55.059525
 11
-38.006622
 21
-55.059525
  0
LINE
  8
0
 62
     4
 10
112.821899
 20
-85.654793
 11
112.821899
 21
-80.909485
  0
LINE
  8
0
 62
     4
 10
112.821899
 20
-89.409523
 11
112.821899
 21
-87.154778
  0
LINE
  8
0
 62
     4
 10
115.421875
 20
-84.153694
 11
115.421875
 21
-80.909485
  0
LINE
  8
0
 62
     4
 10
94.714539
 20
-96.309525
 11
110.814545
 21
-96.309525
  0
LINE
  8
0
 62
     4
 10
99.414520
 20
-100.909523
 11
116.714539
 21
-100.909523
  0
LINE
  8
0
 62
     4
 10
116.714539
 20
-89.409523
 11
116.714539
 21
-100.909523
  0
LINE
  8
0
 62
     4
 10
94.714539
 20
-98.909523
 11
94.714539
 21
-96.309525
  0
LINE
  8
0
 62
     4
 10
99.414520
 20
-99.291679
 11
99.414520
 21
-100.909523
  0
LINE
  8
0
  6
CENTER
 62
     1
 10
96.714539
 20
-95.579269
 11
96.714539
 21
-101.482193
  0
LINE
  8
0
 62
     4
 10
110.814514
 20
-89.409523
 11
110.814514
 21
-96.309525
  0
LINE
  8
0
 62
     4
 10
94.714539
 20
-98.109528
 11
98.988342
 21
-98.109528
  0
LINE
  8
0
 62
     4
 10
94.714539
 20
-98.909523
 11
98.714539
 21
-98.909523
  0
LINE
  8
0
 62
     4
 10
98.714539
 20
-98.109520
 11
98.714539
 21
-98.909523
  0
LINE
  8
0
 62
     4
 10
110.814545
 20
-89.409523
 11
116.714539
 21
-89.409523
  0
LINE
  8
0
 62
     4
 10
98.914520
 20
-100.109528
 11
99.414520
 21
-100.109528
  0
LINE
  8
0
 62
     4
 10
98.914520
 20
-98.109528
 11
98.914520
 21
-100.109528
  0
LINE
  8
0
 62
     4
 10
98.988342
 20
-99.291679
 11
99.414520
 21
-99.291679
  0
LINE
  8
0
 62
     4
 10
98.988342
 20
-98.109528
 11
98.988342
 21
-99.291679
  0
LINE
  8
0
 62
     4
 10
94.714539
 20
-97.309525
 11
116.714539
 21
-97.309525
  0
LINE
  8
0
 62
     4
 10
94.714539
 20
-96.759521
 11
116.714539
 21
-96.759521
  0
LINE
  8
0
 62
     4
 10
110.814514
 20
-95.159508
 11
116.714539
 21
-95.159508
  0
LINE
  8
0
 62
     4
 10
110.814514
 20
-95.909508
 11
116.714539
 21
-95.909508
  0
LINE
  8
0
 62
     4
 10
110.814514
 20
-90.909523
 11
116.714539
 21
-90.909523
  0
LINE
  8
0
 62
     4
 10
112.821899
 20
-80.909485
 11
115.421875
 21
-80.909485
  0
LINE
  8
0
  6
CENTER
 62
     1
 10
113.671814
 20
-82.632416
 11
113.671814
 21
-70.700333
  0
LINE
  8
0
  6
CENTER
 62
     1
 10
114.571808
 20
-82.582123
 11
114.571808
 21
-70.658478
  0
LINE
  8
0
 62
     4
 10
113.421814
 20
-70.909485
 11
113.921814
 21
-70.909485
  0
LINE
  8
0
 62
     4
 10
114.321808
 20
-70.909485
 11
114.821808
 21
-70.909485
  0
LINE
  8
0
 62
     4
 10
113.221802
 20
-73.909485
 11
115.021820
 21
-73.909485
  0
LINE
  8
0
 62
     4
 10
115.021820
 20
-80.909485
 11
115.021820
 21
-76.903938
  0
LINE
  8
0
 62
     4
 10
114.121796
 20
-80.909485
 11
114.121796
 21
-77.423553
  0
LINE
  8
0
 62
     4
 10
114.121796
 20
-75.923553
 11
114.121796
 21
-73.909485
  0
LINE
  8
0
 62
     4
 10
115.021820
 20
-75.403938
 11
115.021820
 21
-73.909485
  0
LINE
  8
0
 62
     4
 10
113.221802
 20
-80.909485
 11
113.221802
 21
-77.943176
  0
LINE
  8
0
 62
     4
 10
113.221802
 20
-76.443176
 11
113.221802
 21
-73.909485
  0
LINE
  8
0
 62
     4
 10
113.421814
 20
-73.909485
 11
113.421814
 21
-70.909485
  0
LINE
  8
0
 62
     4
 10
113.921814
 20
-73.909485
 11
113.921814
 21
-70.909485
  0
LINE
  8
0
 62
     4
 10
114.321808
 20
-73.909485
 11
114.321808
 21
-70.909485
  0
LINE
  8
0
 62
     4
 10
114.821808
 20
-73.909485
 11
114.821808
 21
-70.909485
  0
LINE
  8
0
 62
     1
 10
111.956955
 20
-77.173668
 11
116.287102
 21
-74.673645
  0
LINE
  8
0
  6
CENTER
 62
     1
 10
114.121887
 20
-90.723892
 11
114.121887
 21
-80.909485
  0
LINE
  8
0
 62
     1
 10
111.956856
 20
-78.673660
 11
116.287010
 21
-76.173645
  0
LINE
  8
0
 62
     1
 10
111.956825
 20
-86.154358
 11
116.286949
 21
-83.654350
  0
LINE
  8
0
 62
     1
 10
111.956871
 20
-87.654343
 11
116.286987
 21
-85.154350
  0
LINE
  8
0
 62
     4
 10
95.689514
 20
-100.309525
 11
97.739532
 21
-100.309525
  0
LINE
  8
0
 62
     4
 10
97.740097
 20
-100.310066
 11
97.965088
 21
-100.085068
  0
LINE
  8
0
 62
     4
 10
95.689598
 20
-100.309395
 11
95.464615
 21
-100.084412
  0
LINE
  8
0
 62
     4
 10
95.464539
 20
-98.909523
 11
95.464539
 21
-100.084526
  0
LINE
  8
0
 62
     1
 10
95.689514
 20
-98.909523
 11
95.689514
 21
-100.309525
  0
LINE
  8
0
 62
     1
 10
97.739532
 20
-98.909523
 11
97.739532
 21
-100.309525
  0
LINE
  8
0
 62
     4
 10
97.964539
 20
-98.909523
 11
97.964539
 21
-100.084518
  0
LINE
  8
0
 62
     4
 10
95.464539
 20
-100.084526
 11
97.964539
 21
-100.084526
  0
LINE
  8
0
 62
     4
 10
95.464539
 20
-95.809525
 11
95.464539
 21
-96.309525
  0
LINE
  8
0
 62
     1
 10
95.689514
 20
-95.809525
 11
95.689514
 21
-96.309525
  0
LINE
  8
0
 62
     1
 10
97.739532
 20
-95.809525
 11
97.739532
 21
-96.309525
  0
LINE
  8
0
 62
     4
 10
97.964539
 20
-95.809525
 11
97.964539
 21
-96.309525
  0
LINE
  8
0
 62
     4
 10
95.464539
 20
-95.809525
 11
97.964539
 21
-95.809525
  0
LINE
  8
0
 62
     4
 10
115.421875
 20
-89.409523
 11
115.421875
 21
-85.653687
  0
LINE
  8
0
 62
     4
 10
52.971802
 20
-85.653702
 11
52.971802
 21
-89.409523
  0
LINE
  8
0
 62
     4
 10
49.421814
 20
-90.909523
 11
53.921814
 21
-90.909523
  0
LINE
  8
0
 62
     4
 10
49.421814
 20
-89.409523
 11
49.421814
 21
-95.159523
  0
LINE
  8
0
 62
     4
 10
50.171764
 20
-95.909492
 11
49.421799
 21
-95.159531
  0
LINE
  8
0
 62
     4
 10
50.171814
 20
-96.759521
 11
50.171814
 21
-95.909523
  0
LINE
  8
0
 62
     4
 10
49.621777
 20
-97.309456
 11
50.171787
 21
-96.759445
  0
LINE
  8
0
 62
     4
 10
49.621796
 20
-97.309525
 11
49.621796
 21
-98.859520
  0
LINE
  8
0
 62
     4
 10
53.721802
 20
-97.309525
 11
53.721802
 21
-98.859520
  0
LINE
  8
0
 62
     4
 10
53.721794
 20
-97.309555
 11
53.171791
 21
-96.759552
  0
LINE
  8
0
 62
     4
 10
53.171814
 20
-96.759521
 11
53.171814
 21
-95.909523
  0
LINE
  8
0
 62
     4
 10
53.171894
 20
-95.909630
 11
53.921890
 21
-95.159630
  0
LINE
  8
0
 62
     4
 10
53.921814
 20
-89.409523
 11
53.921814
 21
-95.159523
  0
LINE
  8
0
  6
CENTER
 62
     1
 10
51.671814
 20
-83.748566
 11
51.671814
 21
-102.376190
  0
LINE
  8
0
 62
     4
 10
50.171814
 20
-96.309525
 11
53.171814
 21
-96.309525
  0
LINE
  8
0
 62
     4
 10
49.621796
 20
-98.109520
 11
53.721802
 21
-98.109520
  0
LINE
  8
0
 62
     4
 10
49.621796
 20
-98.911972
 11
53.721802
 21
-98.911972
  0
LINE
  8
0
 62
     4
 10
49.421814
 20
-89.409523
 11
53.921814
 21
-89.409523
  0
LINE
  8
0
 62
     1
 10
49.506836
 20
-87.654343
 11
53.836964
 21
-85.154350
  0
LINE
  8
0
 62
     4
 10
50.646790
 20
-100.309525
 11
52.696808
 21
-100.309525
  0
LINE
  8
0
 62
     4
 10
52.697315
 20
-100.310051
 11
52.922310
 21
-100.085052
  0
LINE
  8
0
 62
     4
 10
50.646858
 20
-100.309448
 11
50.421852
 21
-100.084442
  0
LINE
  8
0
 62
     4
 10
50.421814
 20
-98.911972
 11
50.421814
 21
-100.084526
  0
LINE
  8
0
 62
     1
 10
50.646790
 20
-98.911972
 11
50.646790
 21
-100.309525
  0
LINE
  8
0
 62
     1
 10
52.696808
 20
-98.911972
 11
52.696808
 21
-100.309525
  0
LINE
  8
0
 62
     4
 10
52.921814
 20
-98.911972
 11
52.921814
 21
-100.084518
  0
LINE
  8
0
 62
     4
 10
50.421814
 20
-100.084526
 11
52.921814
 21
-100.084526
  0
LINE
  8
0
 62
     4
 10
50.421814
 20
-95.809525
 11
50.421814
 21
-96.309525
  0
LINE
  8
0
 62
     1
 10
50.646790
 20
-95.809525
 11
50.646790
 21
-96.309525
  0
LINE
  8
0
 62
     1
 10
52.696808
 20
-95.809525
 11
52.696808
 21
-96.309525
  0
LINE
  8
0
 62
     4
 10
52.921814
 20
-95.809525
 11
52.921814
 21
-96.309525
  0
LINE
  8
0
 62
     4
 10
50.421814
 20
-95.809525
 11
52.921814
 21
-95.809525
  0
LINE
  8
0
 62
     4
 10
50.371826
 20
-87.154800
 11
50.371826
 21
-89.409523
  0
LINE
  8
0
  6
CENTER
 62
     1
 10
93.385345
 20
-48.709511
 11
118.294525
 21
-48.709511
  0
LINE
  8
0
 62
     4
 10
94.714539
 20
-50.209511
 11
111.275146
 21
-50.209511
  0
LINE
  8
0
 62
     4
 10
94.714539
 20
-47.209511
 11
111.275146
 21
-47.209511
  0
LINE
  8
0
 62
     4
 10
94.714539
 20
-50.759506
 11
111.628510
 21
-50.759506
  0
LINE
  8
0
 62
     4
 10
94.714539
 20
-46.659508
 11
111.628510
 21
-46.659508
  0
LINE
  8
0
 62
     4
 10
94.714539
 20
-46.659500
 11
94.714539
 21
-50.759506
  0
LINE
  8
0
  6
CENTER
 62
     1
 10
96.714539
 20
-45.873001
 11
96.714539
 21
-51.462326
  0
LINE
  8
0
 62
     4
 10
111.800507
 20
-46.459511
 11
116.714539
 21
-46.459511
  0
LINE
  8
0
 62
     4
 10
111.800507
 20
-50.959511
 11
116.714539
 21
-50.959511
  0
LINE
  8
0
 62
     4
 10
116.714539
 20
-46.459503
 11
116.714539
 21
-50.959503
  0
LINE
  8
0
 62
     4
 10
96.068794
 20
-49.779846
 11
97.784897
 21
-48.063740
  0
LINE
  8
0
 62
     4
 10
95.644516
 20
-49.355518
 11
97.360611
 21
-47.639423
  0
LINE
  8
0
 10
-281.250000
 20
195.500000
 11
282.099976
 21
195.500000
  0
LINE
  8
0
 10
-281.250000
 20
195.500000
 11
-281.250000
 21
-195.000000
  0
LINE
  8
0
 10
282.099976
 20
195.500000
 11
282.099976
 21
-195.000000
  0
LINE
  8
0
 10
-281.250000
 20
-195.000000
 11
282.099976
 21
-195.000000
  0
LINE
  8
0
 10
162.099976
 20
-175.000000
 11
162.099976
 21
-195.000000
  0
LINE
  8
0
 10
162.099976
 20
-175.000000
 11
282.099976
 21
-175.000000
  0
LINE
  8
0
 10
162.099976
 20
175.500000
 11
282.099976
 21
175.500000
  0
LINE
  8
0
 10
-281.250000
 20
175.500000
 11
-161.250000
 21
175.500000
  0
LINE
  8
0
 10
162.099976
 20
195.500000
 11
162.099976
 21
175.500000
  0
LINE
  8
0
 10
-161.250000
 20
195.500000
 11
-161.250000
 21
175.500000
  0
LINE
  8
0
 10
-271.250000
 20
-133.000000
 11
-271.250000
 21
-185.000000
  0
LINE
  8
0
 10
-271.250000
 20
-185.000000
 11
-6.250000
 21
-185.000000
  0
LINE
  8
0
 10
-271.250000
 20
-155.000015
 11
-6.250000
 21
-155.000015
  0
LINE
  8
0
 10
-271.250000
 20
-133.000000
 11
-6.250000
 21
-133.000000
  0
LINE
  8
0
 10
-226.250000
 20
-133.000000
 11
-226.250000
 21
-185.000000
  0
LINE
  8
0
 10
-204.250000
 20
-133.000000
 11
-204.250000
 21
-185.000000
  0
LINE
  8
0
 10
-182.250000
 20
-133.000000
 11
-182.250000
 21
-185.000000
  0
LINE
  8
0
 10
-160.250000
 20
-133.000000
 11
-160.250000
 21
-185.000000
  0
LINE
  8
0
 10
-138.250000
 20
-133.000000
 11
-138.250000
 21
-185.000000
  0
LINE
  8
0
 10
-116.250000
 20
-133.000000
 11
-116.250000
 21
-185.000000
  0
LINE
  8
0
 10
-94.250000
 20
-133.000000
 11
-94.250000
 21
-185.000000
  0
LINE
  8
0
 10
-6.250000
 20
-133.000000
 11
-6.250000
 21
-185.000000
  0
LINE
  8
0
 10
-271.250000
 20
-175.000015
 11
-6.250000
 21
-175.000015
  0
LINE
  8
0
 10
-271.250031
 20
-165.000000
 11
-6.250000
 21
-165.000000
  0
LINE
  8
0
 10
-271.250000
 20
-141.000000
 11
-234.517441
 21
-141.000000
  0
LINE
  8
0
 10
-234.517502
 20
-141.000046
 11
-226.250092
 21
-155.000061
  0
LINE
  8
0
 10
-72.250000
 20
-133.000000
 11
-72.250000
 21
-185.000000
  0
LINE
  8
0
 10
-50.250000
 20
-133.000000
 11
-50.250000
 21
-185.000000
  0
LINE
  8
0
 10
-28.250000
 20
-133.000000
 11
-28.250000
 21
-185.000000
  0
LINE
  8
0
  6
CENTER
 62
     2
 10
126.500107
 20
125.309761
 11
126.500107
 21
53.085003
  0
LINE
  8
0
 10
114.000107
 20
120.285759
 11
114.000107
 21
115.800026
  0
LINE
  8
0
 10
139.000107
 20
120.285759
 11
139.000107
 21
115.800041
  0
LINE
  8
0
 10
114.714371
 20
121.000038
 11
124.900070
 21
121.000038
  0
LINE
  8
0
  6
CENTER
 62
     2
 10
112.214279
 20
104.000053
 11
141.285080
 21
104.000053
  0
LINE
  8
0
  6
CENTER
 62
     2
 10
110.793015
 20
90.000023
 11
142.964706
 21
90.000023
  0
LINE
  8
0
  6
CENTER
 62
     2
 10
112.214279
 20
76.000038
 11
141.543503
 21
76.000038
  0
LINE
  8
0
 10
114.000107
 20
92.600014
 11
114.000107
 21
59.714314
  0
LINE
  8
0
 10
139.000107
 20
92.600037
 11
139.000107
 21
59.714314
  0
LINE
  8
0
 10
128.100113
 20
121.000038
 11
138.285843
 21
121.000038
  0
LINE
  8
0
 10
114.714401
 20
59.000027
 11
138.285843
 21
59.000027
  0
LINE
  8
0
 10
114.714355
 20
121.000053
 11
114.000084
 21
120.285782
  0
LINE
  8
0
 10
138.285782
 20
121.000000
 11
139.000061
 21
120.285706
  0
LINE
  8
0
 10
114.000092
 20
59.714287
 11
114.714378
 21
59.000004
  0
LINE
  8
0
 10
139.000092
 20
59.714359
 11
138.285797
 21
59.000069
  0
LINE
  8
0
 10
138.000076
 20
92.100021
 11
136.400070
 21
92.100021
  0
LINE
  8
0
 10
138.500122
 20
92.599983
 11
138.000137
 21
92.099983
  0
LINE
  8
0
 10
138.499924
 20
95.799850
 11
137.999939
 21
96.299835
  0
LINE
  8
0
 10
138.000076
 20
96.300026
 11
136.400070
 21
96.300026
  0
LINE
  8
0
 10
139.000046
 20
95.800041
 11
138.500076
 21
95.800041
  0
LINE
  8
0
 10
139.000046
 20
92.600037
 11
138.500229
 21
92.600037
  0
LINE
  8
0
 10
128.600113
 20
119.983589
 11
128.600113
 21
118.383598
  0
LINE
  8
0
 10
128.099915
 20
120.483406
 11
128.599915
 21
119.983421
  0
LINE
  8
0
 10
124.400101
 20
119.983612
 11
124.400101
 21
118.383598
  0
LINE
  8
0
 10
124.400154
 20
119.983589
 11
124.900169
 21
120.483597
  0
LINE
  8
0
 10
124.900070
 20
121.000046
 11
124.900070
 21
120.483620
  0
LINE
  8
0
 10
128.100113
 20
121.000046
 11
128.100113
 21
120.483597
  0
LINE
  8
0
  6
CENTER
 62
     2
 10
110.425369
 20
94.200027
 11
142.964706
 21
94.200027
  0
LINE
  8
0
  6
CENTER
 62
     2
 10
110.793015
 20
114.200027
 11
142.964706
 21
114.200027
  0
LINE
  8
0
 10
138.000076
 20
112.100029
 11
136.400070
 21
112.100029
  0
LINE
  8
0
 10
139.000046
 20
112.600037
 11
138.500229
 21
112.600037
  0
LINE
  8
0
 10
138.500153
 20
112.599968
 11
138.000168
 21
112.099976
  0
LINE
  8
0
 10
138.499893
 20
115.799858
 11
137.999893
 21
116.299843
  0
LINE
  8
0
 10
137.999802
 20
116.300026
 11
136.400070
 21
116.300026
  0
LINE
  8
0
 10
139.000107
 20
115.800041
 11
138.500076
 21
115.800041
  0
LINE
  8
0
 10
139.000107
 20
112.600037
 11
139.000107
 21
95.800041
  0
LINE
  8
0
 10
114.000107
 20
112.600014
 11
114.000107
 21
95.800018
  0
LINE
  8
0
 10
115.000259
 20
112.100029
 11
116.570145
 21
112.100029
  0
LINE
  8
0
 10
114.000107
 20
112.600037
 11
114.500107
 21
112.600037
  0
LINE
  8
0
 10
114.000107
 20
115.800018
 11
114.499832
 21
115.800018
  0
LINE
  8
0
 10
114.500031
 20
112.600014
 11
115.000023
 21
112.100029
  0
LINE
  8
0
 10
115.000168
 20
112.100029
 11
116.600113
 21
112.100029
  0
LINE
  8
0
 10
115.000168
 20
116.300011
 11
116.600113
 21
116.300011
  0
LINE
  8
0
 10
114.499916
 20
115.800156
 11
114.999924
 21
116.300163
  0
LINE
  8
0
 10
115.000259
 20
92.100021
 11
116.570145
 21
92.100021
  0
LINE
  8
0
 10
114.000107
 20
92.600037
 11
114.500107
 21
92.600037
  0
LINE
  8
0
 10
114.000107
 20
95.800018
 11
114.499832
 21
95.800018
  0
LINE
  8
0
 10
114.500038
 20
92.600029
 11
115.000031
 21
92.100044
  0
LINE
  8
0
 10
115.000168
 20
92.100021
 11
116.600113
 21
92.100021
  0
LINE
  8
0
 10
115.000168
 20
96.300003
 11
116.600113
 21
96.300003
  0
LINE
  8
0
 10
114.499893
 20
95.800156
 11
114.999901
 21
96.300163
  0
ARC
  8
0
 10
-28.026243
 20
93.464050
 40
2.453748
 50
151.927612
 51
208.072388
  0
ARC
  8
0
 10
-21.098013
 20
89.999954
 40
9.381963
 50
165.749985
 51
194.249908
  0
ARC
  8
0
 10
-34.546234
 20
86.535858
 40
2.453748
 50
151.927612
 51
208.072388
  0
ARC
  8
0
 10
17.000010
 20
62.499977
 40
4.000001
 50
298.955170
 51
241.044861
  0
CIRCLE
  8
0
 10
-12.999998
 20
89.999977
 40
4.000000
  0
CIRCLE
  8
0
 10
27.000010
 20
89.999977
 40
4.000000
  0
ARC
  8
0
 10
17.000010
 20
117.499977
 40
3.999999
 50
118.954536
 51
61.045471
  0
ARC
  8
0
 10
-28.026243
 20
86.535858
 40
2.453748
 50
151.927612
 51
208.072388
  0
CIRCLE
  8
0
 10
17.000010
 20
117.499977
 40
2.250000
  0
CIRCLE
  8
0
 10
27.000010
 20
89.999977
 40
2.250000
  0
CIRCLE
  8
0
 10
17.000010
 20
62.499977
 40
2.250000
  0
CIRCLE
  8
0
 10
-12.999998
 20
89.999977
 40
2.250000
  0
CIRCLE
  8
0
 62
     2
 10
-52.999954
 20
111.999947
 40
2.000000
  0
CIRCLE
  8
0
 62
     2
 10
-52.999954
 20
67.999962
 40
2.000000
  0
ARC
  8
0
 10
-30.453741
 20
86.535858
 40
2.453746
 50
331.927582
 51
28.072393
  0
ARC
  8
0
 10
-30.453741
 20
93.464050
 40
2.453746
 50
331.927582
 51
28.072393
  0
ARC
  8
0
 10
-37.381947
 20
89.999954
 40
9.381962
 50
345.750000
 51
14.249960
  0
ARC
  8
0
 10
-34.546234
 20
93.464050
 40
2.453748
 50
151.927612
 51
208.072388
  0
ARC
  8
0
 10
-27.618025
 20
89.999954
 40
9.381962
 50
165.749985
 51
194.249908
  0
CIRCLE
  8
0
 10
-52.999954
 20
111.999947
 40
1.650000
  0
CIRCLE
  8
0
 10
-52.999954
 20
67.999962
 40
1.650000
  0
CIRCLE
  8
0
 10
-135.500031
 20
76.000031
 40
4.500000
  0
CIRCLE
  8
0
 10
-135.500031
 20
76.000031
 40
5.000000
  0
CIRCLE
  8
0
 10
-135.500031
 20
104.000046
 40
4.500000
  0
CIRCLE
  8
0
 10
-135.500031
 20
104.000046
 40
5.500000
  0
CIRCLE
  8
0
 10
-135.500031
 20
76.000031
 40
5.500000
  0
CIRCLE
  8
0
 62
     2
 10
-135.500031
 20
117.500015
 40
2.000000
  0
CIRCLE
  8
0
 62
     2
 10
-135.500031
 20
62.500015
 40
2.000000
  0
CIRCLE
  8
0
 10
-135.500031
 20
104.000046
 40
5.000000
  0
CIRCLE
  8
0
 10
-135.500031
 20
117.500015
 40
1.650000
  0
CIRCLE
  8
0
 10
-135.500031
 20
62.500015
 40
1.650000
  0
ARC
  8
0
 10
-23.407457
 20
6.000027
 40
7.072560
 50
163.573639
 51
196.426300
  0
ARC
  8
0
 10
-23.407457
 20
10.000011
 40
7.072560
 50
188.128403
 51
196.426361
  0
CIRCLE
  8
0
 62
     2
 10
6.999983
 20
14.000011
 40
2.500000
  0
CIRCLE
  8
0
 62
     2
 10
37.999962
 20
14.000011
 40
2.500000
  0
ARC
  8
0
 10
-35.072559
 20
6.000027
 40
7.072560
 50
343.573639
 51
16.426319
  0
ARC
  8
0
 10
-35.072559
 20
10.000011
 40
7.072560
 50
343.573639
 51
351.871613
  0
ARC
  8
0
 10
-29.927446
 20
10.000011
 40
7.072558
 50
188.128403
 51
196.426376
  0
ARC
  8
0
 10
-29.927446
 20
6.000027
 40
7.072558
 50
163.573624
 51
196.426300
  0
CIRCLE
  8
0
 10
6.999983
 20
14.000011
 40
2.100000
  0
CIRCLE
  8
0
 10
37.999962
 20
14.000011
 40
2.100000
  0
ARC
  8
0
 62
     4
 10
-107.639130
 20
-98.859520
 40
2.050003
 50
180.000000
 51
270.000000
  0
ARC
  8
0
 62
     4
 10
-107.639130
 20
-98.859520
 40
2.050003
 50
270.000000
 51
0.000000
  0
CIRCLE
  8
0
 62
     4
 10
-61.096390
 20
-53.759521
 40
1.250000
  0
CIRCLE
  8
0
 62
     4
 10
-61.096390
 20
-53.759521
 40
1.400000
  0
ARC
  8
0
 62
     4
 10
51.671814
 20
-98.859520
 40
2.049999
 50
180.000000
 51
270.000000
  0
ARC
  8
0
 62
     4
 10
51.671814
 20
-98.859520
 40
2.050003
 50
271.259888
 51
0.000000
  0
CIRCLE
  8
0
 62
     4
 10
114.443695
 20
-49.050514
 40
0.250000
  0
CIRCLE
  8
0
 62
     4
 10
113.831818
 20
-48.391357
 40
0.450000
  0
CIRCLE
  8
0
 62
     4
 10
113.831818
 20
-48.391357
 40
0.250000
  0
ARC
  8
0
 62
     4
 10
114.214539
 20
-48.709511
 40
3.300002
 50
137.014145
 51
222.985855
  0
CIRCLE
  8
0
 62
     4
 10
96.714539
 20
-48.709511
 40
1.250000
  0
CIRCLE
  8
0
 62
     4
 10
96.714539
 20
-48.709511
 40
1.400000
  0
CIRCLE
  8
0
 62
     4
 10
114.121887
 20
-48.709511
 40
1.300000
  0
CIRCLE
  8
0
 62
     4
 10
114.443695
 20
-49.050514
 40
0.450000
  0
CIRCLE
  8
0
 10
126.500107
 20
104.000053
 40
11.500001
  0
CIRCLE
  8
0
 10
126.500107
 20
76.000038
 40
11.500001
  0
ARC
  8
0
 10
136.400101
 20
94.200027
 40
2.099998
 50
90.000000
 51
270.000000
  0
ARC
  8
0
 10
126.500107
 20
118.383598
 40
2.099998
 50
180.000000
 51
0.000000
  0
ARC
  8
0
 10
136.400101
 20
114.200027
 40
2.099998
 50
90.000000
 51
270.000000
  0
ARC
  8
0
 10
116.600113
 20
114.200005
 40
2.099998
 50
270.000000
 51
90.000000
  0
ARC
  8
0
 10
116.600113
 20
94.200005
 40
2.099998
 50
270.000000
 51
90.000000
  0
TEXT
  8
0
 10
196.250259
 20
180.830002
 40
6.300000
  1
Ver. 1.0
 50
0.000000
 41
1.052632
 51
0.000000
  7
STANDARD
  0
TEXT
  8
0
 10
167.564667
 20
-192.100006
 40
9.000000
  1
KOGANEI CORP.
 50
0.000000
 41
1.052632
 51
0.000000
  7
STANDARD
  0
TEXT
  8
0
 10
-275.449738
 20
180.830002
 40
6.300000
  1
TWIN ROD CYLINDER
 50
0.000000
 41
1.052632
 51
0.000000
  7
STANDARD
  0
TEXT
  8
0
 10
-258.127045
 20
-154.550003
 40
4.500000
  1
PLACE
 50
0.000000
 41
1.052632
 51
0.000000
  7
STANDARD
  0
TEXT
  8
0
 10
-220.142654
 20
-147.050003
 40
4.500000
  1
10
 50
0.000000
 41
1.052632
 51
0.000000
  7
STANDARD
  0
TEXT
  8
0
 10
-166.142654
 20
-131.050003
 40
4.500000
  1
STRETCH LIST
 50
0.000000
 41
1.052632
 51
0.000000
  7
STANDARD
  0
TEXT
  8
0
 10
-270.049713
 20
155.830002
 40
6.300000
  1
MODEL:TBDAM20*ST(10)
 50
0.000000
 41
1.052632
 51
0.000000
  7
STANDARD
  0
TEXT
  8
0
 10
-26.642656
 20
-132.050003
 40
4.500000
  1
(mm)
 50
0.000000
 41
1.052632
 51
0.000000
  7
STANDARD
  0
TEXT
  8
0
 10
-267.127045
 20
-140.050003
 40
4.500000
  1
STROKE
 50
0.000000
 41
1.052632
 51
0.000000
  7
STANDARD
  0
TEXT
  8
0
 10
-267.127045
 20
-148.550003
 40
4.500000
  1
STRETCH
 50
0.000000
 41
1.052632
 51
0.000000
  7
STANDARD
  0
TEXT
  8
0
 10
-251.585724
 20
-163.320007
 40
4.800000
  1
A
 50
0.000000
 41
1.052632
 51
0.000000
  7
STANDARD
  0
TEXT
  8
0
 10
-251.585724
 20
-173.320007
 40
4.800000
  1
B
 50
0.000000
 41
1.052632
 51
0.000000
  7
STANDARD
  0
TEXT
  8
0
 10
-251.585724
 20
-183.320007
 40
4.800000
  1
C
 50
0.000000
 41
1.052632
 51
0.000000
  7
STANDARD
  0
TEXT
  8
0
 10
-198.142853
 20
-147.050003
 40
4.500000
  1
20
 50
0.000000
 41
1.052632
 51
0.000000
  7
STANDARD
  0
TEXT
  8
0
 10
-176.142853
 20
-147.050003
 40
4.500000
  1
30
 50
0.000000
 41
1.052632
 51
0.000000
  7
STANDARD
  0
TEXT
  8
0
 10
-154.142853
 20
-147.050003
 40
4.500000
  1
40
 50
0.000000
 41
1.052632
 51
0.000000
  7
STANDARD
  0
TEXT
  8
0
 10
-132.142853
 20
-147.050003
 40
4.500000
  1
50
 50
0.000000
 41
1.052632
 51
0.000000
  7
STANDARD
  0
TEXT
  8
0
 10
-110.142853
 20
-147.050003
 40
4.500000
  1
60
 50
0.000000
 41
1.052632
 51
0.000000
  7
STANDARD
  0
TEXT
  8
0
 10
-24.392857
 20
-147.050003
 40
4.500000
  1
100
 50
0.000000
 41
1.052632
 51
0.000000
  7
STANDARD
  0
TEXT
  8
0
 10
-22.142857
 20
-183.049973
 40
4.500000
  1
90
 50
0.000000
 41
1.052632
 51
0.000000
  7
STANDARD
  0
TEXT
  8
0
 10
-217.892853
 20
-163.050003
 40
4.500000
  1
0
 50
0.000000
 41
1.052632
 51
0.000000
  7
STANDARD
  0
TEXT
  8
0
 10
-217.892853
 20
-173.049988
 40
4.500000
  1
0
 50
0.000000
 41
1.052632
 51
0.000000
  7
STANDARD
  0
TEXT
  8
0
 10
-217.892853
 20
-183.049973
 40
4.500000
  1
0
 50
0.000000
 41
1.052632
 51
0.000000
  7
STANDARD
  0
TEXT
  8
0
 10
-198.142853
 20
-183.049973
 40
4.500000
  1
10
 50
0.000000
 41
1.052632
 51
0.000000
  7
STANDARD
  0
TEXT
  8
0
 10
-176.142853
 20
-183.049973
 40
4.500000
  1
20
 50
0.000000
 41
1.052632
 51
0.000000
  7
STANDARD
  0
TEXT
  8
0
 10
-154.142853
 20
-183.049973
 40
4.500000
  1
30
 50
0.000000
 41
1.052632
 51
0.000000
  7
STANDARD
  0
TEXT
  8
0
 10
-132.142853
 20
-183.049973
 40
4.500000
  1
40
 50
0.000000
 41
1.052632
 51
0.000000
  7
STANDARD
  0
TEXT
  8
0
 10
-110.142853
 20
-183.049973
 40
4.500000
  1
50
 50
0.000000
 41
1.052632
 51
0.000000
  7
STANDARD
  0
TEXT
  8
0
 62
     3
 10
-51.862728
 20
151.253006
 40
4.500000
  1
STRETCH LINE C
 50
0.000000
 41
1.052632
 51
0.000000
  7
STANDARD
  0
TEXT
  8
0
 62
     3
 10
-13.362728
 20
141.253006
 40
4.500000
  1
STRETCH LINE A
 50
0.000000
 41
1.052632
 51
0.000000
  7
STANDARD
  0
TEXT
  8
0
 62
     3
 10
9.637272
 20
131.253006
 40
4.500000
  1
STRETCH LINE B
 50
0.000000
 41
1.052632
 51
0.000000
  7
STANDARD
  0
TEXT
  8
0
 10
-88.142853
 20
-183.049973
 40
4.500000
  1
60
 50
0.000000
 41
1.052632
 51
0.000000
  7
STANDARD
  0
TEXT
  8
0
 10
-88.142853
 20
-147.050003
 40
4.500000
  1
70
 50
0.000000
 41
1.052632
 51
0.000000
  7
STANDARD
  0
TEXT
  8
0
 10
-66.142853
 20
-183.049973
 40
4.500000
  1
70
 50
0.000000
 41
1.052632
 51
0.000000
  7
STANDARD
  0
TEXT
  8
0
 10
-66.142853
 20
-147.050003
 40
4.500000
  1
80
 50
0.000000
 41
1.052632
 51
0.000000
  7
STANDARD
  0
TEXT
  8
0
 10
-44.142857
 20
-183.049973
 40
4.500000
  1
80
 50
0.000000
 41
1.052632
 51
0.000000
  7
STANDARD
  0
TEXT
  8
0
 10
-44.142857
 20
-147.050003
 40
4.500000
  1
90
 50
0.000000
 41
1.052632
 51
0.000000
  7
STANDARD
  0
TEXT
  8
0
 10
-195.892853
 20
-163.050003
 40
4.500000
  1
0
 50
0.000000
 41
1.052632
 51
0.000000
  7
STANDARD
  0
TEXT
  8
0
 10
-198.142853
 20
-173.049988
 40
4.500000
  1
10
 50
0.000000
 41
1.052632
 51
0.000000
  7
STANDARD
  0
TEXT
  8
0
 10
-173.892853
 20
-163.050003
 40
4.500000
  1
0
 50
0.000000
 41
1.052632
 51
0.000000
  7
STANDARD
  0
TEXT
  8
0
 10
-176.142853
 20
-173.049988
 40
4.500000
  1
20
 50
0.000000
 41
1.052632
 51
0.000000
  7
STANDARD
  0
TEXT
  8
0
 10
-151.892853
 20
-163.050003
 40
4.500000
  1
5
 50
0.000000
 41
1.052632
 51
0.000000
  7
STANDARD
  0
TEXT
  8
0
 10
-154.142853
 20
-173.049988
 40
4.500000
  1
25
 50
0.000000
 41
1.052632
 51
0.000000
  7
STANDARD
  0
TEXT
  8
0
 10
-132.142853
 20
-163.050003
 40
4.500000
  1
10
 50
0.000000
 41
1.052632
 51
0.000000
  7
STANDARD
  0
TEXT
  8
0
 10
-132.142853
 20
-173.049988
 40
4.500000
  1
30
 50
0.000000
 41
1.052632
 51
0.000000
  7
STANDARD
  0
TEXT
  8
0
 10
-110.142853
 20
-163.050003
 40
4.500000
  1
15
 50
0.000000
 41
1.052632
 51
0.000000
  7
STANDARD
  0
TEXT
  8
0
 10
-88.142853
 20
-163.050003
 40
4.500000
  1
20
 50
0.000000
 41
1.052632
 51
0.000000
  7
STANDARD
  0
TEXT
  8
0
 10
-66.142853
 20
-163.050003
 40
4.500000
  1
25
 50
0.000000
 41
1.052632
 51
0.000000
  7
STANDARD
  0
TEXT
  8
0
 10
-44.142857
 20
-163.050003
 40
4.500000
  1
30
 50
0.000000
 41
1.052632
 51
0.000000
  7
STANDARD
  0
TEXT
  8
0
 10
-22.142857
 20
-163.050003
 40
4.500000
  1
35
 50
0.000000
 41
1.052632
 51
0.000000
  7
STANDARD
  0
TEXT
  8
0
 10
-110.142853
 20
-173.049988
 40
4.500000
  1
35
 50
0.000000
 41
1.052632
 51
0.000000
  7
STANDARD
  0
TEXT
  8
0
 10
-88.142853
 20
-173.049988
 40
4.500000
  1
40
 50
0.000000
 41
1.052632
 51
0.000000
  7
STANDARD
  0
TEXT
  8
0
 10
-66.142853
 20
-173.049988
 40
4.500000
  1
45
 50
0.000000
 41
1.052632
 51
0.000000
  7
STANDARD
  0
TEXT
  8
0
 10
-44.142857
 20
-173.049988
 40
4.500000
  1
50
 50
0.000000
 41
1.052632
 51
0.000000
  7
STANDARD
  0
TEXT
  8
0
 10
-22.142857
 20
-173.049988
 40
4.500000
  1
55
 50
0.000000
 41
1.052632
 51
0.000000
  7
STANDARD
  0
ENDSEC
  0
EOF
