  0
SECTION
  2
HEADER
  0
ENDSEC
  0
SECTION
  2
TABLES
  0
TABLE
  2
LTYPE
 70
     4
  0
LTYPE
  2
CONTINUOUS
 70
    64
  3
Solid line
 72
    65
 73
     0
 40
0.000000
  0
LTYPE
  2
DASHED
 70
    64
  3
__ __ __ __ __ __ __ __ __ __ __ __ __ __ __
 72
    65
 73
     2
 40
3.500000
 49
2.000000
 49
-1.500000
  0
LTYPE
  2
CENTER
 70
    64
  3
____ _ ____ _ ____ _ ____ _ ____ _ ____ _ ____
 72
    65
 73
     4
 40
17.500000
 49
13.000000
 49
-1.500000
 49
1.500000
 49
-1.500000
  0
LTYPE
  2
PHANTOM
 70
    64
  3
_____ _ _ _____ _ _ _____ _ _ _____ _ _ ____  
 72
    65
 73
     6
 40
15.500000
 49
8.000000
 49
-1.500000
 49
1.500000
 49
-1.500000
 49
1.500000
 49
-1.500000
  0
LTYPE
  2
DASHED1
 70
    64
  3
__ __ __ __ __ __ __ __ __ __ __ __ __ __ __
 72
    65
 73
     2
 40
1.500000
 49
1.000000
 49
-0.500000
  0
LTYPE
  2
DASHED2
 70
    64
  3
__ __ __ __ __ __ __ __ __ __ __ __ __ __ __
 72
    65
 73
     2
 40
3.500000
 49
2.500000
 49
-1.000000
  0
LTYPE
  2
DASHED3
 70
    64
  3
__ __ __ __ __ __ __ __ __ __ __ __ __ __ __
 72
    65
 73
     2
 40
6.000000
 49
4.000000
 49
-2.000000
  0
LTYPE
  2
DASHED4
 70
    64
  3
__ __ __ __ __ __ __ __ __ __ __ __ __ __ __
 72
    65
 73
     2
 40
12.000000
 49
10.000000
 49
-2.000000
  0
LTYPE
  2
DASHED5
 70
    64
  3
__ __ __ __ __ __ __ __ __ __ __ __ __ __ __
 72
    65
 73
     2
 40
17.000000
 49
15.000000
 49
-2.000000
  0
LTYPE
  2
DASHED6
 70
    64
  3
__ __ __ __ __ __ __ __ __ __ __ __ __ __ __
 72
    65
 73
     2
 40
29.000000
 49
27.000000
 49
-2.000000
  0
LTYPE
  2
PHANTOM1
 70
    64
  3
_____ _ _ _____ _ _ _____ _ _ _____ _ _ ____  
 72
    65
 73
     6
 40
31.000000
 49
25.000000
 49
-1.500000
 49
1.000000
 49
-1.000000
 49
1.000000
 49
-1.500000
  0
LTYPE
  2
PHANTOM2
 70
    64
  3
_____ _ _ _____ _ _ _____ _ _ _____ _ _ ____  
 72
    65
 73
     6
 40
36.000000
 49
27.000000
 49
-1.500000
 49
2.500000
 49
-1.000000
 49
2.500000
 49
-1.500000
  0
LTYPE
  2
PHANTOM3
 70
    64
  3
_____ _ _ _____ _ _ _____ _ _ _____ _ _ ____  
 72
    65
 73
     6
 40
78.000000
 49
64.000000
 49
-2.000000
 49
4.000000
 49
-2.000000
 49
4.000000
 49
-2.000000
  0
LTYPE
  2
CENTER1
 70
    64
  3
____ _ ____ _ ____ _ ____ _ ____ _ ____ _ ____
 72
    65
 73
     4
 40
19.000000
 49
14.000000
 49
-1.000000
 49
3.000000
 49
-1.000000
  0
LTYPE
  2
CENTER2
 70
    64
  3
____ _ ____ _ ____ _ ____ _ ____ _ ____ _ ____
 72
    65
 73
     4
 40
28.500000
 49
25.000000
 49
-1.000000
 49
1.500000
 49
-1.000000
  0
LTYPE
  2
CENTER3
 70
    64
  3
____ _ ____ _ ____ _ ____ _ ____ _ ____ _ ____
 72
    65
 73
     4
 40
31.500000
 49
27.000000
 49
-1.000000
 49
2.500000
 49
-1.000000
  0
LTYPE
  2
CENTER4
 70
    64
  3
____ _ ____ _ ____ _ ____ _ ____ _ ____ _ ____
 72
    65
 73
     4
 40
50.000000
 49
45.000000
 49
-1.000000
 49
3.000000
 49
-1.000000
  0
LTYPE
  2
CENTER5
 70
    64
  3
____ _ ____ _ ____ _ ____ _ ____ _ ____ _ ____
 72
    65
 73
     4
 40
100.000000
 49
92.000000
 49
-2.000000
 49
4.000000
 49
-2.000000
  0
LTYPE
  2
SBK1
 70
    64
  3
______ _ _ _ ______ _ _ _ ______ _ _ _ _____  
 72
    65
 73
     8
 40
60.500000
 49
45.000000
 49
-2.000000
 49
2.500000
 49
-2.000000
 49
2.500000
 49
-2.000000
 49
2.500000
 49
-2.000000
  0
LTYPE
  2
SBK2
 70
    64
  3
______ _ _ _ ______ _ _ _ ______ _ _ _ _____  
 72
    65
 73
     8
 40
84.000000
 49
64.000000
 49
-2.000000
 49
4.000000
 49
-2.000000
 49
4.000000
 49
-2.000000
 49
4.000000
 49
-2.000000
  0
LTYPE
  2
STCH
 70
    64
  3
__ __ __ __ __ __ __ __ __ __ __ __ __ __ __
 72
    65
 73
     2
 40
3.000000
 49
1.000000
 49
-2.000000
  0
LTYPE
  2
MTCH
 70
    64
  3
_____ _ _ _____ _ _ _____ _ _ _____ _ _ ____  
 72
    65
 73
     6
 40
80.000000
 49
66.000000
 49
-2.000000
 49
4.000000
 49
-2.000000
 49
4.000000
 49
-2.000000
  0
ENDTAB
  0
TABLE
  2
LAYER
 70
     1
  0
LAYER
  2
0
 70
     0
 62
     7
  6
CONTINUOUS
  0
ENDTAB
  0
TABLE
  2
STYLE
 70
     1
  0
STYLE
  2
STANDARD
 70
     0
 40
0.000000
 41
1.000000
 50
0.000000
 71
     0
 42
0.200000
  3
txt
  4
BIGFONT
  0
ENDTAB
  0
TABLE
  2
VIEW
 70
     0
  0
ENDTAB
  0
ENDSEC
  0
SECTION
  2
BLOCKS
  0
ENDSEC
  0
SECTION
  2
ENTITIES
  0
LINE
  8
0
 10
-194.250000
 20
132.600006
 11
194.800003
 21
132.600006
  0
LINE
  8
0
 10
194.800003
 20
132.600006
 11
194.800003
 21
-133.500000
  0
LINE
  8
0
 10
-194.250000
 20
132.600006
 11
-194.250000
 21
-133.500000
  0
LINE
  8
0
 10
-194.250000
 20
-133.500000
 11
194.800003
 21
-133.500000
  0
LINE
  8
0
 10
109.800003
 20
-118.500000
 11
109.800003
 21
-133.500000
  0
LINE
  8
0
 10
109.800003
 20
-118.500000
 11
194.800003
 21
-118.500000
  0
LINE
  8
0
 10
109.800003
 20
132.600006
 11
109.800003
 21
117.600006
  0
LINE
  8
0
 10
109.800003
 20
117.600006
 11
194.800003
 21
117.600006
  0
LINE
  8
0
 10
-194.250000
 20
117.600006
 11
-109.250000
 21
117.600006
  0
LINE
  8
0
 10
-109.250000
 20
132.600006
 11
-109.250000
 21
117.600006
  0
LINE
  8
0
  6
DASHED
 62
     4
 10
-78.096405
 20
-61.709522
 11
-56.096405
 21
-61.709522
  0
LINE
  8
0
  6
DASHED
 62
     4
 10
-78.096405
 20
-65.809525
 11
-56.096405
 21
-65.809525
  0
LINE
  8
0
  6
DASHED
 62
     4
 10
-78.096405
 20
-61.709522
 11
-78.096405
 21
-62.159523
  0
LINE
  8
0
  6
DASHED
 62
     4
 10
-56.096405
 20
-61.709522
 11
-56.096405
 21
-62.159523
  0
LINE
  8
0
  6
DASHED
 62
     4
 10
-78.096405
 20
-65.359520
 11
-78.096405
 21
-65.809525
  0
LINE
  8
0
  6
DASHED
 62
     4
 10
-56.096405
 20
-65.359520
 11
-56.096405
 21
-65.809525
  0
LINE
  8
0
  6
DASHED
 62
     4
 10
59.714737
 20
-60.759510
 11
76.628716
 21
-60.759510
  0
LINE
  8
0
  6
DASHED
 62
     4
 10
59.714737
 20
-56.659512
 11
76.628716
 21
-56.659512
  0
LINE
  8
0
  6
DASHED
 62
     4
 10
59.714737
 20
-57.109512
 11
59.714737
 21
-56.659512
  0
LINE
  8
0
  6
DASHED
 62
     4
 10
59.714737
 20
-60.309509
 11
59.714737
 21
-60.759510
  0
LINE
  8
0
  6
DASHED
 62
     4
 10
-78.096405
 20
-106.309525
 11
-56.096405
 21
-106.309525
  0
LINE
  8
0
  6
DASHED
 62
     4
 10
-73.396393
 20
-110.909523
 11
-56.096405
 21
-110.909523
  0
LINE
  8
0
  6
DASHED
 62
     4
 10
-56.096405
 20
-106.309525
 11
-56.096405
 21
-110.909523
  0
LINE
  8
0
  6
DASHED
 62
     4
 10
-78.096405
 20
-108.109520
 11
-78.096405
 21
-106.309525
  0
LINE
  8
0
  6
DASHED
 62
     4
 10
-73.396393
 20
-109.351486
 11
-73.396393
 21
-110.909523
  0
LINE
  8
0
  6
DASHED
 62
     4
 10
-78.096405
 20
-108.109520
 11
-73.846390
 21
-108.109520
  0
LINE
  8
0
  6
DASHED
 62
     4
 10
-73.846390
 20
-108.109520
 11
-73.846390
 21
-109.351486
  0
LINE
  8
0
  6
DASHED
 62
     4
 10
-74.096390
 20
-108.109520
 11
-74.096390
 21
-108.909523
  0
LINE
  8
0
  6
DASHED
 62
     4
 10
-78.096405
 20
-108.109520
 11
-78.096405
 21
-108.909523
  0
LINE
  8
0
  6
DASHED
 62
     4
 10
-78.096405
 20
-108.909523
 11
-74.096390
 21
-108.909523
  0
LINE
  8
0
  6
DASHED
 62
     4
 10
-73.896393
 20
-108.109520
 11
-73.896393
 21
-110.109520
  0
LINE
  8
0
  6
DASHED
 62
     4
 10
-73.896393
 20
-110.109520
 11
-73.396393
 21
-110.109520
  0
LINE
  8
0
  6
DASHED
 62
     4
 10
-73.846390
 20
-109.351486
 11
-73.396393
 21
-109.351486
  0
LINE
  8
0
  6
DASHED
 62
     4
 10
-47.596375
 20
-107.309509
 11
-47.596375
 21
-109.909515
  0
LINE
  8
0
  6
CENTER
 62
     1
 10
-49.319275
 20
-108.159439
 11
-37.387207
 21
-108.159439
  0
LINE
  8
0
  6
CENTER
 62
     1
 10
-49.268982
 20
-109.059433
 11
-37.345337
 21
-109.059433
  0
LINE
  8
0
  6
DASHED
 62
     4
 10
-37.596375
 20
-107.909454
 11
-37.596375
 21
-108.409454
  0
LINE
  8
0
  6
DASHED
 62
     4
 10
-37.596375
 20
-108.809448
 11
-37.596375
 21
-109.309448
  0
LINE
  8
0
  6
DASHED
 62
     4
 10
-40.596375
 20
-107.709442
 11
-40.596375
 21
-109.509460
  0
LINE
  8
0
  6
DASHED
 62
     4
 10
-47.596375
 20
-109.509445
 11
-43.590820
 21
-109.509445
  0
LINE
  8
0
  6
DASHED
 62
     4
 10
-47.596375
 20
-108.609421
 11
-44.110413
 21
-108.609421
  0
LINE
  8
0
  6
DASHED
 62
     4
 10
-42.610413
 20
-108.609421
 11
-40.596375
 21
-108.609421
  0
LINE
  8
0
  6
DASHED
 62
     4
 10
-42.090820
 20
-109.509445
 11
-40.596375
 21
-109.509445
  0
LINE
  8
0
  6
DASHED
 62
     4
 10
-47.596375
 20
-107.709427
 11
-44.630066
 21
-107.709427
  0
LINE
  8
0
  6
DASHED
 62
     4
 10
-43.130066
 20
-107.709427
 11
-40.596375
 21
-107.709427
  0
LINE
  8
0
  6
DASHED
 62
     4
 10
-40.596375
 20
-107.909439
 11
-37.596375
 21
-107.909439
  0
LINE
  8
0
  6
DASHED
 62
     4
 10
-40.596375
 20
-108.409439
 11
-37.596375
 21
-108.409439
  0
LINE
  8
0
  6
DASHED
 62
     4
 10
-40.596375
 20
-108.809433
 11
-37.596375
 21
-108.809433
  0
LINE
  8
0
  6
DASHED
 62
     4
 10
-40.596375
 20
-109.309433
 11
-37.596375
 21
-109.309433
  0
LINE
  8
0
 62
     1
 10
-43.860416
 20
-106.444534
 11
-41.360416
 21
-110.774658
  0
LINE
  8
0
  6
CENTER
 62
     1
 10
-57.410767
 20
-108.609512
 11
-47.596375
 21
-108.609512
  0
LINE
  8
0
 62
     1
 10
-45.360489
 20
-106.444504
 11
-42.860489
 21
-110.774635
  0
LINE
  8
0
 62
     1
 10
-52.841167
 20
-106.444489
 11
-50.341167
 21
-110.774612
  0
LINE
  8
0
 62
     1
 10
-54.341129
 20
-106.444565
 11
-51.841137
 21
-110.774673
  0
LINE
  8
0
  6
DASHED
 62
     4
 10
-77.121399
 20
-110.309525
 11
-75.071396
 21
-110.309525
  0
LINE
  8
0
  6
DASHED
 62
     4
 10
-75.070984
 20
-110.309982
 11
-74.845993
 21
-110.084984
  0
LINE
  8
0
  6
DASHED
 62
     4
 10
-77.121307
 20
-110.309502
 11
-77.346306
 21
-110.084503
  0
LINE
  8
0
  6
DASHED
 62
     4
 10
-77.346390
 20
-108.908707
 11
-77.346390
 21
-110.084526
  0
LINE
  8
0
 62
     1
 10
-77.121399
 20
-108.908707
 11
-77.121399
 21
-110.309525
  0
LINE
  8
0
 62
     1
 10
-75.071396
 20
-108.908707
 11
-75.071396
 21
-110.309525
  0
LINE
  8
0
  6
DASHED
 62
     4
 10
-74.846390
 20
-108.908707
 11
-74.846390
 21
-110.084518
  0
LINE
  8
0
  6
DASHED
 62
     4
 10
-77.346390
 20
-110.084526
 11
-74.846390
 21
-110.084526
  0
LINE
  8
0
  6
DASHED
 62
     4
 10
-78.096405
 20
-107.309525
 11
-56.096405
 21
-107.309525
  0
LINE
  8
0
  6
DASHED
 62
     4
 10
-78.096405
 20
-106.759506
 11
-56.096405
 21
-106.759506
  0
LINE
  8
0
  6
DASHED
 62
     4
 10
-56.096405
 20
-107.309509
 11
-53.841705
 21
-107.309509
  0
LINE
  8
0
  6
DASHED
 62
     4
 10
-56.096405
 20
-109.909515
 11
-52.340607
 21
-109.909515
  0
LINE
  8
0
  6
DASHED
 62
     4
 10
-52.341675
 20
-107.309509
 11
-47.596375
 21
-107.309509
  0
LINE
  8
0
  6
DASHED
 62
     4
 10
-50.840576
 20
-109.909515
 11
-47.596375
 21
-109.909515
  0
LINE
  8
0
  6
DASHED
 62
     4
 10
59.714737
 20
-106.309525
 11
75.814743
 21
-106.309525
  0
LINE
  8
0
  6
DASHED
 62
     4
 10
64.414719
 20
-110.909523
 11
81.714737
 21
-110.909523
  0
LINE
  8
0
  6
DASHED
 62
     4
 10
59.714737
 20
-108.909523
 11
59.714737
 21
-106.309525
  0
LINE
  8
0
  6
DASHED
 62
     4
 10
64.414719
 20
-109.291679
 11
64.414719
 21
-110.909523
  0
LINE
  8
0
  6
CENTER
 62
     1
 10
61.714737
 20
-105.579269
 11
61.714737
 21
-111.482193
  0
LINE
  8
0
  6
DASHED
 62
     4
 10
59.714737
 20
-108.109528
 11
63.988541
 21
-108.109528
  0
LINE
  8
0
  6
DASHED
 62
     4
 10
59.714737
 20
-108.909523
 11
63.714737
 21
-108.909523
  0
LINE
  8
0
  6
DASHED
 62
     4
 10
63.714737
 20
-108.109520
 11
63.714737
 21
-108.909523
  0
LINE
  8
0
  6
DASHED
 62
     4
 10
63.914719
 20
-110.109528
 11
64.414719
 21
-110.109528
  0
LINE
  8
0
  6
DASHED
 62
     4
 10
63.914719
 20
-108.109528
 11
63.914719
 21
-110.109528
  0
LINE
  8
0
  6
DASHED
 62
     4
 10
63.988541
 20
-109.291679
 11
64.414719
 21
-109.291679
  0
LINE
  8
0
  6
DASHED
 62
     4
 10
63.988541
 20
-108.109528
 11
63.988541
 21
-109.291679
  0
LINE
  8
0
  6
DASHED
 62
     4
 10
59.714737
 20
-107.309525
 11
81.714737
 21
-107.309525
  0
LINE
  8
0
  6
DASHED
 62
     4
 10
59.714737
 20
-106.759521
 11
81.714737
 21
-106.759521
  0
LINE
  8
0
  6
DASHED
 62
     4
 10
60.689713
 20
-110.309525
 11
62.739731
 21
-110.309525
  0
LINE
  8
0
  6
DASHED
 62
     4
 10
62.740311
 20
-110.310066
 11
62.965302
 21
-110.085068
  0
LINE
  8
0
  6
DASHED
 62
     4
 10
60.689812
 20
-110.309402
 11
60.464825
 21
-110.084419
  0
LINE
  8
0
  6
DASHED
 62
     4
 10
60.464737
 20
-108.909523
 11
60.464737
 21
-110.084526
  0
LINE
  8
0
 62
     1
 10
60.689713
 20
-108.909523
 11
60.689713
 21
-110.309525
  0
LINE
  8
0
 62
     1
 10
62.739731
 20
-108.909523
 11
62.739731
 21
-110.309525
  0
LINE
  8
0
  6
DASHED
 62
     4
 10
62.964737
 20
-108.909523
 11
62.964737
 21
-110.084518
  0
LINE
  8
0
  6
DASHED
 62
     4
 10
60.464737
 20
-110.084526
 11
62.964737
 21
-110.084526
  0
LINE
  8
0
 62
     1
 10
60.689713
 20
-105.809525
 11
60.689713
 21
-106.309525
  0
LINE
  8
0
 62
     1
 10
62.739731
 20
-105.809525
 11
62.739731
 21
-106.309525
  0
LINE
  8
0
  6
DASHED
 62
     4
 10
81.714737
 20
-106.309525
 11
81.714737
 21
-110.909523
  0
LINE
  8
0
 10
116.975525
 20
11.443623
 11
116.975525
 21
-24.556381
  0
LINE
  8
0
 10
128.975525
 20
11.443623
 11
128.975525
 21
-24.556381
  0
LINE
  8
0
 10
140.975525
 20
11.443623
 11
140.975525
 21
-24.556381
  0
LINE
  8
0
 10
152.975525
 20
11.443623
 11
152.975525
 21
-24.556381
  0
LINE
  8
0
 10
164.975525
 20
11.443623
 11
164.975525
 21
-24.556381
  0
LINE
  8
0
 10
176.975525
 20
11.443623
 11
176.975525
 21
-24.556381
  0
LINE
  8
0
 10
188.975525
 20
11.443623
 11
188.975525
 21
-24.556381
  0
LINE
  8
0
 10
91.975525
 20
11.443623
 11
188.975525
 21
11.443623
  0
LINE
  8
0
 10
91.975525
 20
-6.556377
 11
188.975525
 21
-6.556377
  0
LINE
  8
0
 10
91.975525
 20
-12.556377
 11
188.975525
 21
-12.556377
  0
LINE
  8
0
 10
91.975525
 20
-24.556381
 11
188.975525
 21
-24.556381
  0
LINE
  8
0
 10
116.975578
 20
-6.556372
 11
114.859650
 21
5.443627
  0
LINE
  8
0
 10
91.975525
 20
5.443623
 11
114.859604
 21
5.443623
  0
LINE
  8
0
 10
91.975525
 20
11.443623
 11
91.975525
 21
-24.556381
  0
LINE
  8
0
 10
91.975525
 20
-18.556381
 11
188.975525
 21
-18.556381
  0
LINE
  8
0
 10
-50.000000
 20
80.500000
 11
-50.000000
 21
39.500000
  0
LINE
  8
0
 10
6.000000
 20
80.500000
 11
6.000000
 21
39.500000
  0
LINE
  8
0
 10
5.999966
 20
80.499969
 11
5.499965
 21
80.999969
  0
LINE
  8
0
 10
5.999985
 20
39.500015
 11
5.499984
 21
39.000015
  0
LINE
  8
0
 10
-49.500000
 20
81.000000
 11
5.500000
 21
81.000000
  0
LINE
  8
0
 10
-49.499985
 20
39.000000
 11
5.499969
 21
39.000000
  0
LINE
  8
0
 10
-49.999985
 20
80.499992
 11
-49.499981
 21
80.999992
  0
LINE
  8
0
  6
CENTER
 62
     2
 10
-63.853859
 20
60.000000
 11
10.500626
 21
60.000000
  0
LINE
  8
0
  6
CENTER
 62
     2
 10
-24.000000
 20
77.000000
 11
-16.000000
 21
77.000000
  0
LINE
  8
0
  6
CENTER
 62
     2
 10
-24.000000
 20
43.000000
 11
-16.000000
 21
43.000000
  0
LINE
  8
0
  6
CENTER
 62
     2
 10
-35.000000
 20
64.000000
 11
-35.000000
 21
56.000000
  0
LINE
  8
0
  6
CENTER
 62
     2
 10
-20.000000
 20
81.000000
 11
-20.000000
 21
73.000000
  0
LINE
  8
0
  6
CENTER
 62
     2
 10
-15.000000
 20
64.000000
 11
-15.000000
 21
56.000000
  0
LINE
  8
0
  6
CENTER
 62
     2
 10
-20.000000
 20
47.000000
 11
-20.000000
 21
39.000000
  0
LINE
  8
0
 10
-50.000000
 20
77.599991
 11
-22.939392
 21
77.599991
  0
LINE
  8
0
 10
-50.000000
 20
74.399994
 11
-21.496674
 21
74.399994
  0
LINE
  8
0
 10
-17.060623
 20
77.599991
 11
6.000000
 21
77.599991
  0
LINE
  8
0
 10
-18.503342
 20
74.399994
 11
6.000000
 21
74.399994
  0
LINE
  8
0
 10
-50.000000
 20
63.599991
 11
6.000000
 21
63.599991
  0
LINE
  8
0
 10
-50.000000
 20
60.399994
 11
-37.973221
 21
60.399994
  0
LINE
  8
0
 10
-32.026794
 20
60.399994
 11
-17.973221
 21
60.399994
  0
LINE
  8
0
 10
-12.026794
 20
60.399994
 11
6.000000
 21
60.399994
  0
LINE
  8
0
 10
-62.000000
 20
80.500000
 11
-62.000000
 21
39.500000
  0
LINE
  8
0
 10
-57.000000
 20
80.500000
 11
-57.000000
 21
39.500000
  0
LINE
  8
0
 10
-62.000000
 20
80.500000
 11
-57.000000
 21
80.500000
  0
LINE
  8
0
 10
-62.000000
 20
39.500000
 11
-57.000000
 21
39.500000
  0
LINE
  8
0
  6
CENTER
 62
     2
 10
-60.636189
 20
51.000000
 11
-48.143906
 21
51.000000
  0
LINE
  8
0
  6
CENTER
 62
     2
 10
-60.636189
 20
69.000000
 11
-48.220444
 21
69.000000
  0
LINE
  8
0
 10
-57.000000
 20
72.000000
 11
-50.000000
 21
72.000000
  0
LINE
  8
0
 10
-57.000000
 20
66.000000
 11
-50.000000
 21
66.000000
  0
LINE
  8
0
 10
-57.000000
 20
54.000000
 11
-50.000000
 21
54.000000
  0
LINE
  8
0
 10
-57.000000
 20
48.000000
 11
-50.000000
 21
48.000000
  0
LINE
  8
0
 10
-51.800003
 20
62.780090
 11
-51.800003
 21
57.280090
  0
LINE
  8
0
 10
-57.000000
 20
62.411652
 11
-57.000000
 21
57.648514
  0
LINE
  8
0
 10
-57.000000
 20
62.780090
 11
-57.000000
 21
57.280075
  0
LINE
  8
0
 10
-55.000000
 20
63.205505
 11
-55.000000
 21
56.854660
  0
LINE
  8
0
 10
-56.754395
 20
63.205505
 11
-55.000000
 21
63.205505
  0
LINE
  8
0
 10
-56.754395
 20
56.854660
 11
-55.000000
 21
56.854660
  0
LINE
  8
0
 10
-56.754395
 20
61.617798
 11
-55.000000
 21
61.617798
  0
LINE
  8
0
 10
-56.754379
 20
58.442368
 11
-55.000000
 21
58.442368
  0
LINE
  8
0
 10
-51.800003
 20
62.780094
 11
-51.554382
 21
63.205524
  0
LINE
  8
0
 10
-51.554337
 20
56.854698
 11
-51.799953
 21
57.280109
  0
LINE
  8
0
 10
-57.000008
 20
62.780094
 11
-56.754387
 21
63.205521
  0
LINE
  8
0
 10
-56.754356
 20
56.854679
 11
-56.999973
 21
57.280094
  0
LINE
  8
0
 10
-49.999943
 20
62.780144
 11
-50.245567
 21
63.205570
  0
LINE
  8
0
 10
-50.245625
 20
56.854671
 11
-50.000011
 21
57.280083
  0
LINE
  8
0
 10
-51.554382
 20
63.205505
 11
-50.245621
 21
63.205505
  0
LINE
  8
0
 10
-51.554382
 20
56.854660
 11
-50.245636
 21
56.854660
  0
LINE
  8
0
 10
-51.554382
 20
58.442368
 11
-50.245621
 21
58.442368
  0
LINE
  8
0
 10
-51.554382
 20
61.617798
 11
-50.245621
 21
61.617798
  0
LINE
  8
0
 62
     2
 10
-55.000000
 20
61.310486
 11
-51.800003
 21
61.310486
  0
LINE
  8
0
 62
     2
 10
-55.000000
 20
58.689484
 11
-51.800003
 21
58.689484
  0
LINE
  8
0
 10
-55.000000
 20
61.500000
 11
-51.800003
 21
61.500000
  0
LINE
  8
0
 10
-55.000000
 20
58.500000
 11
-51.800003
 21
58.500000
  0
LINE
  8
0
  6
CENTER
 62
     2
 10
-59.500000
 20
49.250000
 11
-59.500000
 21
44.750000
  0
LINE
  8
0
  6
CENTER
 62
     2
 10
-59.500000
 20
75.250000
 11
-59.500000
 21
70.750000
  0
LINE
  8
0
 10
-54.500000
 20
70.496643
 11
-54.500000
 21
67.503342
  0
LINE
  8
0
 10
-57.000000
 20
70.496643
 11
-54.500000
 21
70.496643
  0
LINE
  8
0
 10
-57.000000
 20
67.503342
 11
-54.500000
 21
67.503342
  0
LINE
  8
0
 10
-57.000000
 20
52.496643
 11
-54.500000
 21
52.496643
  0
LINE
  8
0
 10
-57.000000
 20
49.503342
 11
-54.500000
 21
49.503342
  0
LINE
  8
0
 10
-54.500000
 20
52.496643
 11
-54.500000
 21
49.503342
  0
LINE
  8
0
 10
-56.999985
 20
49.503338
 11
-54.499989
 21
52.496639
  0
LINE
  8
0
 10
-57.000053
 20
52.496605
 11
-54.500046
 21
49.503296
  0
LINE
  8
0
 10
-54.499996
 20
70.496597
 11
-56.999996
 21
67.503296
  0
LINE
  8
0
 10
-57.000046
 20
70.496567
 11
-54.500046
 21
67.503273
  0
LINE
  8
0
  6
CENTER
 62
     2
 10
-61.750000
 20
73.000000
 11
-57.250000
 21
73.000000
  0
LINE
  8
0
  6
CENTER
 62
     2
 10
-61.750000
 20
47.000000
 11
-57.250000
 21
47.000000
  0
LINE
  8
0
 10
-50.000004
 20
39.499996
 11
-49.499996
 21
38.999992
  0
LINE
  8
0
  6
PHANTOM
 62
     3
 10
-27.500000
 20
97.481110
 11
-27.500000
 21
29.000000
  0
LINE
  8
0
  6
PHANTOM
 62
     3
 10
-53.400002
 20
91.000000
 11
-53.400002
 21
29.000000
  0
LINE
  8
0
  6
PHANTOM
 62
     3
 10
-15.500000
 20
91.000000
 11
-15.500000
 21
70.000000
  0
LINE
  8
0
  6
PHANTOM
 62
     3
 10
-19.500000
 20
70.000000
 11
-19.500000
 21
50.000000
  0
LINE
  8
0
  6
PHANTOM
 62
     3
 10
-19.500000
 20
50.000000
 11
-15.500000
 21
50.000000
  0
LINE
  8
0
  6
PHANTOM
 62
     3
 10
-19.500000
 20
70.000000
 11
-15.500000
 21
70.000000
  0
LINE
  8
0
  6
PHANTOM
 62
     3
 10
-15.500000
 20
50.000000
 11
-15.500000
 21
29.000000
  0
LINE
  8
0
  6
CENTER
 62
     2
 10
-100.774994
 20
60.000000
 11
-122.375000
 21
60.000000
  0
LINE
  8
0
  6
CENTER
 62
     2
 10
-111.500000
 20
83.600006
 11
-111.500000
 21
36.800003
  0
LINE
  8
0
 10
-119.500000
 20
80.500000
 11
-119.500000
 21
39.500000
  0
LINE
  8
0
 10
-103.500000
 20
80.500000
 11
-103.500000
 21
39.500000
  0
LINE
  8
0
 10
-103.500000
 20
80.500000
 11
-119.500000
 21
80.500000
  0
LINE
  8
0
 10
-103.500000
 20
39.500000
 11
-119.500000
 21
39.500000
  0
LINE
  8
0
 10
-112.750000
 20
69.721695
 11
-112.750000
 21
68.278305
  0
LINE
  8
0
 10
-110.250000
 20
69.721680
 11
-110.250000
 21
68.278320
  0
LINE
  8
0
 10
-112.750000
 20
69.721718
 11
-111.500008
 21
70.443405
  0
LINE
  8
0
 10
-111.500008
 20
67.556656
 11
-110.250015
 21
68.278343
  0
LINE
  8
0
 10
-112.750015
 20
51.721722
 11
-111.500015
 21
52.443409
  0
LINE
  8
0
 10
-111.499992
 20
49.556664
 11
-110.250008
 21
50.278343
  0
LINE
  8
0
 10
-111.500000
 20
52.443367
 11
-110.250000
 21
51.721680
  0
LINE
  8
0
 10
-112.750000
 20
50.278301
 11
-111.500000
 21
49.556614
  0
LINE
  8
0
 10
-111.500023
 20
70.443375
 11
-110.250008
 21
69.721680
  0
LINE
  8
0
 10
-112.749992
 20
68.278297
 11
-111.500008
 21
67.556618
  0
LINE
  8
0
 10
-112.750000
 20
51.721680
 11
-112.750000
 21
50.278305
  0
LINE
  8
0
 10
-110.250000
 20
51.721680
 11
-110.250000
 21
50.278305
  0
LINE
  8
0
  6
CENTER
 62
     2
 10
-115.500000
 20
51.000000
 11
-107.500000
 21
51.000000
  0
LINE
  8
0
  6
CENTER
 62
     2
 10
-115.500000
 20
69.000000
 11
-107.500000
 21
69.000000
  0
LINE
  8
0
  6
CENTER
 62
     2
 10
-113.750000
 20
77.000000
 11
-109.250000
 21
77.000000
  0
LINE
  8
0
  6
CENTER
 62
     2
 10
-113.750000
 20
43.000000
 11
-109.250000
 21
43.000000
  0
LINE
  8
0
 10
-120.000000
 20
60.399979
 11
-120.000000
 21
39.500000
  0
LINE
  8
0
 10
-120.000000
 20
80.499985
 11
-120.000000
 21
77.599991
  0
LINE
  8
0
 10
-120.000000
 20
74.399979
 11
-120.000000
 21
63.599991
  0
LINE
  8
0
 10
-103.000000
 20
80.499985
 11
-103.000000
 21
77.599991
  0
LINE
  8
0
 10
-103.000114
 20
80.499863
 11
-103.500099
 21
80.999855
  0
LINE
  8
0
 10
-103.499992
 20
38.999943
 11
-103.000008
 21
39.499931
  0
LINE
  8
0
 10
-119.500000
 20
80.999985
 11
-113.100006
 21
80.999985
  0
LINE
  8
0
 10
-119.500000
 20
39.000000
 11
-103.499954
 21
39.000000
  0
LINE
  8
0
 10
-119.999947
 20
80.499901
 11
-119.499947
 21
80.999901
  0
LINE
  8
0
 10
-120.000069
 20
39.499981
 11
-119.500084
 21
38.999989
  0
LINE
  8
0
 10
-109.899994
 20
80.999985
 11
-103.500000
 21
80.999985
  0
LINE
  8
0
 10
-103.000000
 20
60.399994
 11
-103.000000
 21
39.500000
  0
LINE
  8
0
 10
-120.000000
 20
63.599991
 11
-119.500000
 21
63.599991
  0
LINE
  8
0
 10
-120.000000
 20
60.399979
 11
-119.500000
 21
60.399979
  0
LINE
  8
0
 10
-103.000000
 20
74.399979
 11
-103.000000
 21
63.599991
  0
LINE
  8
0
 10
-120.000000
 20
60.399994
 11
-119.500000
 21
60.399994
  0
LINE
  8
0
 10
-120.000000
 20
63.599991
 11
-119.500000
 21
63.599991
  0
LINE
  8
0
 10
-103.000000
 20
60.399994
 11
-103.500000
 21
60.399994
  0
LINE
  8
0
 10
-103.000000
 20
63.599991
 11
-103.500000
 21
63.599991
  0
LINE
  8
0
 10
-103.000000
 20
74.399979
 11
-103.500000
 21
74.399979
  0
LINE
  8
0
 10
-103.000000
 20
77.599991
 11
-103.500000
 21
77.599991
  0
LINE
  8
0
 10
-120.000000
 20
74.399979
 11
-119.500000
 21
74.399979
  0
LINE
  8
0
 10
-120.000000
 20
77.599991
 11
-119.500000
 21
77.599991
  0
LINE
  8
0
 10
-109.899994
 20
80.999985
 11
-109.899994
 21
80.500000
  0
LINE
  8
0
 10
-113.100006
 20
80.999985
 11
-113.100006
 21
80.500000
  0
LINE
  8
0
  6
CENTER
 62
     2
 10
-121.500000
 20
77.000000
 11
-118.500000
 21
77.000000
  0
LINE
  8
0
  6
CENTER
 62
     2
 10
-121.500000
 20
43.000000
 11
-118.500000
 21
43.000000
  0
LINE
  8
0
  6
CENTER
 62
     2
 10
56.500000
 20
83.150009
 11
56.500000
 21
35.899994
  0
LINE
  8
0
  6
CENTER
 62
     2
 10
48.966278
 20
69.000000
 11
64.416275
 21
69.000000
  0
LINE
  8
0
  6
CENTER
 62
     2
 10
49.171356
 20
51.000000
 11
64.006104
 21
51.000000
  0
LINE
  8
0
 10
48.000000
 20
80.499985
 11
48.000000
 21
77.599991
  0
LINE
  8
0
 10
65.000000
 20
80.499985
 11
65.000000
 21
77.599991
  0
LINE
  8
0
 10
64.999893
 20
80.499840
 11
64.499908
 21
80.999832
  0
LINE
  8
0
 10
64.499985
 20
38.999954
 11
64.999969
 21
39.499943
  0
LINE
  8
0
 10
48.500000
 20
80.999985
 11
54.899994
 21
80.999985
  0
LINE
  8
0
 10
48.500000
 20
39.000000
 11
64.500000
 21
39.000000
  0
LINE
  8
0
 10
47.999996
 20
80.499847
 11
48.500053
 21
80.999901
  0
LINE
  8
0
 10
47.999931
 20
39.499958
 11
48.499920
 21
38.999969
  0
LINE
  8
0
 10
58.100006
 20
80.999985
 11
64.500000
 21
80.999985
  0
LINE
  8
0
 10
48.000000
 20
60.399979
 11
48.000000
 21
39.500000
  0
LINE
  8
0
 10
65.000000
 20
60.399994
 11
65.000000
 21
39.500000
  0
LINE
  8
0
 10
58.600006
 20
79.967072
 11
58.600006
 21
78.367081
  0
LINE
  8
0
 10
58.099922
 20
80.467003
 11
58.599911
 21
79.967010
  0
LINE
  8
0
 10
54.900097
 20
80.466965
 11
54.400085
 21
79.966957
  0
LINE
  8
0
 10
54.399994
 20
79.967087
 11
54.399994
 21
78.367081
  0
LINE
  8
0
 10
48.000000
 20
74.399979
 11
48.000000
 21
63.599991
  0
LINE
  8
0
 10
65.000000
 20
74.399979
 11
65.000000
 21
63.599991
  0
LINE
  8
0
 10
64.000000
 20
73.899979
 11
62.399994
 21
73.899979
  0
LINE
  8
0
 10
64.500023
 20
74.399895
 11
64.000038
 21
73.899910
  0
LINE
  8
0
 10
64.499901
 20
77.599915
 11
63.999908
 21
78.099907
  0
LINE
  8
0
 10
64.000000
 20
78.099991
 11
62.399994
 21
78.099991
  0
LINE
  8
0
 10
64.499825
 20
63.599823
 11
63.999832
 21
64.099808
  0
LINE
  8
0
 10
64.000000
 20
64.099991
 11
62.399994
 21
64.099991
  0
LINE
  8
0
 10
64.000000
 20
59.899994
 11
62.399994
 21
59.899994
  0
LINE
  8
0
 10
64.499886
 20
60.400040
 11
63.999893
 21
59.900047
  0
LINE
  8
0
 10
54.899994
 20
80.999985
 11
54.899994
 21
80.467087
  0
LINE
  8
0
 10
58.100006
 20
80.999985
 11
58.100006
 21
80.467072
  0
LINE
  8
0
 10
65.000000
 20
77.599991
 11
64.500000
 21
77.599991
  0
LINE
  8
0
 10
65.000000
 20
74.399979
 11
64.500000
 21
74.399979
  0
LINE
  8
0
 10
65.000000
 20
63.599991
 11
64.500000
 21
63.599991
  0
LINE
  8
0
 10
65.000000
 20
60.399994
 11
64.500000
 21
60.399994
  0
LINE
  8
0
  6
CENTER
 62
     2
 10
42.500610
 20
60.000000
 11
68.500610
 21
60.000000
  0
LINE
  8
0
 10
48.000000
 20
77.599991
 11
48.500153
 21
77.599991
  0
LINE
  8
0
 10
48.000000
 20
74.399979
 11
48.499832
 21
74.399979
  0
LINE
  8
0
 10
48.500046
 20
77.599899
 11
49.000057
 21
78.099915
  0
LINE
  8
0
 10
49.000000
 20
78.099991
 11
50.600006
 21
78.099991
  0
LINE
  8
0
 10
49.000000
 20
73.899994
 11
50.600006
 21
73.899994
  0
LINE
  8
0
 10
48.499886
 20
74.399925
 11
48.999920
 21
73.899887
  0
LINE
  8
0
 10
48.000000
 20
60.399979
 11
48.500122
 21
60.399979
  0
LINE
  8
0
 10
48.000000
 20
63.599991
 11
48.499832
 21
63.599991
  0
LINE
  8
0
 10
48.500038
 20
60.400059
 11
49.000027
 21
59.900070
  0
LINE
  8
0
 10
49.000000
 20
59.899979
 11
50.600006
 21
59.899979
  0
LINE
  8
0
 10
49.000000
 20
64.099976
 11
50.600006
 21
64.099976
  0
LINE
  8
0
 10
48.499897
 20
63.600056
 11
48.999908
 21
64.100067
  0
LINE
  8
0
  6
CENTER
 62
     2
 10
45.564194
 20
75.999985
 11
66.974716
 21
75.999985
  0
LINE
  8
0
  6
CENTER
 62
     2
 10
45.564194
 20
61.999985
 11
67.237747
 21
61.999985
  0
LINE
  8
0
  6
CENTER
 62
     2
 10
63.500000
 20
77.000000
 11
66.500000
 21
77.000000
  0
LINE
  8
0
  6
CENTER
 62
     2
 10
63.500000
 20
43.000000
 11
66.500000
 21
43.000000
  0
LINE
  8
0
 10
-49.499985
 20
2.000000
 11
5.500015
 21
2.000000
  0
LINE
  8
0
 10
-49.499985
 20
19.000000
 11
5.500015
 21
19.000000
  0
LINE
  8
0
 10
6.000015
 20
18.500000
 11
6.000015
 21
2.500000
  0
LINE
  8
0
 10
5.999981
 20
18.499956
 11
5.499980
 21
18.999956
  0
LINE
  8
0
 10
6.000000
 20
2.500015
 11
5.499999
 21
2.000015
  0
LINE
  8
0
 10
-50.000000
 20
18.500013
 11
-49.500000
 21
19.000015
  0
LINE
  8
0
 10
-49.999981
 20
2.499995
 11
-49.499981
 21
1.999994
  0
LINE
  8
0
  6
CENTER
 62
     2
 10
-65.161423
 20
10.500000
 11
9.275024
 21
10.500000
  0
LINE
  8
0
 10
-50.000000
 20
18.500000
 11
-50.000000
 21
2.500000
  0
LINE
  8
0
  6
CENTER
 62
     2
 10
-27.999985
 20
14.000000
 11
-27.999985
 21
7.000000
  0
LINE
  8
0
  6
CENTER
 62
     2
 10
-3.999985
 20
14.000000
 11
-3.999985
 21
7.000000
  0
LINE
  8
0
 10
-24.999985
 20
19.000000
 11
-7.999985
 21
19.000000
  0
LINE
  8
0
 10
-61.999985
 20
18.500000
 11
-61.999985
 21
2.500000
  0
LINE
  8
0
 10
-56.999985
 20
18.500000
 11
-56.999985
 21
13.100006
  0
LINE
  8
0
 10
-54.499985
 20
13.500000
 11
-50.000000
 21
13.500000
  0
LINE
  8
0
 10
-54.499985
 20
7.500000
 11
-50.000000
 21
7.500000
  0
LINE
  8
0
 10
-57.499985
 20
13.100006
 11
-57.499985
 21
7.900009
  0
LINE
  8
0
 10
-57.499985
 20
13.100006
 11
-54.499985
 21
13.100006
  0
LINE
  8
0
 10
-57.499985
 20
7.900009
 11
-54.499985
 21
7.900009
  0
LINE
  8
0
 10
-56.999985
 20
7.900009
 11
-56.999985
 21
2.500000
  0
LINE
  8
0
 10
-54.499985
 20
13.500000
 11
-54.499985
 21
13.100006
  0
LINE
  8
0
 10
-54.499985
 20
7.900009
 11
-54.499985
 21
7.500000
  0
LINE
  8
0
 10
-51.799988
 20
7.500000
 11
-51.799988
 21
6.175400
  0
LINE
  8
0
 10
-54.999985
 20
7.900009
 11
-54.999985
 21
5.750000
  0
LINE
  8
0
 10
-56.754379
 20
5.750000
 11
-54.999985
 21
5.750000
  0
LINE
  8
0
 10
-51.799976
 20
6.175429
 11
-51.554371
 21
5.750029
  0
LINE
  8
0
 10
-51.554382
 20
5.750000
 11
-50.245605
 21
5.750000
  0
LINE
  8
0
 10
-56.999985
 20
7.900009
 11
-56.999985
 21
6.175400
  0
LINE
  8
0
 10
-56.999973
 20
6.175416
 11
-56.754368
 21
5.750015
  0
LINE
  8
0
 10
-50.000015
 20
6.175424
 11
-50.245621
 21
5.750023
  0
LINE
  8
0
 10
-54.999985
 20
7.000000
 11
-51.799988
 21
7.000000
  0
LINE
  8
0
 62
     2
 10
-54.999985
 20
7.189499
 11
-51.799988
 21
7.189499
  0
LINE
  8
0
  6
CENTER
 62
     2
 10
-57.822250
 20
8.500000
 11
-48.266247
 21
8.500000
  0
LINE
  8
0
 10
-61.999985
 20
2.500000
 11
-56.999985
 21
2.500000
  0
LINE
  8
0
 10
-61.999985
 20
18.500000
 11
-56.999985
 21
18.500000
  0
LINE
  8
0
  6
CENTER
 62
     2
 10
-35.000000
 20
3.500000
 11
-35.000000
 21
0.500000
  0
LINE
  8
0
  6
CENTER
 62
     2
 10
-20.000000
 20
3.500000
 11
-20.000000
 21
0.500000
  0
LINE
  8
0
  6
CENTER
 62
     2
 10
-15.000000
 20
3.500000
 11
-15.000000
 21
0.500000
  0
LINE
  8
0
  6
PHANTOM
 62
     3
 10
-23.999992
 20
29.000000
 11
-23.999992
 21
-3.000000
  0
LINE
  8
0
  6
PHANTOM
 62
     3
 10
-17.500000
 20
29.000000
 11
-17.500000
 21
-3.000000
  0
LINE
  8
0
  6
PHANTOM
 62
     3
 10
-53.399986
 20
29.000000
 11
-53.399986
 21
1.996985
  0
LINE
  8
0
  6
PHANTOM
 62
     3
 10
-17.500000
 20
29.000000
 11
-15.500000
 21
29.000000
  0
LINE
  8
0
  6
PHANTOM
 62
     3
 10
-27.499992
 20
29.000000
 11
-23.999992
 21
29.000000
  0
LINE
  8
0
  6
CENTER
 62
     1
 10
-76.096390
 20
-105.502808
 11
-76.096390
 21
-111.741425
  0
LINE
  8
0
 62
     4
 10
-77.346390
 20
-105.809525
 11
-77.346390
 21
-106.309525
  0
LINE
  8
0
 62
     1
 10
-77.121399
 20
-105.809525
 11
-77.121399
 21
-106.309525
  0
LINE
  8
0
 62
     1
 10
-75.071396
 20
-105.809525
 11
-75.071396
 21
-106.309525
  0
LINE
  8
0
 62
     4
 10
-74.846390
 20
-105.809525
 11
-74.846390
 21
-106.309525
  0
LINE
  8
0
 62
     4
 10
-77.346390
 20
-105.809525
 11
-74.846390
 21
-105.809525
  0
LINE
  8
0
  6
CENTER
 62
     1
 10
-122.639130
 20
-104.256554
 11
-122.639130
 21
-112.969315
  0
LINE
  8
0
 62
     4
 10
-124.689117
 20
-107.309525
 11
-124.689117
 21
-108.859520
  0
LINE
  8
0
 62
     4
 10
-124.689171
 20
-107.309471
 11
-124.139183
 21
-106.759483
  0
LINE
  8
0
 62
     4
 10
-124.139130
 20
-106.309525
 11
-124.139130
 21
-106.759521
  0
LINE
  8
0
 62
     4
 10
-124.139130
 20
-106.309525
 11
-121.139130
 21
-106.309525
  0
LINE
  8
0
 62
     4
 10
-121.139130
 20
-106.309525
 11
-121.139130
 21
-106.759521
  0
LINE
  8
0
 62
     4
 10
-120.589142
 20
-107.309486
 11
-121.139137
 21
-106.759483
  0
LINE
  8
0
 62
     4
 10
-120.589127
 20
-107.309525
 11
-120.589127
 21
-108.859520
  0
LINE
  8
0
 62
     4
 10
-124.689117
 20
-108.109520
 11
-120.589127
 21
-108.109520
  0
LINE
  8
0
 62
     4
 10
-124.689133
 20
-108.908707
 11
-120.589127
 21
-108.908707
  0
LINE
  8
0
 62
     4
 10
-123.664139
 20
-110.309525
 11
-121.614136
 21
-110.309525
  0
LINE
  8
0
 62
     4
 10
-121.613686
 20
-110.309975
 11
-121.388680
 21
-110.084969
  0
LINE
  8
0
 62
     4
 10
-123.664131
 20
-110.309578
 11
-123.889130
 21
-110.084579
  0
LINE
  8
0
 62
     4
 10
-123.889130
 20
-108.908707
 11
-123.889130
 21
-110.084526
  0
LINE
  8
0
 62
     1
 10
-123.664139
 20
-108.908707
 11
-123.664139
 21
-110.309525
  0
LINE
  8
0
 62
     1
 10
-121.614136
 20
-108.908707
 11
-121.614136
 21
-110.309525
  0
LINE
  8
0
 62
     4
 10
-121.389130
 20
-108.908707
 11
-121.389130
 21
-110.084518
  0
LINE
  8
0
 62
     4
 10
-123.889130
 20
-110.084526
 11
-121.389130
 21
-110.084526
  0
LINE
  8
0
 62
     4
 10
-123.889130
 20
-105.809525
 11
-123.889130
 21
-106.309525
  0
LINE
  8
0
 62
     1
 10
-123.664139
 20
-105.809525
 11
-123.664139
 21
-106.309525
  0
LINE
  8
0
 62
     1
 10
-121.614136
 20
-105.809525
 11
-121.614136
 21
-106.309525
  0
LINE
  8
0
 62
     4
 10
-121.389130
 20
-105.809525
 11
-121.389130
 21
-106.309525
  0
LINE
  8
0
 62
     4
 10
-123.889130
 20
-105.809525
 11
-121.389130
 21
-105.809525
  0
LINE
  8
0
  6
CENTER
 62
     1
 10
-80.896942
 20
-63.759521
 11
-50.688889
 21
-63.759521
  0
LINE
  8
0
 62
     4
 10
-78.096405
 20
-65.259521
 11
-56.096405
 21
-65.259521
  0
LINE
  8
0
 62
     4
 10
-78.096405
 20
-62.259521
 11
-56.096405
 21
-62.259521
  0
LINE
  8
0
  6
CENTER
 62
     1
 10
-76.096390
 20
-60.923019
 11
-76.096390
 21
-66.512344
  0
LINE
  8
0
 62
     1
 10
-55.007175
 20
-61.594425
 11
-52.507175
 21
-65.924553
  0
LINE
  8
0
 62
     4
 10
-56.096405
 20
-62.459518
 11
-54.507751
 21
-62.459518
  0
LINE
  8
0
 62
     4
 10
-56.096405
 20
-65.059525
 11
-53.006622
 21
-65.059525
  0
LINE
  8
0
 62
     4
 10
-77.105858
 20
-64.486168
 11
-75.360863
 21
-62.741169
  0
LINE
  8
0
 62
     4
 10
-76.823036
 20
-64.768990
 11
-75.078033
 21
-63.023991
  0
LINE
  8
0
 62
     4
 10
-78.096405
 20
-62.159523
 11
-78.096405
 21
-65.359520
  0
LINE
  8
0
 62
     4
 10
-56.096405
 20
-62.159523
 11
-56.096405
 21
-65.359520
  0
LINE
  8
0
 62
     4
 10
81.714737
 20
-99.409523
 11
81.714737
 21
-106.309525
  0
LINE
  8
0
  6
CENTER
 62
     1
 10
61.714737
 20
-105.579269
 11
61.714737
 21
-111.482193
  0
LINE
  8
0
 62
     4
 10
75.814713
 20
-99.409523
 11
75.814713
 21
-106.309525
  0
LINE
  8
0
 62
     4
 10
75.814743
 20
-99.409523
 11
81.714737
 21
-99.409523
  0
LINE
  8
0
 62
     4
 10
75.814713
 20
-105.159508
 11
81.714737
 21
-105.159508
  0
LINE
  8
0
 62
     4
 10
75.814713
 20
-105.909508
 11
81.714737
 21
-105.909508
  0
LINE
  8
0
 62
     4
 10
75.814713
 20
-100.909523
 11
81.714737
 21
-100.909523
  0
LINE
  8
0
 62
     4
 10
77.822098
 20
-90.909485
 11
80.422073
 21
-90.909485
  0
LINE
  8
0
  6
CENTER
 62
     1
 10
78.672012
 20
-92.632416
 11
78.672012
 21
-80.700333
  0
LINE
  8
0
  6
CENTER
 62
     1
 10
79.572006
 20
-92.582123
 11
79.572006
 21
-80.658478
  0
LINE
  8
0
 62
     4
 10
78.422012
 20
-80.909485
 11
78.922012
 21
-80.909485
  0
LINE
  8
0
 62
     4
 10
79.322006
 20
-80.909485
 11
79.822006
 21
-80.909485
  0
LINE
  8
0
 62
     4
 10
78.222000
 20
-83.909485
 11
80.022018
 21
-83.909485
  0
LINE
  8
0
 62
     4
 10
80.022018
 20
-90.909485
 11
80.022018
 21
-86.903938
  0
LINE
  8
0
 62
     4
 10
79.121994
 20
-90.909485
 11
79.121994
 21
-87.423553
  0
LINE
  8
0
 62
     4
 10
79.121994
 20
-85.923553
 11
79.121994
 21
-83.909485
  0
LINE
  8
0
 62
     4
 10
80.022018
 20
-85.403938
 11
80.022018
 21
-83.909485
  0
LINE
  8
0
 62
     4
 10
78.222000
 20
-90.909485
 11
78.222000
 21
-87.943176
  0
LINE
  8
0
 62
     4
 10
78.222000
 20
-86.443176
 11
78.222000
 21
-83.909485
  0
LINE
  8
0
 62
     4
 10
78.422012
 20
-83.909485
 11
78.422012
 21
-80.909485
  0
LINE
  8
0
 62
     4
 10
78.922012
 20
-83.909485
 11
78.922012
 21
-80.909485
  0
LINE
  8
0
 62
     4
 10
79.322006
 20
-83.909485
 11
79.322006
 21
-80.909485
  0
LINE
  8
0
 62
     4
 10
79.822006
 20
-83.909485
 11
79.822006
 21
-80.909485
  0
LINE
  8
0
 62
     1
 10
76.957130
 20
-87.173645
 11
81.287277
 21
-84.673630
  0
LINE
  8
0
  6
CENTER
 62
     1
 10
79.122086
 20
-100.723892
 11
79.122086
 21
-90.909485
  0
LINE
  8
0
 62
     1
 10
76.957039
 20
-88.673637
 11
81.287193
 21
-86.173622
  0
LINE
  8
0
 62
     1
 10
76.957024
 20
-96.154343
 11
81.287155
 21
-93.654343
  0
LINE
  8
0
 62
     1
 10
76.957069
 20
-97.654335
 11
81.287193
 21
-95.154343
  0
LINE
  8
0
 62
     4
 10
60.464737
 20
-105.809525
 11
60.464737
 21
-106.309525
  0
LINE
  8
0
 62
     1
 10
60.689713
 20
-105.809525
 11
60.689713
 21
-106.309525
  0
LINE
  8
0
 62
     1
 10
62.739731
 20
-105.809525
 11
62.739731
 21
-106.309525
  0
LINE
  8
0
 62
     4
 10
62.964737
 20
-105.809525
 11
62.964737
 21
-106.309525
  0
LINE
  8
0
 62
     4
 10
60.464737
 20
-105.809525
 11
62.964737
 21
-105.809525
  0
LINE
  8
0
 62
     4
 10
80.422073
 20
-99.409523
 11
80.422073
 21
-95.653687
  0
LINE
  8
0
 62
     4
 10
77.822098
 20
-99.409523
 11
77.822098
 21
-97.154778
  0
LINE
  8
0
 62
     4
 10
77.822098
 20
-95.654793
 11
77.822098
 21
-90.909485
  0
LINE
  8
0
 62
     4
 10
80.422073
 20
-94.153694
 11
80.422073
 21
-90.909485
  0
LINE
  8
0
 62
     4
 10
14.422012
 20
-100.909523
 11
18.922012
 21
-100.909523
  0
LINE
  8
0
 62
     4
 10
14.422012
 20
-99.409523
 11
14.422012
 21
-105.159523
  0
LINE
  8
0
 62
     4
 10
15.171953
 20
-105.909485
 11
14.421990
 21
-105.159523
  0
LINE
  8
0
 62
     4
 10
15.172012
 20
-106.759521
 11
15.172012
 21
-105.909523
  0
LINE
  8
0
 62
     4
 10
14.621996
 20
-107.309479
 11
15.172006
 21
-106.759468
  0
LINE
  8
0
 62
     4
 10
14.621994
 20
-107.309525
 11
14.621994
 21
-108.859520
  0
LINE
  8
0
 62
     4
 10
18.722000
 20
-107.309525
 11
18.722000
 21
-108.859520
  0
LINE
  8
0
 62
     4
 10
18.721994
 20
-107.309563
 11
18.171984
 21
-106.759552
  0
LINE
  8
0
 62
     4
 10
18.172012
 20
-106.759521
 11
18.172012
 21
-105.909523
  0
LINE
  8
0
 62
     4
 10
18.172070
 20
-105.909622
 11
18.922064
 21
-105.159630
  0
LINE
  8
0
 62
     4
 10
18.922012
 20
-99.409523
 11
18.922012
 21
-105.159523
  0
LINE
  8
0
  6
CENTER
 62
     1
 10
16.672012
 20
-93.748566
 11
16.672012
 21
-112.376190
  0
LINE
  8
0
 62
     4
 10
15.172012
 20
-106.309525
 11
18.172012
 21
-106.309525
  0
LINE
  8
0
 62
     4
 10
14.621994
 20
-108.109520
 11
18.722000
 21
-108.109520
  0
LINE
  8
0
 62
     4
 10
14.621994
 20
-108.911972
 11
18.722000
 21
-108.911972
  0
LINE
  8
0
 62
     4
 10
14.422012
 20
-99.409523
 11
18.922012
 21
-99.409523
  0
LINE
  8
0
 62
     1
 10
14.507029
 20
-97.654343
 11
18.837154
 21
-95.154343
  0
LINE
  8
0
 62
     4
 10
15.646988
 20
-110.309525
 11
17.697006
 21
-110.309525
  0
LINE
  8
0
 62
     4
 10
17.697531
 20
-110.310066
 11
17.922522
 21
-110.085068
  0
LINE
  8
0
 62
     4
 10
15.647052
 20
-110.309448
 11
15.422046
 21
-110.084442
  0
LINE
  8
0
 62
     4
 10
15.422012
 20
-108.911972
 11
15.422012
 21
-110.084526
  0
LINE
  8
0
 62
     1
 10
15.646988
 20
-108.911972
 11
15.646988
 21
-110.309525
  0
LINE
  8
0
 62
     1
 10
17.697006
 20
-108.911972
 11
17.697006
 21
-110.309525
  0
LINE
  8
0
 62
     4
 10
17.922012
 20
-108.911972
 11
17.922012
 21
-110.084518
  0
LINE
  8
0
 62
     4
 10
15.422012
 20
-110.084526
 11
17.922012
 21
-110.084526
  0
LINE
  8
0
 62
     4
 10
15.422012
 20
-105.809525
 11
15.422012
 21
-106.309525
  0
LINE
  8
0
 62
     1
 10
15.646988
 20
-105.809525
 11
15.646988
 21
-106.309525
  0
LINE
  8
0
 62
     1
 10
17.697006
 20
-105.809525
 11
17.697006
 21
-106.309525
  0
LINE
  8
0
 62
     4
 10
17.922012
 20
-105.809525
 11
17.922012
 21
-106.309525
  0
LINE
  8
0
 62
     4
 10
15.422012
 20
-105.809525
 11
17.922012
 21
-105.809525
  0
LINE
  8
0
 62
     4
 10
15.372025
 20
-97.154800
 11
15.372025
 21
-99.409523
  0
LINE
  8
0
 62
     4
 10
17.972000
 20
-95.653702
 11
17.972000
 21
-99.409523
  0
LINE
  8
0
  6
CENTER
 62
     1
 10
58.385544
 20
-58.709511
 11
83.294724
 21
-58.709511
  0
LINE
  8
0
 62
     4
 10
59.714737
 20
-60.209511
 11
76.275345
 21
-60.209511
  0
LINE
  8
0
 62
     4
 10
59.714737
 20
-57.209511
 11
76.275345
 21
-57.209511
  0
LINE
  8
0
 62
     4
 10
59.714737
 20
-57.109512
 11
59.714737
 21
-60.309509
  0
LINE
  8
0
  6
CENTER
 62
     1
 10
61.714737
 20
-55.873001
 11
61.714737
 21
-61.462326
  0
LINE
  8
0
 62
     4
 10
76.800705
 20
-56.459511
 11
81.714737
 21
-56.459511
  0
LINE
  8
0
 62
     4
 10
76.800705
 20
-60.959511
 11
81.714737
 21
-60.959511
  0
LINE
  8
0
 62
     4
 10
81.714737
 20
-56.459503
 11
81.714737
 21
-60.959503
  0
LINE
  8
0
 62
     4
 10
60.705280
 20
-59.436165
 11
62.450279
 21
-57.691162
  0
LINE
  8
0
 62
     4
 10
60.988091
 20
-59.718975
 11
62.733093
 21
-57.973976
  0
CIRCLE
  8
0
 10
-35.000000
 20
60.000000
 40
1.700000
  0
CIRCLE
  8
0
 10
-20.000000
 20
77.000000
 40
1.700000
  0
CIRCLE
  8
0
 10
-15.000000
 20
60.000000
 40
1.700000
  0
CIRCLE
  8
0
 10
-20.000000
 20
43.000000
 40
1.700000
  0
CIRCLE
  8
0
 10
-20.000000
 20
43.000000
 40
3.000000
  0
CIRCLE
  8
0
 10
-20.000000
 20
77.000000
 40
3.000000
  0
CIRCLE
  8
0
 10
-35.000000
 20
60.000000
 40
3.000000
  0
CIRCLE
  8
0
 10
-15.000000
 20
60.000000
 40
3.000000
  0
ARC
  8
0
 10
-50.394287
 20
62.411652
 40
1.405720
 50
145.616196
 51
214.383804
  0
ARC
  8
0
 10
-46.547409
 20
60.030090
 40
5.252676
 50
162.406174
 51
197.593781
  0
ARC
  8
0
 10
-50.394302
 20
57.648514
 40
1.405708
 50
145.616058
 51
214.383942
  0
ARC
  8
0
 10
-55.594284
 20
62.411652
 40
1.405720
 50
145.616196
 51
214.383804
  0
ARC
  8
0
 10
-51.747421
 20
60.030090
 40
5.252676
 50
162.406174
 51
197.593781
  0
ARC
  8
0
 10
-55.594299
 20
57.648514
 40
1.405708
 50
145.616058
 51
214.383942
  0
ARC
  8
0
 10
-51.405731
 20
62.411652
 40
1.405720
 50
325.616180
 51
34.383808
  0
ARC
  8
0
 10
-55.252594
 20
60.030090
 40
5.252676
 50
342.406189
 51
17.593782
  0
ARC
  8
0
 10
-51.405716
 20
57.648514
 40
1.405708
 50
325.616058
 51
34.383945
  0
CIRCLE
  8
0
 10
-59.500000
 20
73.000000
 40
1.310499
  0
CIRCLE
  8
0
 10
-59.500000
 20
47.000000
 40
1.310499
  0
CIRCLE
  8
0
 62
     2
 10
-59.500000
 20
73.000000
 40
1.500000
  0
CIRCLE
  8
0
 62
     2
 10
-59.500000
 20
47.000000
 40
1.500000
  0
CIRCLE
  8
0
 10
-111.500000
 20
77.000000
 40
1.310499
  0
CIRCLE
  8
0
 10
-111.500000
 20
43.000000
 40
1.310499
  0
CIRCLE
  8
0
 62
     2
 10
-111.500000
 20
77.000000
 40
1.500000
  0
CIRCLE
  8
0
 62
     2
 10
-111.500000
 20
43.000000
 40
1.500000
  0
CIRCLE
  8
0
 10
-111.500000
 20
69.000000
 40
3.250000
  0
CIRCLE
  8
0
 10
-111.500000
 20
51.000000
 40
3.250000
  0
CIRCLE
  8
0
 10
-111.500000
 20
51.000000
 40
2.750000
  0
CIRCLE
  8
0
 10
-111.500000
 20
69.000000
 40
2.750000
  0
CIRCLE
  8
0
 10
-111.500000
 20
69.000000
 40
2.403587
  0
CIRCLE
  8
0
 10
-111.500000
 20
51.000000
 40
2.403595
  0
CIRCLE
  8
0
 10
56.500000
 20
69.000000
 40
6.000000
  0
CIRCLE
  8
0
 10
56.500000
 20
51.000000
 40
6.000000
  0
ARC
  8
0
 10
56.500000
 20
78.367065
 40
2.099998
 50
180.000000
 51
0.000000
  0
ARC
  8
0
 10
62.399994
 20
75.999985
 40
2.099998
 50
90.000000
 51
269.999908
  0
ARC
  8
0
 10
62.399994
 20
61.999985
 40
2.099998
 50
90.000000
 51
269.999908
  0
ARC
  8
0
 10
50.600006
 20
75.999985
 40
2.099998
 50
270.000000
 51
90.000000
  0
ARC
  8
0
 10
50.600006
 20
61.999985
 40
2.099998
 50
270.000000
 51
89.999893
  0
CIRCLE
  8
0
 62
     2
 10
-27.999985
 20
10.500000
 40
2.500000
  0
CIRCLE
  8
0
 62
     2
 10
-3.999985
 20
10.500000
 40
2.500000
  0
CIRCLE
  8
0
 10
-27.999985
 20
10.500000
 40
2.229500
  0
CIRCLE
  8
0
 10
-3.999985
 20
10.500000
 40
2.229500
  0
ARC
  8
0
 10
-47.828278
 20
7.125000
 40
3.971711
 50
174.582199
 51
200.254913
  0
ARC
  8
0
 10
-53.028275
 20
7.125000
 40
3.971708
 50
168.747528
 51
200.254913
  0
ARC
  8
0
 10
-53.971710
 20
7.125000
 40
3.971710
 50
339.745026
 51
5.417809
  0
ARC
  8
0
 62
     4
 10
-122.639130
 20
-108.859520
 40
2.050003
 50
180.000000
 51
270.000000
  0
ARC
  8
0
 62
     4
 10
-122.639130
 20
-108.859520
 40
2.050003
 50
270.000000
 51
0.000000
  0
CIRCLE
  8
0
 62
     1
 10
-76.096390
 20
-63.765808
 40
1.000000
  0
CIRCLE
  8
0
 62
     4
 10
-76.096390
 20
-63.765808
 40
1.250000
  0
ARC
  8
0
 62
     4
 10
16.672012
 20
-108.859520
 40
2.050000
 50
180.000000
 51
270.000000
  0
ARC
  8
0
 62
     4
 10
16.672012
 20
-108.859520
 40
2.050003
 50
271.259949
 51
0.000000
  0
ARC
  8
0
 62
     4
 10
79.214737
 20
-58.709511
 40
3.300002
 50
137.014145
 51
222.985855
  0
CIRCLE
  8
0
 62
     4
 10
79.122086
 20
-58.709511
 40
1.300000
  0
CIRCLE
  8
0
 62
     4
 10
79.443893
 20
-59.050514
 40
0.450000
  0
CIRCLE
  8
0
 62
     4
 10
78.832016
 20
-58.391357
 40
0.450000
  0
CIRCLE
  8
0
 62
     4
 10
79.443893
 20
-59.050514
 40
0.250000
  0
CIRCLE
  8
0
 62
     4
 10
78.832016
 20
-58.391357
 40
0.250000
  0
CIRCLE
  8
0
 62
     1
 10
61.714737
 20
-58.715797
 40
1.000000
  0
CIRCLE
  8
0
 62
     4
 10
61.714737
 20
-58.715797
 40
1.250000
  0
TEXT
  8
0
 10
115.907150
 20
122.050003
 40
4.500000
  1
DATE : APR ,1994
 50
0.000000
 41
1.052631
 51
0.000000
  7
STANDARD
  0
TEXT
  8
0
 10
113.700279
 20
-130.669998
 40
6.300000
  1
KOGANEI CORP.
 50
0.000000
 41
1.052632
 51
0.000000
  7
STANDARD
  0
TEXT
  8
0
 10
-190.392654
 20
122.050003
 40
4.500000
  1
TWIN ROD CYLINDER
 50
0.000000
 41
1.052632
 51
0.000000
  7
STANDARD
  0
TEXT
  8
0
 10
-186.892654
 20
104.550003
 40
4.500000
  1
MODEL:TBSA10*ST(10)
 50
0.000000
 41
1.052632
 51
0.000000
  7
STANDARD
  0
TEXT
  8
0
 62
     3
 10
-79.036041
 20
93.405014
 40
3.200000
  1
STRETCH LINE C
 50
0.000000
 41
1.052632
 51
0.000000
  7
STANDARD
  0
TEXT
  8
0
 62
     3
 10
-18.988131
 20
93.405014
 40
3.200000
  1
STRETCH LINE B
 50
0.000000
 41
1.052632
 51
0.000000
  7
STANDARD
  0
TEXT
  8
0
 62
     3
 10
-30.405855
 20
100.263672
 40
3.200000
  1
STRETCH LINE A
 50
0.000000
 41
1.052632
 51
0.000000
  7
STANDARD
  0
TEXT
  8
0
 10
121.168526
 20
-23.436377
 40
3.200000
  1
0
 50
0.000000
 41
1.052632
 51
0.000000
  7
STANDARD
  0
TEXT
  8
0
 10
133.168518
 20
-23.436377
 40
3.200000
  1
0
 50
0.000000
 41
1.052632
 51
0.000000
  7
STANDARD
  0
TEXT
  8
0
 10
145.168518
 20
-23.436377
 40
3.200000
  1
0
 50
0.000000
 41
1.052632
 51
0.000000
  7
STANDARD
  0
TEXT
  8
0
 10
155.568527
 20
-23.436378
 40
3.200000
  1
-2
 50
0.000000
 41
1.052632
 51
0.000000
  7
STANDARD
  0
TEXT
  8
0
 10
167.568527
 20
-23.436378
 40
3.200000
  1
-2
 50
0.000000
 41
1.052632
 51
0.000000
  7
STANDARD
  0
TEXT
  8
0
 10
179.568527
 20
-23.436378
 40
3.200000
  1
-2
 50
0.000000
 41
1.052632
 51
0.000000
  7
STANDARD
  0
TEXT
  8
0
 10
95.668526
 20
6.563622
 40
3.200000
  1
STROKE
 50
0.000000
 41
1.052632
 51
0.000000
  7
STANDARD
  0
TEXT
  8
0
 10
121.068527
 20
12.563622
 40
3.200000
  1
STRETCH LIST
 50
0.000000
 41
1.052632
 51
0.000000
  7
STANDARD
  0
TEXT
  8
0
 10
179.568527
 20
0.563622
 40
3.200000
  1
60
 50
0.000000
 41
1.052632
 51
0.000000
  7
STANDARD
  0
TEXT
  8
0
 10
167.568527
 20
0.563622
 40
3.200000
  1
50
 50
0.000000
 41
1.052632
 51
0.000000
  7
STANDARD
  0
TEXT
  8
0
 10
155.568527
 20
0.563622
 40
3.200000
  1
40
 50
0.000000
 41
1.052632
 51
0.000000
  7
STANDARD
  0
TEXT
  8
0
 10
143.568527
 20
0.563622
 40
3.200000
  1
30
 50
0.000000
 41
1.052632
 51
0.000000
  7
STANDARD
  0
TEXT
  8
0
 10
131.568527
 20
0.563622
 40
3.200000
  1
20
 50
0.000000
 41
1.052632
 51
0.000000
  7
STANDARD
  0
TEXT
  8
0
 10
119.568527
 20
0.563622
 40
3.200000
  1
10
 50
0.000000
 41
1.052632
 51
0.000000
  7
STANDARD
  0
TEXT
  8
0
 10
179.568527
 20
-11.436378
 40
3.200000
  1
25
 50
0.000000
 41
1.052632
 51
0.000000
  7
STANDARD
  0
TEXT
  8
0
 10
167.568527
 20
-11.436378
 40
3.200000
  1
20
 50
0.000000
 41
1.052632
 51
0.000000
  7
STANDARD
  0
TEXT
  8
0
 10
155.568527
 20
-11.436378
 40
3.200000
  1
15
 50
0.000000
 41
1.052632
 51
0.000000
  7
STANDARD
  0
TEXT
  8
0
 10
145.168518
 20
-11.436378
 40
3.200000
  1
5
 50
0.000000
 41
1.052632
 51
0.000000
  7
STANDARD
  0
TEXT
  8
0
 10
133.168518
 20
-11.436378
 40
3.200000
  1
0
 50
0.000000
 41
1.052632
 51
0.000000
  7
STANDARD
  0
TEXT
  8
0
 10
121.168526
 20
-11.436378
 40
3.200000
  1
0
 50
0.000000
 41
1.052632
 51
0.000000
  7
STANDARD
  0
TEXT
  8
0
 10
176.368530
 20
12.563622
 40
3.200000
  1
(mm)
 50
0.000000
 41
1.052632
 51
0.000000
  7
STANDARD
  0
TEXT
  8
0
 10
92.465004
 20
-0.056375
 40
3.200000
  1
STRETCH
 50
0.000000
 41
1.052632
 51
0.000000
  7
STANDARD
  0
TEXT
  8
0
 10
92.465004
 20
-4.856375
 40
3.200000
  1
  PLACE
 50
0.000000
 41
1.052632
 51
0.000000
  7
STANDARD
  0
TEXT
  8
0
 10
102.668526
 20
-11.436378
 40
3.200000
  1
A
 50
0.000000
 41
1.052632
 51
0.000000
  7
STANDARD
  0
TEXT
  8
0
 10
102.668526
 20
-17.436378
 40
3.200000
  1
B
 50
0.000000
 41
1.052632
 51
0.000000
  7
STANDARD
  0
TEXT
  8
0
 10
102.668526
 20
-23.436377
 40
3.200000
  1
C
 50
0.000000
 41
1.052632
 51
0.000000
  7
STANDARD
  0
TEXT
  8
0
 10
179.568527
 20
-17.436378
 40
3.200000
  1
35
 50
0.000000
 41
1.052632
 51
0.000000
  7
STANDARD
  0
TEXT
  8
0
 10
167.568527
 20
-17.436378
 40
3.200000
  1
30
 50
0.000000
 41
1.052632
 51
0.000000
  7
STANDARD
  0
TEXT
  8
0
 10
155.568527
 20
-17.436378
 40
3.200000
  1
25
 50
0.000000
 41
1.052632
 51
0.000000
  7
STANDARD
  0
TEXT
  8
0
 10
143.568527
 20
-17.436378
 40
3.200000
  1
15
 50
0.000000
 41
1.052632
 51
0.000000
  7
STANDARD
  0
TEXT
  8
0
 10
131.568527
 20
-17.436378
 40
3.200000
  1
10
 50
0.000000
 41
1.052632
 51
0.000000
  7
STANDARD
  0
TEXT
  8
0
 10
121.168526
 20
-17.436377
 40
3.200000
  1
0
 50
0.000000
 41
1.052632
 51
0.000000
  7
STANDARD
  0
TEXT
  8
0
 10
-31.332045
 20
-43.918102
 40
4.500000
  1
SENSOR
 50
0.000000
 41
1.052632
 51
0.000000
  7
STANDARD
  0
TEXT
  8
0
 10
-31.332047
 20
-50.668102
 40
4.500000
  1
 SWITCH:ZE235
 50
0.000000
 41
1.052632
 51
0.000000
  7
STANDARD
  0
TEXT
  8
0
 10
4.667954
 20
-57.268101
 40
4.500000
  1
ZE255
 50
0.000000
 41
1.052632
 51
0.000000
  7
STANDARD
  0
TEXT
  8
0
 10
4.667954
 20
-63.268097
 40
4.500000
  1
ZE201
 50
0.000000
 41
1.052632
 51
0.000000
  7
STANDARD
  0
TEXT
  8
0
 10
4.667954
 20
-69.268105
 40
4.500000
  1
ZE202
 50
0.000000
 41
1.052632
 51
0.000000
  7
STANDARD
  0
TEXT
  8
0
 10
-132.332047
 20
-69.268105
 40
4.500000
  1
ZE102
 50
0.000000
 41
1.052632
 51
0.000000
  7
STANDARD
  0
TEXT
  8
0
 10
-168.332047
 20
-43.918102
 40
4.500000
  1
SENSOR
 50
0.000000
 41
1.052632
 51
0.000000
  7
STANDARD
  0
TEXT
  8
0
 10
-168.332047
 20
-50.668102
 40
4.500000
  1
 SWITCH:ZE135
 50
0.000000
 41
1.052632
 51
0.000000
  7
STANDARD
  0
TEXT
  8
0
 10
-132.332047
 20
-57.268101
 40
4.500000
  1
ZE155
 50
0.000000
 41
1.052632
 51
0.000000
  7
STANDARD
  0
TEXT
  8
0
 10
-132.332047
 20
-63.268097
 40
4.500000
  1
ZE101
 50
0.000000
 41
1.052632
 51
0.000000
  7
STANDARD
  0
ENDSEC
  0
EOF
