  0
SECTION
  2
HEADER
  0
ENDSEC
  0
SECTION
  2
TABLES
  0
TABLE
  2
LTYPE
 70
     4
  0
LTYPE
  2
CONTINUOUS
 70
    64
  3
Solid line
 72
    65
 73
     0
 40
0.000000
  0
LTYPE
  2
DASHED
 70
    64
  3
__ __ __ __ __ __ __ __ __ __ __ __ __ __ __
 72
    65
 73
     2
 40
3.500000
 49
2.000000
 49
-1.500000
  0
LTYPE
  2
CENTER
 70
    64
  3
____ _ ____ _ ____ _ ____ _ ____ _ ____ _ ____
 72
    65
 73
     4
 40
17.500000
 49
13.000000
 49
-1.500000
 49
1.500000
 49
-1.500000
  0
LTYPE
  2
PHANTOM
 70
    64
  3
_____ _ _ _____ _ _ _____ _ _ _____ _ _ ____  
 72
    65
 73
     6
 40
15.500000
 49
8.000000
 49
-1.500000
 49
1.500000
 49
-1.500000
 49
1.500000
 49
-1.500000
  0
LTYPE
  2
DASHED1
 70
    64
  3
__ __ __ __ __ __ __ __ __ __ __ __ __ __ __
 72
    65
 73
     2
 40
1.500000
 49
1.000000
 49
-0.500000
  0
LTYPE
  2
DASHED2
 70
    64
  3
__ __ __ __ __ __ __ __ __ __ __ __ __ __ __
 72
    65
 73
     2
 40
3.500000
 49
2.500000
 49
-1.000000
  0
LTYPE
  2
DASHED3
 70
    64
  3
__ __ __ __ __ __ __ __ __ __ __ __ __ __ __
 72
    65
 73
     2
 40
6.000000
 49
4.000000
 49
-2.000000
  0
LTYPE
  2
DASHED4
 70
    64
  3
__ __ __ __ __ __ __ __ __ __ __ __ __ __ __
 72
    65
 73
     2
 40
12.000000
 49
10.000000
 49
-2.000000
  0
LTYPE
  2
DASHED5
 70
    64
  3
__ __ __ __ __ __ __ __ __ __ __ __ __ __ __
 72
    65
 73
     2
 40
17.000000
 49
15.000000
 49
-2.000000
  0
LTYPE
  2
DASHED6
 70
    64
  3
__ __ __ __ __ __ __ __ __ __ __ __ __ __ __
 72
    65
 73
     2
 40
29.000000
 49
27.000000
 49
-2.000000
  0
LTYPE
  2
PHANTOM1
 70
    64
  3
_____ _ _ _____ _ _ _____ _ _ _____ _ _ ____  
 72
    65
 73
     6
 40
31.000000
 49
25.000000
 49
-1.500000
 49
1.000000
 49
-1.000000
 49
1.000000
 49
-1.500000
  0
LTYPE
  2
PHANTOM2
 70
    64
  3
_____ _ _ _____ _ _ _____ _ _ _____ _ _ ____  
 72
    65
 73
     6
 40
36.000000
 49
27.000000
 49
-1.500000
 49
2.500000
 49
-1.000000
 49
2.500000
 49
-1.500000
  0
LTYPE
  2
PHANTOM3
 70
    64
  3
_____ _ _ _____ _ _ _____ _ _ _____ _ _ ____  
 72
    65
 73
     6
 40
78.000000
 49
64.000000
 49
-2.000000
 49
4.000000
 49
-2.000000
 49
4.000000
 49
-2.000000
  0
LTYPE
  2
CENTER1
 70
    64
  3
____ _ ____ _ ____ _ ____ _ ____ _ ____ _ ____
 72
    65
 73
     4
 40
19.000000
 49
14.000000
 49
-1.000000
 49
3.000000
 49
-1.000000
  0
LTYPE
  2
CENTER2
 70
    64
  3
____ _ ____ _ ____ _ ____ _ ____ _ ____ _ ____
 72
    65
 73
     4
 40
28.500000
 49
25.000000
 49
-1.000000
 49
1.500000
 49
-1.000000
  0
LTYPE
  2
CENTER3
 70
    64
  3
____ _ ____ _ ____ _ ____ _ ____ _ ____ _ ____
 72
    65
 73
     4
 40
31.500000
 49
27.000000
 49
-1.000000
 49
2.500000
 49
-1.000000
  0
LTYPE
  2
CENTER4
 70
    64
  3
____ _ ____ _ ____ _ ____ _ ____ _ ____ _ ____
 72
    65
 73
     4
 40
50.000000
 49
45.000000
 49
-1.000000
 49
3.000000
 49
-1.000000
  0
LTYPE
  2
CENTER5
 70
    64
  3
____ _ ____ _ ____ _ ____ _ ____ _ ____ _ ____
 72
    65
 73
     4
 40
100.000000
 49
92.000000
 49
-2.000000
 49
4.000000
 49
-2.000000
  0
LTYPE
  2
SBK1
 70
    64
  3
______ _ _ _ ______ _ _ _ ______ _ _ _ _____  
 72
    65
 73
     8
 40
60.500000
 49
45.000000
 49
-2.000000
 49
2.500000
 49
-2.000000
 49
2.500000
 49
-2.000000
 49
2.500000
 49
-2.000000
  0
LTYPE
  2
SBK2
 70
    64
  3
______ _ _ _ ______ _ _ _ ______ _ _ _ _____  
 72
    65
 73
     8
 40
84.000000
 49
64.000000
 49
-2.000000
 49
4.000000
 49
-2.000000
 49
4.000000
 49
-2.000000
 49
4.000000
 49
-2.000000
  0
LTYPE
  2
STCH
 70
    64
  3
__ __ __ __ __ __ __ __ __ __ __ __ __ __ __
 72
    65
 73
     2
 40
3.000000
 49
1.000000
 49
-2.000000
  0
LTYPE
  2
MTCH
 70
    64
  3
_____ _ _ _____ _ _ _____ _ _ _____ _ _ ____  
 72
    65
 73
     6
 40
80.000000
 49
66.000000
 49
-2.000000
 49
4.000000
 49
-2.000000
 49
4.000000
 49
-2.000000
  0
ENDTAB
  0
TABLE
  2
LAYER
 70
     1
  0
LAYER
  2
0
 70
     0
 62
     7
  6
CONTINUOUS
  0
ENDTAB
  0
TABLE
  2
STYLE
 70
     1
  0
STYLE
  2
STANDARD
 70
     0
 40
0.000000
 41
1.000000
 50
0.000000
 71
     0
 42
0.200000
  3
txt
  4
BIGFONT
  0
ENDTAB
  0
TABLE
  2
VIEW
 70
     0
  0
ENDTAB
  0
ENDSEC
  0
SECTION
  2
BLOCKS
  0
ENDSEC
  0
SECTION
  2
ENTITIES
  0
LINE
  8
0
 10
-194.250000
 20
132.600006
 11
194.800003
 21
132.600006
  0
LINE
  8
0
 10
194.800003
 20
132.600006
 11
194.800003
 21
-133.500000
  0
LINE
  8
0
 10
-194.250000
 20
132.600006
 11
-194.250000
 21
-133.500000
  0
LINE
  8
0
 10
-194.250000
 20
-133.500000
 11
194.800003
 21
-133.500000
  0
LINE
  8
0
 10
109.800003
 20
-118.500000
 11
109.800003
 21
-133.500000
  0
LINE
  8
0
 10
109.800003
 20
-118.500000
 11
194.800003
 21
-118.500000
  0
LINE
  8
0
 10
109.800003
 20
132.600006
 11
109.800003
 21
117.600006
  0
LINE
  8
0
 10
109.800003
 20
117.600006
 11
194.800003
 21
117.600006
  0
LINE
  8
0
 10
-194.250000
 20
117.600006
 11
-109.250000
 21
117.600006
  0
LINE
  8
0
 10
-109.250000
 20
132.600006
 11
-109.250000
 21
117.600006
  0
LINE
  8
0
  6
DASHED
 62
     4
 10
-73.096405
 20
-61.709518
 11
-51.096405
 21
-61.709518
  0
LINE
  8
0
  6
DASHED
 62
     4
 10
-73.096405
 20
-65.809525
 11
-51.096405
 21
-65.809525
  0
LINE
  8
0
  6
DASHED
 62
     4
 10
-73.096405
 20
-61.709518
 11
-73.096405
 21
-62.159523
  0
LINE
  8
0
  6
DASHED
 62
     4
 10
-51.096405
 20
-61.709518
 11
-51.096405
 21
-62.159523
  0
LINE
  8
0
  6
DASHED
 62
     4
 10
-73.096405
 20
-65.359520
 11
-73.096405
 21
-65.809525
  0
LINE
  8
0
  6
DASHED
 62
     4
 10
-51.096405
 20
-65.359520
 11
-51.096405
 21
-65.809525
  0
LINE
  8
0
  6
DASHED
 62
     4
 10
59.714737
 20
-60.759506
 11
76.628716
 21
-60.759506
  0
LINE
  8
0
  6
DASHED
 62
     4
 10
59.714737
 20
-56.659515
 11
76.628716
 21
-56.659515
  0
LINE
  8
0
  6
DASHED
 62
     4
 10
59.714737
 20
-57.109512
 11
59.714737
 21
-56.659515
  0
LINE
  8
0
  6
DASHED
 62
     4
 10
59.714737
 20
-60.309509
 11
59.714737
 21
-60.759506
  0
LINE
  8
0
  6
DASHED
 62
     4
 10
-73.096405
 20
-106.309525
 11
-51.096405
 21
-106.309525
  0
LINE
  8
0
  6
DASHED
 62
     4
 10
-68.396393
 20
-110.909523
 11
-51.096405
 21
-110.909523
  0
LINE
  8
0
  6
DASHED
 62
     4
 10
-51.096405
 20
-106.309525
 11
-51.096405
 21
-110.909523
  0
LINE
  8
0
  6
DASHED
 62
     4
 10
-73.096405
 20
-108.109520
 11
-73.096405
 21
-106.309525
  0
LINE
  8
0
  6
DASHED
 62
     4
 10
-68.396393
 20
-109.351486
 11
-68.396393
 21
-110.909523
  0
LINE
  8
0
  6
DASHED
 62
     4
 10
-73.096405
 20
-108.109520
 11
-68.846390
 21
-108.109520
  0
LINE
  8
0
  6
DASHED
 62
     4
 10
-68.846390
 20
-108.109520
 11
-68.846390
 21
-109.351486
  0
LINE
  8
0
  6
DASHED
 62
     4
 10
-69.096390
 20
-108.109520
 11
-69.096390
 21
-108.909523
  0
LINE
  8
0
  6
DASHED
 62
     4
 10
-73.096405
 20
-108.109520
 11
-73.096405
 21
-108.909523
  0
LINE
  8
0
  6
DASHED
 62
     4
 10
-73.096405
 20
-108.909523
 11
-69.096390
 21
-108.909523
  0
LINE
  8
0
  6
DASHED
 62
     4
 10
-68.896393
 20
-108.109520
 11
-68.896393
 21
-110.109520
  0
LINE
  8
0
  6
DASHED
 62
     4
 10
-68.896393
 20
-110.109520
 11
-68.396393
 21
-110.109520
  0
LINE
  8
0
  6
DASHED
 62
     4
 10
-68.846390
 20
-109.351486
 11
-68.396393
 21
-109.351486
  0
LINE
  8
0
  6
DASHED
 62
     4
 10
-42.596375
 20
-107.309509
 11
-42.596375
 21
-109.909515
  0
LINE
  8
0
  6
CENTER
 62
     1
 10
-44.319275
 20
-108.159439
 11
-32.387207
 21
-108.159439
  0
LINE
  8
0
  6
CENTER
 62
     1
 10
-44.268982
 20
-109.059433
 11
-32.345337
 21
-109.059433
  0
LINE
  8
0
  6
DASHED
 62
     4
 10
-32.596375
 20
-107.909454
 11
-32.596375
 21
-108.409454
  0
LINE
  8
0
  6
DASHED
 62
     4
 10
-32.596375
 20
-108.809448
 11
-32.596375
 21
-109.309448
  0
LINE
  8
0
  6
DASHED
 62
     4
 10
-35.596375
 20
-107.709442
 11
-35.596375
 21
-109.509460
  0
LINE
  8
0
  6
DASHED
 62
     4
 10
-42.596375
 20
-109.509445
 11
-38.590820
 21
-109.509445
  0
LINE
  8
0
  6
DASHED
 62
     4
 10
-42.596375
 20
-108.609421
 11
-39.110413
 21
-108.609421
  0
LINE
  8
0
  6
DASHED
 62
     4
 10
-37.610413
 20
-108.609421
 11
-35.596375
 21
-108.609421
  0
LINE
  8
0
  6
DASHED
 62
     4
 10
-37.090820
 20
-109.509445
 11
-35.596375
 21
-109.509445
  0
LINE
  8
0
  6
DASHED
 62
     4
 10
-42.596375
 20
-107.709427
 11
-39.630066
 21
-107.709427
  0
LINE
  8
0
  6
DASHED
 62
     4
 10
-38.130066
 20
-107.709427
 11
-35.596375
 21
-107.709427
  0
LINE
  8
0
  6
DASHED
 62
     4
 10
-35.596375
 20
-107.909439
 11
-32.596375
 21
-107.909439
  0
LINE
  8
0
  6
DASHED
 62
     4
 10
-35.596375
 20
-108.409439
 11
-32.596375
 21
-108.409439
  0
LINE
  8
0
  6
DASHED
 62
     4
 10
-35.596375
 20
-108.809433
 11
-32.596375
 21
-108.809433
  0
LINE
  8
0
  6
DASHED
 62
     4
 10
-35.596375
 20
-109.309433
 11
-32.596375
 21
-109.309433
  0
LINE
  8
0
 62
     1
 10
-38.860394
 20
-106.444519
 11
-36.360394
 21
-110.774651
  0
LINE
  8
0
  6
CENTER
 62
     1
 10
-52.410767
 20
-108.609512
 11
-42.596375
 21
-108.609512
  0
LINE
  8
0
 62
     1
 10
-40.360477
 20
-106.444489
 11
-37.860477
 21
-110.774620
  0
LINE
  8
0
 62
     1
 10
-47.841175
 20
-106.444481
 11
-45.341175
 21
-110.774605
  0
LINE
  8
0
 62
     1
 10
-49.341114
 20
-106.444534
 11
-46.841114
 21
-110.774658
  0
LINE
  8
0
  6
DASHED
 62
     4
 10
-72.121399
 20
-110.309525
 11
-70.071396
 21
-110.309525
  0
LINE
  8
0
  6
DASHED
 62
     4
 10
-70.070976
 20
-110.309975
 11
-69.845985
 21
-110.084976
  0
LINE
  8
0
  6
DASHED
 62
     4
 10
-72.121338
 20
-110.309532
 11
-72.346336
 21
-110.084534
  0
LINE
  8
0
  6
DASHED
 62
     4
 10
-72.346390
 20
-108.908707
 11
-72.346390
 21
-110.084526
  0
LINE
  8
0
 62
     1
 10
-72.121399
 20
-108.908707
 11
-72.121399
 21
-110.309525
  0
LINE
  8
0
 62
     1
 10
-70.071396
 20
-108.908707
 11
-70.071396
 21
-110.309525
  0
LINE
  8
0
  6
DASHED
 62
     4
 10
-69.846390
 20
-108.908707
 11
-69.846390
 21
-110.084518
  0
LINE
  8
0
  6
DASHED
 62
     4
 10
-72.346390
 20
-110.084526
 11
-69.846390
 21
-110.084526
  0
LINE
  8
0
  6
DASHED
 62
     4
 10
-73.096405
 20
-107.309525
 11
-51.096405
 21
-107.309525
  0
LINE
  8
0
  6
DASHED
 62
     4
 10
-73.096405
 20
-106.759506
 11
-51.096405
 21
-106.759506
  0
LINE
  8
0
  6
DASHED
 62
     4
 10
-51.096405
 20
-107.309509
 11
-48.841705
 21
-107.309509
  0
LINE
  8
0
  6
DASHED
 62
     4
 10
-51.096405
 20
-109.909515
 11
-47.340607
 21
-109.909515
  0
LINE
  8
0
  6
DASHED
 62
     4
 10
-47.341675
 20
-107.309509
 11
-42.596375
 21
-107.309509
  0
LINE
  8
0
  6
DASHED
 62
     4
 10
-45.840576
 20
-109.909515
 11
-42.596375
 21
-109.909515
  0
LINE
  8
0
  6
DASHED
 62
     4
 10
59.714737
 20
-106.309525
 11
75.814743
 21
-106.309525
  0
LINE
  8
0
  6
DASHED
 62
     4
 10
64.414719
 20
-110.909523
 11
81.714737
 21
-110.909523
  0
LINE
  8
0
  6
DASHED
 62
     4
 10
59.714737
 20
-108.909523
 11
59.714737
 21
-106.309525
  0
LINE
  8
0
  6
DASHED
 62
     4
 10
64.414719
 20
-109.291679
 11
64.414719
 21
-110.909523
  0
LINE
  8
0
  6
CENTER
 62
     1
 10
61.714737
 20
-105.579269
 11
61.714737
 21
-111.482193
  0
LINE
  8
0
  6
DASHED
 62
     4
 10
59.714737
 20
-108.109528
 11
63.988541
 21
-108.109528
  0
LINE
  8
0
  6
DASHED
 62
     4
 10
59.714737
 20
-108.909523
 11
63.714737
 21
-108.909523
  0
LINE
  8
0
  6
DASHED
 62
     4
 10
63.714737
 20
-108.109520
 11
63.714737
 21
-108.909523
  0
LINE
  8
0
  6
DASHED
 62
     4
 10
63.914719
 20
-110.109528
 11
64.414719
 21
-110.109528
  0
LINE
  8
0
  6
DASHED
 62
     4
 10
63.914719
 20
-108.109528
 11
63.914719
 21
-110.109528
  0
LINE
  8
0
  6
DASHED
 62
     4
 10
63.988541
 20
-109.291679
 11
64.414719
 21
-109.291679
  0
LINE
  8
0
  6
DASHED
 62
     4
 10
63.988541
 20
-108.109528
 11
63.988541
 21
-109.291679
  0
LINE
  8
0
  6
DASHED
 62
     4
 10
59.714737
 20
-107.309525
 11
81.714737
 21
-107.309525
  0
LINE
  8
0
  6
DASHED
 62
     4
 10
59.714737
 20
-106.759521
 11
81.714737
 21
-106.759521
  0
LINE
  8
0
  6
DASHED
 62
     4
 10
60.689713
 20
-110.309525
 11
62.739731
 21
-110.309525
  0
LINE
  8
0
  6
DASHED
 62
     4
 10
62.740299
 20
-110.310066
 11
62.965290
 21
-110.085068
  0
LINE
  8
0
  6
DASHED
 62
     4
 10
60.689812
 20
-110.309402
 11
60.464825
 21
-110.084419
  0
LINE
  8
0
  6
DASHED
 62
     4
 10
60.464737
 20
-108.909523
 11
60.464737
 21
-110.084526
  0
LINE
  8
0
 62
     1
 10
60.689713
 20
-108.909523
 11
60.689713
 21
-110.309525
  0
LINE
  8
0
 62
     1
 10
62.739731
 20
-108.909523
 11
62.739731
 21
-110.309525
  0
LINE
  8
0
  6
DASHED
 62
     4
 10
62.964737
 20
-108.909523
 11
62.964737
 21
-110.084518
  0
LINE
  8
0
  6
DASHED
 62
     4
 10
60.464737
 20
-110.084526
 11
62.964737
 21
-110.084526
  0
LINE
  8
0
 62
     1
 10
60.689713
 20
-105.809525
 11
60.689713
 21
-106.309525
  0
LINE
  8
0
 62
     1
 10
62.739731
 20
-105.809525
 11
62.739731
 21
-106.309525
  0
LINE
  8
0
  6
DASHED
 62
     4
 10
81.714737
 20
-106.309525
 11
81.714737
 21
-110.909523
  0
LINE
  8
0
 10
116.975525
 20
6.443623
 11
116.975525
 21
-23.556381
  0
LINE
  8
0
 10
128.975525
 20
6.443623
 11
128.975525
 21
-23.556381
  0
LINE
  8
0
 10
140.975525
 20
6.443623
 11
140.975525
 21
-23.556381
  0
LINE
  8
0
 10
152.975525
 20
6.443623
 11
152.975525
 21
-23.556381
  0
LINE
  8
0
 10
164.975525
 20
6.443623
 11
164.975525
 21
-23.556381
  0
LINE
  8
0
 10
176.975525
 20
6.443623
 11
176.975525
 21
-23.556381
  0
LINE
  8
0
 10
188.975525
 20
6.443623
 11
188.975525
 21
-23.556381
  0
LINE
  8
0
 10
91.975525
 20
6.443623
 11
188.975525
 21
6.443623
  0
LINE
  8
0
 10
91.975525
 20
-11.556377
 11
188.975525
 21
-11.556377
  0
LINE
  8
0
 10
91.975525
 20
-17.556377
 11
188.975525
 21
-17.556377
  0
LINE
  8
0
 10
116.975578
 20
-11.556371
 11
114.859650
 21
0.443626
  0
LINE
  8
0
 10
91.975525
 20
0.443623
 11
114.859604
 21
0.443623
  0
LINE
  8
0
 10
91.975525
 20
6.443623
 11
91.975525
 21
-23.556381
  0
LINE
  8
0
 10
91.975525
 20
-23.556381
 11
188.975525
 21
-23.556381
  0
LINE
  8
0
 10
-49.500000
 20
28.000000
 11
12.500000
 21
28.000000
  0
LINE
  8
0
 10
-50.000000
 20
81.500000
 11
-50.000000
 21
28.500000
  0
LINE
  8
0
 10
13.000000
 20
81.500000
 11
13.000000
 21
28.500000
  0
LINE
  8
0
 10
-49.500000
 20
82.000000
 11
12.500000
 21
82.000000
  0
LINE
  8
0
 10
12.999905
 20
81.499924
 11
12.499908
 21
81.999931
  0
LINE
  8
0
 10
12.499979
 20
28.000006
 11
12.999981
 21
28.500004
  0
LINE
  8
0
 10
-50.000000
 20
28.499977
 11
-49.500000
 21
27.999977
  0
LINE
  8
0
 10
-50.000000
 20
81.499969
 11
-49.499996
 21
81.999969
  0
LINE
  8
0
  6
CENTER
 62
     2
 10
-70.103645
 20
55.000000
 11
15.166656
 21
55.000000
  0
LINE
  8
0
  6
CENTER
 62
     2
 10
-25.000000
 20
31.500000
 11
-15.000000
 21
31.500000
  0
LINE
  8
0
  6
CENTER
 62
     2
 10
-25.000000
 20
78.500000
 11
-15.000000
 21
78.500000
  0
LINE
  8
0
  6
CENTER
 62
     2
 10
-35.000000
 20
60.000000
 11
-35.000000
 21
50.000000
  0
LINE
  8
0
  6
CENTER
 62
     2
 10
-20.000000
 20
83.500000
 11
-20.000000
 21
73.500000
  0
LINE
  8
0
  6
CENTER
 62
     2
 10
-5.000000
 20
60.000000
 11
-5.000000
 21
50.000000
  0
LINE
  8
0
  6
CENTER
 62
     2
 10
-20.000000
 20
36.500000
 11
-20.000000
 21
26.500000
  0
LINE
  8
0
 10
-3.000000
 20
82.000000
 11
9.000000
 21
82.000000
  0
LINE
  8
0
 10
-50.000000
 20
59.399994
 11
13.000000
 21
59.399994
  0
LINE
  8
0
 10
-50.000000
 20
56.199997
 11
-38.815765
 21
56.199997
  0
LINE
  8
0
 10
-50.000000
 20
74.699997
 11
-21.249023
 21
74.699997
  0
LINE
  8
0
 10
-50.000000
 20
77.899994
 11
-23.954742
 21
77.899994
  0
LINE
  8
0
 10
-31.184250
 20
56.199997
 11
-8.815765
 21
56.199997
  0
LINE
  8
0
 10
-16.045258
 20
77.899994
 11
13.000000
 21
77.899994
  0
LINE
  8
0
 10
-1.184250
 20
56.199997
 11
13.000000
 21
56.199997
  0
LINE
  8
0
 10
-18.750992
 20
74.699997
 11
13.000000
 21
74.699997
  0
LINE
  8
0
 10
-57.500000
 20
81.500000
 11
-57.500000
 21
28.500000
  0
LINE
  8
0
 10
-65.500000
 20
81.500000
 11
-65.500000
 21
28.500000
  0
LINE
  8
0
 10
-65.500000
 20
81.500000
 11
-57.500000
 21
81.500000
  0
LINE
  8
0
 10
-65.500000
 20
28.500000
 11
-57.500000
 21
28.500000
  0
LINE
  8
0
 10
-57.500000
 20
71.000000
 11
-50.000000
 21
71.000000
  0
LINE
  8
0
 10
-57.500000
 20
63.000000
 11
-50.000000
 21
63.000000
  0
LINE
  8
0
 10
-57.500000
 20
47.000000
 11
-50.000000
 21
47.000000
  0
LINE
  8
0
 10
-57.500000
 20
39.000000
 11
-50.000000
 21
39.000000
  0
LINE
  8
0
  6
CENTER
 62
     2
 10
-61.500000
 20
67.000000
 11
-47.467102
 21
67.000000
  0
LINE
  8
0
  6
CENTER
 62
     2
 10
-61.500000
 20
43.000000
 11
-48.008636
 21
43.000000
  0
LINE
  8
0
  6
CENTER
 62
     2
 10
-61.500000
 20
41.000000
 11
-61.500000
 21
35.000000
  0
LINE
  8
0
  6
CENTER
 62
     2
 10
-61.500000
 20
75.000000
 11
-61.500000
 21
69.000000
  0
LINE
  8
0
  6
CENTER
 62
     2
 10
-64.500000
 20
38.000000
 11
-58.500000
 21
38.000000
  0
LINE
  8
0
  6
CENTER
 62
     2
 10
-64.500000
 20
72.000000
 11
-58.500000
 21
72.000000
  0
LINE
  8
0
 10
-52.400009
 20
58.500000
 11
-52.400009
 21
51.500000
  0
LINE
  8
0
 10
-56.000000
 20
58.500000
 11
-56.000000
 21
51.500000
  0
LINE
  8
0
 10
-55.687393
 20
59.041443
 11
-53.200012
 21
59.041443
  0
LINE
  8
0
 10
-55.687393
 20
57.020721
 11
-53.200012
 21
57.020721
  0
LINE
  8
0
 10
-55.687393
 20
52.979279
 11
-53.200012
 21
52.979279
  0
LINE
  8
0
 10
-55.687393
 20
50.958542
 11
-53.200012
 21
50.958542
  0
LINE
  8
0
 10
-53.200012
 20
59.041443
 11
-53.200012
 21
50.958542
  0
LINE
  8
0
 10
-52.399990
 20
58.499996
 11
-52.087383
 21
59.041447
  0
LINE
  8
0
 10
-52.400120
 20
51.499908
 11
-52.087513
 21
50.958458
  0
LINE
  8
0
 10
-55.999985
 20
58.499996
 11
-55.687393
 21
59.041420
  0
LINE
  8
0
 10
-56.000107
 20
51.499920
 11
-55.687500
 21
50.958469
  0
LINE
  8
0
 10
-50.000114
 20
58.499908
 11
-50.312721
 21
59.041359
  0
LINE
  8
0
 10
-50.000004
 20
51.499969
 11
-50.312611
 21
50.958519
  0
LINE
  8
0
 10
-52.087402
 20
59.041443
 11
-50.312622
 21
59.041443
  0
LINE
  8
0
 10
-52.087402
 20
50.958542
 11
-50.312607
 21
50.958542
  0
LINE
  8
0
 10
-52.087402
 20
52.979279
 11
-50.312607
 21
52.979279
  0
LINE
  8
0
 10
-52.087402
 20
57.020721
 11
-50.312607
 21
57.020721
  0
LINE
  8
0
 10
-53.200012
 20
57.000000
 11
-52.400009
 21
57.000000
  0
LINE
  8
0
 10
-53.200012
 20
53.000000
 11
-52.400009
 21
53.000000
  0
LINE
  8
0
 62
     2
 10
-53.200012
 20
56.729492
 11
-52.400009
 21
56.729492
  0
LINE
  8
0
 62
     2
 10
-53.200012
 20
53.270493
 11
-52.400009
 21
53.270493
  0
LINE
  8
0
 10
-55.500000
 20
69.527847
 11
-55.500000
 21
64.472153
  0
LINE
  8
0
 10
-57.500000
 20
40.472137
 11
-55.500000
 21
40.472137
  0
LINE
  8
0
 10
-57.500000
 20
45.527832
 11
-55.500000
 21
45.527832
  0
LINE
  8
0
 10
-57.500000
 20
69.527832
 11
-55.500000
 21
69.527832
  0
LINE
  8
0
 10
-57.500000
 20
64.472137
 11
-55.500000
 21
64.472137
  0
LINE
  8
0
 10
-55.500000
 20
45.527847
 11
-55.500000
 21
40.472137
  0
LINE
  8
0
 10
-55.500008
 20
45.527832
 11
-57.500008
 21
40.472134
  0
LINE
  8
0
 10
-55.500038
 20
40.472126
 11
-57.500038
 21
45.527828
  0
LINE
  8
0
 10
-57.500057
 20
69.527847
 11
-55.500057
 21
64.472145
  0
LINE
  8
0
 10
-55.500004
 20
69.527855
 11
-57.500011
 21
64.472122
  0
LINE
  8
0
 10
-56.000000
 20
57.750000
 11
-56.000000
 21
52.250000
  0
LINE
  8
0
 10
-57.500000
 20
57.750000
 11
-56.000000
 21
57.750000
  0
LINE
  8
0
 10
-57.500000
 20
52.250000
 11
-56.000000
 21
52.250000
  0
LINE
  8
0
  6
CENTER
 62
     3
 10
-27.500000
 20
92.000000
 11
-27.500000
 21
18.000000
  0
LINE
  8
0
  6
CENTER
 62
     3
 10
-12.500000
 20
86.310394
 11
-12.500000
 21
18.000000
  0
LINE
  8
0
 10
-104.500000
 20
81.500000
 11
-104.500000
 21
28.500000
  0
LINE
  8
0
 10
-124.500000
 20
81.500000
 11
-124.500000
 21
28.500000
  0
LINE
  8
0
 10
-124.500000
 20
81.500000
 11
-104.500000
 21
81.500000
  0
LINE
  8
0
 10
-124.500000
 20
28.500000
 11
-104.500000
 21
28.500000
  0
LINE
  8
0
  6
CENTER
 62
     2
 10
-119.589233
 20
67.000000
 11
-109.701828
 21
67.000000
  0
LINE
  8
0
  6
CENTER
 62
     2
 10
-126.000000
 20
55.000000
 11
-102.333328
 21
55.000000
  0
LINE
  8
0
  6
CENTER
 62
     2
 10
-119.472229
 20
43.000000
 11
-109.643311
 21
43.000000
  0
LINE
  8
0
  6
CENTER
 62
     2
 10
-114.500000
 20
84.666672
 11
-114.500000
 21
24.333328
  0
LINE
  8
0
 10
-104.000000
 20
56.199982
 11
-104.000000
 21
28.500000
  0
LINE
  8
0
 10
-116.100006
 20
82.000000
 11
-124.500015
 21
82.000000
  0
LINE
  8
0
 10
-104.000000
 20
81.500000
 11
-104.000000
 21
77.900009
  0
LINE
  8
0
 10
-125.000000
 20
81.500000
 11
-125.000000
 21
77.900009
  0
LINE
  8
0
 10
-104.500000
 20
82.000000
 11
-112.899994
 21
82.000000
  0
LINE
  8
0
 10
-104.500000
 20
28.000000
 11
-124.500000
 21
28.000000
  0
LINE
  8
0
 10
-104.500015
 20
82.000000
 11
-104.000015
 21
81.500000
  0
LINE
  8
0
 10
-124.999962
 20
81.499969
 11
-124.499977
 21
81.999969
  0
LINE
  8
0
 10
-124.999947
 20
28.500046
 11
-124.499947
 21
28.000046
  0
LINE
  8
0
 10
-103.999969
 20
28.499983
 11
-104.499954
 21
27.999992
  0
LINE
  8
0
 10
-125.000000
 20
56.199982
 11
-125.000000
 21
28.500000
  0
LINE
  8
0
  6
CENTER
 62
     2
 10
-117.500000
 20
31.500000
 11
-111.500000
 21
31.500000
  0
LINE
  8
0
  6
CENTER
 62
     2
 10
-117.500000
 20
78.500000
 11
-111.500000
 21
78.500000
  0
LINE
  8
0
 10
-116.000000
 20
67.866013
 11
-116.000000
 21
66.133972
  0
LINE
  8
0
 10
-113.000000
 20
67.866028
 11
-113.000000
 21
66.133972
  0
LINE
  8
0
 10
-115.999977
 20
67.866074
 11
-114.499977
 21
68.732101
  0
LINE
  8
0
 10
-114.499992
 20
65.267998
 11
-112.999985
 21
66.134026
  0
LINE
  8
0
 10
-115.999992
 20
43.866043
 11
-114.500000
 21
44.732063
  0
LINE
  8
0
 10
-114.499985
 20
41.267960
 11
-113.000000
 21
42.133980
  0
LINE
  8
0
 10
-114.500008
 20
68.732056
 11
-113.000000
 21
67.866028
  0
LINE
  8
0
 10
-116.000008
 20
66.133980
 11
-114.500000
 21
65.267952
  0
LINE
  8
0
 10
-114.499985
 20
44.732044
 11
-112.999992
 21
43.866024
  0
LINE
  8
0
 10
-115.999985
 20
42.133965
 11
-114.499992
 21
41.267944
  0
LINE
  8
0
 10
-116.000000
 20
43.866028
 11
-116.000000
 21
42.133972
  0
LINE
  8
0
 10
-113.000000
 20
43.866028
 11
-113.000000
 21
42.133972
  0
LINE
  8
0
 10
-125.000000
 20
59.400009
 11
-124.500000
 21
59.400009
  0
LINE
  8
0
 10
-125.000000
 20
56.199982
 11
-124.500000
 21
56.199982
  0
LINE
  8
0
 10
-103.999985
 20
59.400009
 11
-104.500000
 21
59.400009
  0
LINE
  8
0
 10
-103.999985
 20
56.199982
 11
-104.500000
 21
56.199982
  0
LINE
  8
0
 10
-112.899994
 20
82.000000
 11
-112.899994
 21
81.500000
  0
LINE
  8
0
 10
-116.100006
 20
82.000000
 11
-116.100006
 21
81.500000
  0
LINE
  8
0
 10
-104.000000
 20
77.900009
 11
-104.500000
 21
77.900009
  0
LINE
  8
0
 10
-104.000000
 20
74.699997
 11
-104.500000
 21
74.699997
  0
LINE
  8
0
 10
-104.000000
 20
74.699997
 11
-104.000000
 21
59.400009
  0
LINE
  8
0
 10
-125.000000
 20
77.900009
 11
-124.500000
 21
77.900009
  0
LINE
  8
0
 10
-125.000000
 20
74.699997
 11
-124.500000
 21
74.699997
  0
LINE
  8
0
 10
-125.000000
 20
74.699997
 11
-125.000000
 21
59.400009
  0
LINE
  8
0
  6
CENTER
 62
     2
 10
-126.500000
 20
78.500000
 11
-123.500000
 21
78.500000
  0
LINE
  8
0
  6
CENTER
 62
     2
 10
-126.500000
 20
31.500000
 11
-123.500000
 21
31.500000
  0
LINE
  8
0
 10
75.000000
 20
81.500000
 11
75.000000
 21
77.900009
  0
LINE
  8
0
 10
54.500000
 20
28.000000
 11
74.499969
 21
28.000000
  0
LINE
  8
0
 10
54.499981
 20
82.000015
 11
53.999992
 21
81.500023
  0
LINE
  8
0
 10
74.999985
 20
81.499947
 11
74.499992
 21
81.999954
  0
LINE
  8
0
 10
74.999962
 20
28.500023
 11
74.499969
 21
28.000032
  0
LINE
  8
0
 10
53.999962
 20
28.499958
 11
54.499950
 21
27.999969
  0
LINE
  8
0
  6
CENTER
 62
     2
 10
52.500000
 20
67.000000
 11
77.500000
 21
67.000000
  0
LINE
  8
0
  6
CENTER
 62
     2
 10
52.166656
 20
55.000000
 11
77.500000
 21
55.000000
  0
LINE
  8
0
  6
CENTER
 62
     2
 10
52.166656
 20
43.000000
 11
77.833344
 21
43.000000
  0
LINE
  8
0
  6
CENTER
 62
     2
 10
64.500000
 20
85.333328
 11
64.500000
 21
25.666656
  0
LINE
  8
0
 10
66.100006
 20
82.000000
 11
74.499969
 21
82.000000
  0
LINE
  8
0
 10
54.000000
 20
56.199997
 11
54.000000
 21
28.500000
  0
LINE
  8
0
 10
75.000000
 20
56.199982
 11
75.000000
 21
28.500000
  0
LINE
  8
0
 10
54.499969
 20
82.000000
 11
62.899994
 21
82.000000
  0
LINE
  8
0
 10
66.600006
 20
80.983536
 11
66.600006
 21
79.383545
  0
LINE
  8
0
 10
66.099930
 20
81.483398
 11
66.599922
 21
80.983414
  0
LINE
  8
0
 10
62.399994
 20
80.983551
 11
62.399994
 21
79.383545
  0
LINE
  8
0
 10
74.000000
 20
55.699982
 11
72.399994
 21
55.699982
  0
LINE
  8
0
 10
74.500038
 20
56.199944
 11
74.000046
 21
55.699955
  0
LINE
  8
0
 10
74.499863
 20
59.399925
 11
73.999870
 21
59.899914
  0
LINE
  8
0
 10
74.000000
 20
59.900009
 11
72.399994
 21
59.900009
  0
LINE
  8
0
 10
62.899994
 20
82.000000
 11
62.899994
 21
81.483551
  0
LINE
  8
0
 10
66.100006
 20
82.000000
 11
66.100006
 21
81.483536
  0
LINE
  8
0
 10
75.000000
 20
59.400009
 11
74.500000
 21
59.400009
  0
LINE
  8
0
 10
75.000000
 20
56.199982
 11
74.500000
 21
56.199982
  0
LINE
  8
0
 10
62.400013
 20
80.983566
 11
62.900013
 21
81.483566
  0
LINE
  8
0
  6
CENTER
 62
     2
 10
52.166656
 20
57.799988
 11
76.666611
 21
57.799988
  0
LINE
  8
0
  6
CENTER
 62
     2
 10
52.166656
 20
76.300003
 11
76.333282
 21
76.300003
  0
LINE
  8
0
 10
55.000122
 20
78.400009
 11
56.599976
 21
78.400009
  0
LINE
  8
0
 10
54.000000
 20
74.699997
 11
54.499817
 21
74.699997
  0
LINE
  8
0
 10
55.000000
 20
74.200012
 11
56.599976
 21
74.200012
  0
LINE
  8
0
 10
54.499863
 20
74.699913
 11
54.999897
 21
74.199883
  0
LINE
  8
0
 10
54.000000
 20
74.699997
 11
54.000000
 21
59.400009
  0
LINE
  8
0
 10
74.000000
 20
74.199997
 11
72.399994
 21
74.199997
  0
LINE
  8
0
 10
74.500053
 20
74.699944
 11
74.000061
 21
74.199951
  0
LINE
  8
0
 10
74.499878
 20
77.899925
 11
73.999893
 21
78.399918
  0
LINE
  8
0
 10
74.000000
 20
78.400009
 11
72.399994
 21
78.400009
  0
LINE
  8
0
 10
75.000000
 20
77.900009
 11
74.500000
 21
77.900009
  0
LINE
  8
0
 10
75.000000
 20
74.699997
 11
74.500000
 21
74.699997
  0
LINE
  8
0
 10
75.000000
 20
74.699997
 11
75.000000
 21
59.400009
  0
LINE
  8
0
 10
55.000000
 20
59.899994
 11
56.599976
 21
59.899994
  0
LINE
  8
0
 10
54.000000
 20
56.199997
 11
54.500092
 21
56.199997
  0
LINE
  8
0
 10
54.000000
 20
59.400009
 11
54.499771
 21
59.400009
  0
LINE
  8
0
 10
54.500000
 20
56.200062
 11
55.000000
 21
55.700062
  0
LINE
  8
0
 10
55.000000
 20
55.699997
 11
56.599976
 21
55.699997
  0
LINE
  8
0
 10
54.499851
 20
59.400089
 11
54.999886
 21
59.900124
  0
LINE
  8
0
 10
54.000000
 20
77.900009
 11
54.499817
 21
77.900009
  0
LINE
  8
0
 10
54.499882
 20
77.900085
 11
54.999905
 21
78.400108
  0
LINE
  8
0
 10
54.000000
 20
77.900009
 11
54.000000
 21
81.500031
  0
LINE
  8
0
  6
CENTER
 62
     2
 10
73.500000
 20
78.500000
 11
76.500000
 21
78.500000
  0
LINE
  8
0
  6
CENTER
 62
     2
 10
73.500000
 20
31.500000
 11
76.500000
 21
31.500000
  0
LINE
  8
0
 10
-49.500000
 20
8.000000
 11
12.500000
 21
8.000000
  0
LINE
  8
0
 10
-49.500000
 20
-13.000000
 11
12.500000
 21
-13.000000
  0
LINE
  8
0
 10
-50.000000
 20
7.500000
 11
-50.000000
 21
-12.500000
  0
LINE
  8
0
 10
13.000000
 20
7.500000
 11
13.000000
 21
-12.500000
  0
LINE
  8
0
 10
12.999967
 20
7.499979
 11
12.499977
 21
7.999969
  0
LINE
  8
0
 10
12.999958
 20
-12.499964
 11
12.499958
 21
-12.999964
  0
LINE
  8
0
 10
-49.999996
 20
-12.499990
 11
-49.499996
 21
-12.999990
  0
LINE
  8
0
  6
CENTER
 62
     2
 10
-72.034592
 20
-2.500000
 11
16.166656
 21
-2.500000
  0
LINE
  8
0
 10
-21.936493
 20
8.000000
 11
-21.936493
 21
2.500015
  0
LINE
  8
0
 10
-18.063507
 20
8.000000
 11
-18.063507
 21
2.500015
  0
LINE
  8
0
 10
-21.936493
 20
-7.499985
 11
-21.936493
 21
-13.000000
  0
LINE
  8
0
 10
-18.063507
 20
-7.499985
 11
-18.063507
 21
-13.000000
  0
LINE
  8
0
  6
CENTER
 62
     2
 10
-28.000000
 20
1.000000
 11
-28.000000
 21
-6.000000
  0
LINE
  8
0
  6
CENTER
 62
     2
 10
3.000000
 20
1.000000
 11
3.000000
 21
-6.000000
  0
LINE
  8
0
 10
-65.500000
 20
7.500000
 11
-57.500000
 21
7.500000
  0
LINE
  8
0
 10
-65.500000
 20
-12.500000
 11
-57.500000
 21
-12.500000
  0
LINE
  8
0
 10
-65.500000
 20
7.500000
 11
-65.500000
 21
-12.500000
  0
LINE
  8
0
 10
-57.500000
 20
7.500000
 11
-57.500000
 21
-12.500000
  0
LINE
  8
0
 10
-55.500000
 20
1.500000
 11
-50.000000
 21
1.500000
  0
LINE
  8
0
 10
-55.500000
 20
-6.500000
 11
-50.000000
 21
-6.500000
  0
LINE
  8
0
 10
-52.400009
 20
-6.500000
 11
-52.400009
 21
-9.458542
  0
LINE
  8
0
 10
-53.200012
 20
-6.500000
 11
-53.200012
 21
-10.000000
  0
LINE
  8
0
 10
-56.000000
 20
-6.500000
 11
-56.000000
 21
-9.458588
  0
LINE
  8
0
 10
-55.687393
 20
-10.000000
 11
-53.200012
 21
-10.000000
  0
LINE
  8
0
 10
-52.087410
 20
-9.999990
 11
-52.400017
 21
-9.458539
  0
LINE
  8
0
 10
-55.687420
 20
-10.000000
 11
-56.000034
 21
-9.458535
  0
LINE
  8
0
 10
-50.312637
 20
-9.999958
 11
-50.000034
 21
-9.458507
  0
LINE
  8
0
 10
-52.087402
 20
-10.000000
 11
-50.312622
 21
-10.000000
  0
LINE
  8
0
 10
-53.200012
 20
-8.500000
 11
-52.400009
 21
-8.500000
  0
LINE
  8
0
 62
     2
 10
-53.200012
 20
-8.229492
 11
-52.400009
 21
-8.229492
  0
LINE
  8
0
 10
-55.500000
 20
1.500000
 11
-55.500000
 21
0.600006
  0
LINE
  8
0
 10
-57.500000
 20
0.600006
 11
-55.500000
 21
0.600006
  0
LINE
  8
0
 10
-57.500000
 20
-5.599991
 11
-55.500000
 21
-5.599991
  0
LINE
  8
0
 10
-55.500000
 20
-5.599991
 11
-55.500000
 21
-6.500000
  0
LINE
  8
0
 10
-56.000000
 20
-5.599991
 11
-56.000000
 21
-9.000000
  0
LINE
  8
0
 10
-57.500000
 20
-9.000000
 11
-56.000000
 21
-9.000000
  0
LINE
  8
0
  6
CENTER
 62
     2
 10
-57.067856
 20
-6.500000
 11
-40.475525
 21
-6.500000
  0
LINE
  8
0
 10
-21.936493
 20
2.500015
 11
-18.063507
 21
2.500015
  0
LINE
  8
0
 10
-21.936493
 20
-7.499985
 11
-18.063507
 21
-7.499985
  0
LINE
  8
0
 10
-49.500000
 20
7.999998
 11
-50.000000
 21
7.499997
  0
LINE
  8
0
  6
CENTER
 62
     2
 10
-35.000000
 20
-11.500000
 11
-35.000000
 21
-14.500000
  0
LINE
  8
0
  6
CENTER
 62
     2
 10
-20.000000
 20
-11.500000
 11
-20.000000
 21
-14.500000
  0
LINE
  8
0
  6
CENTER
 62
     2
 10
-5.000000
 20
-11.500000
 11
-5.000000
 21
-14.500000
  0
LINE
  8
0
  6
PHANTOM
 62
     3
 10
-24.000000
 20
18.000000
 11
-24.000000
 21
-21.000000
  0
LINE
  8
0
  6
PHANTOM
 62
     3
 10
-12.500000
 20
18.000000
 11
-12.500000
 21
-21.000000
  0
LINE
  8
0
  6
PHANTOM
 62
     3
 10
-27.500000
 20
18.000000
 11
-24.000000
 21
18.000000
  0
LINE
  8
0
  6
CENTER
 62
     1
 10
-71.096390
 20
-105.502808
 11
-71.096390
 21
-111.741425
  0
LINE
  8
0
 62
     4
 10
-72.346390
 20
-105.809525
 11
-72.346390
 21
-106.309525
  0
LINE
  8
0
 62
     1
 10
-72.121399
 20
-105.809525
 11
-72.121399
 21
-106.309525
  0
LINE
  8
0
 62
     1
 10
-70.071396
 20
-105.809525
 11
-70.071396
 21
-106.309525
  0
LINE
  8
0
 62
     4
 10
-69.846390
 20
-105.809525
 11
-69.846390
 21
-106.309525
  0
LINE
  8
0
 62
     4
 10
-72.346390
 20
-105.809525
 11
-69.846390
 21
-105.809525
  0
LINE
  8
0
  6
CENTER
 62
     1
 10
-117.639130
 20
-104.256554
 11
-117.639130
 21
-112.969315
  0
LINE
  8
0
 62
     4
 10
-119.689117
 20
-107.309525
 11
-119.689117
 21
-108.859520
  0
LINE
  8
0
 62
     4
 10
-119.689178
 20
-107.309479
 11
-119.139191
 21
-106.759491
  0
LINE
  8
0
 62
     4
 10
-119.139130
 20
-106.309525
 11
-119.139130
 21
-106.759521
  0
LINE
  8
0
 62
     4
 10
-119.139130
 20
-106.309525
 11
-116.139130
 21
-106.309525
  0
LINE
  8
0
 62
     4
 10
-116.139130
 20
-106.309525
 11
-116.139130
 21
-106.759521
  0
LINE
  8
0
 62
     4
 10
-115.589134
 20
-107.309479
 11
-116.139137
 21
-106.759483
  0
LINE
  8
0
 62
     4
 10
-115.589127
 20
-107.309525
 11
-115.589127
 21
-108.859520
  0
LINE
  8
0
 62
     4
 10
-119.689117
 20
-108.109520
 11
-115.589127
 21
-108.109520
  0
LINE
  8
0
 62
     4
 10
-119.689133
 20
-108.908707
 11
-115.589127
 21
-108.908707
  0
LINE
  8
0
 62
     4
 10
-118.664139
 20
-110.309525
 11
-116.614136
 21
-110.309525
  0
LINE
  8
0
 62
     4
 10
-116.613678
 20
-110.309975
 11
-116.388680
 21
-110.084961
  0
LINE
  8
0
 62
     4
 10
-118.664131
 20
-110.309570
 11
-118.889122
 21
-110.084579
  0
LINE
  8
0
 62
     4
 10
-118.889130
 20
-108.908707
 11
-118.889130
 21
-110.084526
  0
LINE
  8
0
 62
     1
 10
-118.664139
 20
-108.908707
 11
-118.664139
 21
-110.309525
  0
LINE
  8
0
 62
     1
 10
-116.614136
 20
-108.908707
 11
-116.614136
 21
-110.309525
  0
LINE
  8
0
 62
     4
 10
-116.389130
 20
-108.908707
 11
-116.389130
 21
-110.084518
  0
LINE
  8
0
 62
     4
 10
-118.889130
 20
-110.084526
 11
-116.389130
 21
-110.084526
  0
LINE
  8
0
 62
     4
 10
-118.889130
 20
-105.809525
 11
-118.889130
 21
-106.309525
  0
LINE
  8
0
 62
     1
 10
-118.664139
 20
-105.809525
 11
-118.664139
 21
-106.309525
  0
LINE
  8
0
 62
     1
 10
-116.614136
 20
-105.809525
 11
-116.614136
 21
-106.309525
  0
LINE
  8
0
 62
     4
 10
-116.389130
 20
-105.809525
 11
-116.389130
 21
-106.309525
  0
LINE
  8
0
 62
     4
 10
-118.889130
 20
-105.809525
 11
-116.389130
 21
-105.809525
  0
LINE
  8
0
  6
CENTER
 62
     1
 10
-75.896942
 20
-63.759521
 11
-45.688889
 21
-63.759521
  0
LINE
  8
0
 62
     4
 10
-73.096405
 20
-65.259521
 11
-51.096405
 21
-65.259521
  0
LINE
  8
0
 62
     4
 10
-73.096405
 20
-62.259521
 11
-51.096405
 21
-62.259521
  0
LINE
  8
0
  6
CENTER
 62
     1
 10
-71.096390
 20
-60.923019
 11
-71.096390
 21
-66.512344
  0
LINE
  8
0
 62
     1
 10
-50.007172
 20
-61.594421
 11
-47.507168
 21
-65.924553
  0
LINE
  8
0
 62
     4
 10
-51.096405
 20
-62.459518
 11
-49.507751
 21
-62.459518
  0
LINE
  8
0
 62
     4
 10
-51.096405
 20
-65.059525
 11
-48.006622
 21
-65.059525
  0
LINE
  8
0
 62
     4
 10
-72.105865
 20
-64.486176
 11
-70.360863
 21
-62.741173
  0
LINE
  8
0
 62
     4
 10
-71.823044
 20
-64.768997
 11
-70.078041
 21
-63.023994
  0
LINE
  8
0
 62
     4
 10
-73.096405
 20
-62.159523
 11
-73.096405
 21
-65.359520
  0
LINE
  8
0
 62
     4
 10
-51.096405
 20
-62.159523
 11
-51.096405
 21
-65.359520
  0
LINE
  8
0
 62
     4
 10
81.714737
 20
-99.409523
 11
81.714737
 21
-106.309525
  0
LINE
  8
0
  6
CENTER
 62
     1
 10
61.714737
 20
-105.579269
 11
61.714737
 21
-111.482193
  0
LINE
  8
0
 62
     4
 10
75.814713
 20
-99.409523
 11
75.814713
 21
-106.309525
  0
LINE
  8
0
 62
     4
 10
75.814743
 20
-99.409523
 11
81.714737
 21
-99.409523
  0
LINE
  8
0
 62
     4
 10
75.814713
 20
-105.159508
 11
81.714737
 21
-105.159508
  0
LINE
  8
0
 62
     4
 10
75.814713
 20
-105.909508
 11
81.714737
 21
-105.909508
  0
LINE
  8
0
 62
     4
 10
75.814713
 20
-100.909523
 11
81.714737
 21
-100.909523
  0
LINE
  8
0
 62
     4
 10
77.822098
 20
-90.909485
 11
80.422073
 21
-90.909485
  0
LINE
  8
0
  6
CENTER
 62
     1
 10
78.672012
 20
-92.632416
 11
78.672012
 21
-80.700333
  0
LINE
  8
0
  6
CENTER
 62
     1
 10
79.572006
 20
-92.582123
 11
79.572006
 21
-80.658478
  0
LINE
  8
0
 62
     4
 10
78.422012
 20
-80.909485
 11
78.922012
 21
-80.909485
  0
LINE
  8
0
 62
     4
 10
79.322006
 20
-80.909485
 11
79.822006
 21
-80.909485
  0
LINE
  8
0
 62
     4
 10
78.222000
 20
-83.909485
 11
80.022018
 21
-83.909485
  0
LINE
  8
0
 62
     4
 10
80.022018
 20
-90.909485
 11
80.022018
 21
-86.903938
  0
LINE
  8
0
 62
     4
 10
79.121994
 20
-90.909485
 11
79.121994
 21
-87.423553
  0
LINE
  8
0
 62
     4
 10
79.121994
 20
-85.923553
 11
79.121994
 21
-83.909485
  0
LINE
  8
0
 62
     4
 10
80.022018
 20
-85.403938
 11
80.022018
 21
-83.909485
  0
LINE
  8
0
 62
     4
 10
78.222000
 20
-90.909485
 11
78.222000
 21
-87.943176
  0
LINE
  8
0
 62
     4
 10
78.222000
 20
-86.443176
 11
78.222000
 21
-83.909485
  0
LINE
  8
0
 62
     4
 10
78.422012
 20
-83.909485
 11
78.422012
 21
-80.909485
  0
LINE
  8
0
 62
     4
 10
78.922012
 20
-83.909485
 11
78.922012
 21
-80.909485
  0
LINE
  8
0
 62
     4
 10
79.322006
 20
-83.909485
 11
79.322006
 21
-80.909485
  0
LINE
  8
0
 62
     4
 10
79.822006
 20
-83.909485
 11
79.822006
 21
-80.909485
  0
LINE
  8
0
 62
     1
 10
76.957130
 20
-87.173645
 11
81.287277
 21
-84.673630
  0
LINE
  8
0
  6
CENTER
 62
     1
 10
79.122086
 20
-100.723892
 11
79.122086
 21
-90.909485
  0
LINE
  8
0
 62
     1
 10
76.957039
 20
-88.673637
 11
81.287193
 21
-86.173622
  0
LINE
  8
0
 62
     1
 10
76.957024
 20
-96.154343
 11
81.287155
 21
-93.654343
  0
LINE
  8
0
 62
     1
 10
76.957069
 20
-97.654335
 11
81.287193
 21
-95.154343
  0
LINE
  8
0
 62
     4
 10
60.464737
 20
-105.809525
 11
60.464737
 21
-106.309525
  0
LINE
  8
0
 62
     1
 10
60.689713
 20
-105.809525
 11
60.689713
 21
-106.309525
  0
LINE
  8
0
 62
     1
 10
62.739731
 20
-105.809525
 11
62.739731
 21
-106.309525
  0
LINE
  8
0
 62
     4
 10
62.964737
 20
-105.809525
 11
62.964737
 21
-106.309525
  0
LINE
  8
0
 62
     4
 10
60.464737
 20
-105.809525
 11
62.964737
 21
-105.809525
  0
LINE
  8
0
 62
     4
 10
80.422073
 20
-99.409523
 11
80.422073
 21
-95.653687
  0
LINE
  8
0
 62
     4
 10
77.822098
 20
-99.409523
 11
77.822098
 21
-97.154778
  0
LINE
  8
0
 62
     4
 10
77.822098
 20
-95.654793
 11
77.822098
 21
-90.909485
  0
LINE
  8
0
 62
     4
 10
80.422073
 20
-94.153694
 11
80.422073
 21
-90.909485
  0
LINE
  8
0
 62
     4
 10
14.422012
 20
-100.909523
 11
18.922012
 21
-100.909523
  0
LINE
  8
0
 62
     4
 10
14.422012
 20
-99.409523
 11
14.422012
 21
-105.159523
  0
LINE
  8
0
 62
     4
 10
15.171953
 20
-105.909485
 11
14.421990
 21
-105.159523
  0
LINE
  8
0
 62
     4
 10
15.172012
 20
-106.759521
 11
15.172012
 21
-105.909523
  0
LINE
  8
0
 62
     4
 10
14.621996
 20
-107.309479
 11
15.172006
 21
-106.759468
  0
LINE
  8
0
 62
     4
 10
14.621994
 20
-107.309525
 11
14.621994
 21
-108.859520
  0
LINE
  8
0
 62
     4
 10
18.722000
 20
-107.309525
 11
18.722000
 21
-108.859520
  0
LINE
  8
0
 62
     4
 10
18.721994
 20
-107.309563
 11
18.171984
 21
-106.759552
  0
LINE
  8
0
 62
     4
 10
18.172012
 20
-106.759521
 11
18.172012
 21
-105.909523
  0
LINE
  8
0
 62
     4
 10
18.172070
 20
-105.909622
 11
18.922064
 21
-105.159630
  0
LINE
  8
0
 62
     4
 10
18.922012
 20
-99.409523
 11
18.922012
 21
-105.159523
  0
LINE
  8
0
  6
CENTER
 62
     1
 10
16.672012
 20
-93.748566
 11
16.672012
 21
-112.376190
  0
LINE
  8
0
 62
     4
 10
15.172012
 20
-106.309525
 11
18.172012
 21
-106.309525
  0
LINE
  8
0
 62
     4
 10
14.621994
 20
-108.109520
 11
18.722000
 21
-108.109520
  0
LINE
  8
0
 62
     4
 10
14.621994
 20
-108.911972
 11
18.722000
 21
-108.911972
  0
LINE
  8
0
 62
     4
 10
14.422012
 20
-99.409523
 11
18.922012
 21
-99.409523
  0
LINE
  8
0
 62
     1
 10
14.507029
 20
-97.654343
 11
18.837154
 21
-95.154343
  0
LINE
  8
0
 62
     4
 10
15.646988
 20
-110.309525
 11
17.697006
 21
-110.309525
  0
LINE
  8
0
 62
     4
 10
17.697531
 20
-110.310066
 11
17.922522
 21
-110.085068
  0
LINE
  8
0
 62
     4
 10
15.647052
 20
-110.309448
 11
15.422046
 21
-110.084442
  0
LINE
  8
0
 62
     4
 10
15.422012
 20
-108.911972
 11
15.422012
 21
-110.084526
  0
LINE
  8
0
 62
     1
 10
15.646988
 20
-108.911972
 11
15.646988
 21
-110.309525
  0
LINE
  8
0
 62
     1
 10
17.697006
 20
-108.911972
 11
17.697006
 21
-110.309525
  0
LINE
  8
0
 62
     4
 10
17.922012
 20
-108.911972
 11
17.922012
 21
-110.084518
  0
LINE
  8
0
 62
     4
 10
15.422012
 20
-110.084526
 11
17.922012
 21
-110.084526
  0
LINE
  8
0
 62
     4
 10
15.422012
 20
-105.809525
 11
15.422012
 21
-106.309525
  0
LINE
  8
0
 62
     1
 10
15.646988
 20
-105.809525
 11
15.646988
 21
-106.309525
  0
LINE
  8
0
 62
     1
 10
17.697006
 20
-105.809525
 11
17.697006
 21
-106.309525
  0
LINE
  8
0
 62
     4
 10
17.922012
 20
-105.809525
 11
17.922012
 21
-106.309525
  0
LINE
  8
0
 62
     4
 10
15.422012
 20
-105.809525
 11
17.922012
 21
-105.809525
  0
LINE
  8
0
 62
     4
 10
15.372025
 20
-97.154800
 11
15.372025
 21
-99.409523
  0
LINE
  8
0
 62
     4
 10
17.972000
 20
-95.653702
 11
17.972000
 21
-99.409523
  0
LINE
  8
0
  6
CENTER
 62
     1
 10
58.385544
 20
-58.709511
 11
83.294724
 21
-58.709511
  0
LINE
  8
0
 62
     4
 10
59.714737
 20
-60.209511
 11
76.275345
 21
-60.209511
  0
LINE
  8
0
 62
     4
 10
59.714737
 20
-57.209511
 11
76.275345
 21
-57.209511
  0
LINE
  8
0
 62
     4
 10
59.714737
 20
-57.109512
 11
59.714737
 21
-60.309509
  0
LINE
  8
0
  6
CENTER
 62
     1
 10
61.714737
 20
-55.873001
 11
61.714737
 21
-61.462326
  0
LINE
  8
0
 62
     4
 10
76.800705
 20
-56.459511
 11
81.714737
 21
-56.459511
  0
LINE
  8
0
 62
     4
 10
76.800705
 20
-60.959511
 11
81.714737
 21
-60.959511
  0
LINE
  8
0
 62
     4
 10
81.714737
 20
-56.459503
 11
81.714737
 21
-60.959503
  0
LINE
  8
0
 62
     4
 10
60.705280
 20
-59.436165
 11
62.450279
 21
-57.691162
  0
LINE
  8
0
 62
     4
 10
60.988091
 20
-59.718975
 11
62.733093
 21
-57.973976
  0
CIRCLE
  8
0
 10
-35.000000
 20
55.000000
 40
2.250000
  0
CIRCLE
  8
0
 10
-20.000000
 20
78.500000
 40
2.250000
  0
CIRCLE
  8
0
 10
-5.000000
 20
55.000000
 40
2.250000
  0
CIRCLE
  8
0
 10
-20.000000
 20
31.500000
 40
2.250000
  0
CIRCLE
  8
0
 10
-35.000000
 20
55.000000
 40
4.000000
  0
CIRCLE
  8
0
 10
-5.000000
 20
55.000000
 40
4.000000
  0
ARC
  8
0
 10
-20.000000
 20
31.500000
 40
4.000000
 50
0.000000
 51
241.044922
  0
ARC
  8
0
 10
-20.000000
 20
78.500000
 40
4.000001
 50
118.955063
 51
61.044937
  0
ARC
  8
0
 10
-20.000000
 20
31.500000
 40
4.000000
 50
298.955048
 51
0.000000
  0
CIRCLE
  8
0
 62
     2
 10
-61.500000
 20
72.000000
 40
2.000000
  0
CIRCLE
  8
0
 62
     2
 10
-61.500000
 20
38.000000
 40
2.000000
  0
CIRCLE
  8
0
 10
-61.500000
 20
72.000000
 40
1.729500
  0
CIRCLE
  8
0
 10
-61.500000
 20
38.000000
 40
1.729500
  0
ARC
  8
0
 10
-50.610931
 20
58.031082
 40
1.789073
 50
145.615784
 51
214.384216
  0
ARC
  8
0
 10
-45.712616
 20
55.000000
 40
6.687390
 50
162.412048
 51
197.587921
  0
ARC
  8
0
 10
-50.610931
 20
51.968903
 40
1.789079
 50
145.615753
 51
214.384140
  0
ARC
  8
0
 10
-54.210922
 20
58.031082
 40
1.789073
 50
145.615784
 51
214.384216
  0
ARC
  8
0
 10
-49.312622
 20
55.000000
 40
6.687390
 50
162.412048
 51
197.587921
  0
ARC
  8
0
 10
-54.210922
 20
51.968903
 40
1.789079
 50
145.615753
 51
214.384140
  0
ARC
  8
0
 10
-51.789078
 20
58.031082
 40
1.789073
 50
325.615784
 51
34.384212
  0
ARC
  8
0
 10
-56.687393
 20
55.000000
 40
6.687390
 50
342.412048
 51
17.587883
  0
ARC
  8
0
 10
-51.789078
 20
51.968903
 40
1.789079
 50
325.615753
 51
34.384144
  0
CIRCLE
  8
0
 62
     2
 10
-114.500000
 20
78.500000
 40
2.000000
  0
CIRCLE
  8
0
 62
     2
 10
-114.500000
 20
31.500000
 40
2.000000
  0
CIRCLE
  8
0
 10
-114.500000
 20
78.500000
 40
1.729500
  0
CIRCLE
  8
0
 10
-114.500000
 20
31.500000
 40
1.729500
  0
CIRCLE
  8
0
 10
-114.500000
 20
67.000000
 40
3.500000
  0
CIRCLE
  8
0
 10
-114.500000
 20
43.000000
 40
3.500000
  0
CIRCLE
  8
0
 10
-114.500000
 20
67.000000
 40
2.980377
  0
CIRCLE
  8
0
 10
-114.500000
 20
43.000000
 40
2.980381
  0
CIRCLE
  8
0
 10
-114.500000
 20
43.000000
 40
3.900000
  0
CIRCLE
  8
0
 10
-114.500000
 20
67.000000
 40
3.900000
  0
CIRCLE
  8
0
 10
64.500000
 20
67.000000
 40
9.000000
  0
CIRCLE
  8
0
 10
64.500000
 20
43.000000
 40
9.000000
  0
ARC
  8
0
 10
64.500000
 20
79.383530
 40
2.099998
 50
180.000000
 51
0.000000
  0
ARC
  8
0
 10
72.399994
 20
57.799988
 40
2.099998
 50
90.000000
 51
270.000000
  0
ARC
  8
0
 10
56.599976
 20
76.300003
 40
2.099998
 50
270.000000
 51
90.000000
  0
ARC
  8
0
 10
72.399994
 20
76.300003
 40
2.099998
 50
90.000000
 51
270.000000
  0
ARC
  8
0
 10
56.599976
 20
57.800003
 40
2.099998
 50
270.000000
 51
89.999893
  0
CIRCLE
  8
0
 62
     2
 10
-28.000000
 20
-2.500000
 40
2.500000
  0
CIRCLE
  8
0
 62
     2
 10
3.000000
 20
-2.500000
 40
2.500000
  0
CIRCLE
  8
0
 10
-28.000000
 20
-2.500000
 40
2.229500
  0
CIRCLE
  8
0
 10
3.000000
 20
-2.500000
 40
2.229500
  0
ARC
  8
0
 10
-47.345398
 20
-8.250000
 40
5.054613
 50
159.743805
 51
200.256119
  0
ARC
  8
0
 10
-50.945389
 20
-8.250000
 40
5.054613
 50
159.743805
 51
200.256119
  0
ARC
  8
0
 10
-55.054626
 20
-8.250000
 40
5.054616
 50
339.743835
 51
20.256126
  0
ARC
  8
0
 62
     4
 10
-117.639130
 20
-108.859520
 40
2.050003
 50
180.000000
 51
270.000000
  0
ARC
  8
0
 62
     4
 10
-117.639130
 20
-108.859520
 40
2.050003
 50
270.000000
 51
0.000000
  0
CIRCLE
  8
0
 62
     1
 10
-71.096390
 20
-63.765808
 40
1.000000
  0
CIRCLE
  8
0
 62
     4
 10
-71.096390
 20
-63.765808
 40
1.250000
  0
ARC
  8
0
 62
     4
 10
16.672012
 20
-108.859520
 40
2.050000
 50
180.000000
 51
270.000000
  0
ARC
  8
0
 62
     4
 10
16.672012
 20
-108.859520
 40
2.050003
 50
271.259949
 51
0.000000
  0
ARC
  8
0
 62
     4
 10
79.214737
 20
-58.709511
 40
3.300002
 50
137.014145
 51
222.985855
  0
CIRCLE
  8
0
 62
     4
 10
79.122086
 20
-58.709511
 40
1.300000
  0
CIRCLE
  8
0
 62
     4
 10
79.443893
 20
-59.050514
 40
0.450000
  0
CIRCLE
  8
0
 62
     4
 10
78.832016
 20
-58.391357
 40
0.450000
  0
CIRCLE
  8
0
 62
     4
 10
79.443893
 20
-59.050514
 40
0.250000
  0
CIRCLE
  8
0
 62
     4
 10
78.832016
 20
-58.391357
 40
0.250000
  0
CIRCLE
  8
0
 62
     1
 10
61.714737
 20
-58.715797
 40
1.000000
  0
CIRCLE
  8
0
 62
     4
 10
61.714737
 20
-58.715797
 40
1.250000
  0
TEXT
  8
0
 10
115.907150
 20
122.050003
 40
4.500000
  1
DATE : APR ,1994
 50
0.000000
 41
1.052631
 51
0.000000
  7
STANDARD
  0
TEXT
  8
0
 10
113.700279
 20
-130.669998
 40
6.300000
  1
KOGANEI CORP.
 50
0.000000
 41
1.052632
 51
0.000000
  7
STANDARD
  0
TEXT
  8
0
 10
-190.392654
 20
122.050003
 40
4.500000
  1
TWIN ROD CYLINDER
 50
0.000000
 41
1.052632
 51
0.000000
  7
STANDARD
  0
TEXT
  8
0
 10
-186.892654
 20
104.550003
 40
4.500000
  1
MODEL:TBSA16*ST(10)
 50
0.000000
 41
1.052632
 51
0.000000
  7
STANDARD
  0
TEXT
  8
0
 62
     3
 10
-15.723754
 20
87.875481
 40
3.200000
  1
STRETCH LINE B
 50
0.000000
 41
1.052632
 51
0.000000
  7
STANDARD
  0
TEXT
  8
0
 62
     3
 10
-31.415108
 20
94.901222
 40
3.200000
  1
STRETCH LINE A
 50
0.000000
 41
1.052632
 51
0.000000
  7
STANDARD
  0
TEXT
  8
0
 10
95.668526
 20
1.563622
 40
3.200000
  1
STROKE
 50
0.000000
 41
1.052632
 51
0.000000
  7
STANDARD
  0
TEXT
  8
0
 10
121.068527
 20
7.563622
 40
3.200000
  1
STRETCH LIST
 50
0.000000
 41
1.052632
 51
0.000000
  7
STANDARD
  0
TEXT
  8
0
 10
179.568527
 20
-4.436378
 40
3.200000
  1
60
 50
0.000000
 41
1.052632
 51
0.000000
  7
STANDARD
  0
TEXT
  8
0
 10
167.568527
 20
-4.436378
 40
3.200000
  1
50
 50
0.000000
 41
1.052632
 51
0.000000
  7
STANDARD
  0
TEXT
  8
0
 10
155.568527
 20
-4.436378
 40
3.200000
  1
40
 50
0.000000
 41
1.052632
 51
0.000000
  7
STANDARD
  0
TEXT
  8
0
 10
143.568527
 20
-4.436378
 40
3.200000
  1
30
 50
0.000000
 41
1.052632
 51
0.000000
  7
STANDARD
  0
TEXT
  8
0
 10
131.568527
 20
-4.436378
 40
3.200000
  1
20
 50
0.000000
 41
1.052632
 51
0.000000
  7
STANDARD
  0
TEXT
  8
0
 10
119.568527
 20
-4.436378
 40
3.200000
  1
10
 50
0.000000
 41
1.052632
 51
0.000000
  7
STANDARD
  0
TEXT
  8
0
 10
179.568527
 20
-16.436378
 40
3.200000
  1
30
 50
0.000000
 41
1.052632
 51
0.000000
  7
STANDARD
  0
TEXT
  8
0
 10
167.568527
 20
-16.436378
 40
3.200000
  1
25
 50
0.000000
 41
1.052632
 51
0.000000
  7
STANDARD
  0
TEXT
  8
0
 10
155.568527
 20
-16.436378
 40
3.200000
  1
20
 50
0.000000
 41
1.052632
 51
0.000000
  7
STANDARD
  0
TEXT
  8
0
 10
143.568527
 20
-16.436378
 40
3.200000
  1
10
 50
0.000000
 41
1.052632
 51
0.000000
  7
STANDARD
  0
TEXT
  8
0
 10
121.168526
 20
-16.436377
 40
3.200000
  1
0
 50
0.000000
 41
1.052632
 51
0.000000
  7
STANDARD
  0
TEXT
  8
0
 10
176.368530
 20
7.563622
 40
3.200000
  1
(mm)
 50
0.000000
 41
1.052632
 51
0.000000
  7
STANDARD
  0
TEXT
  8
0
 10
92.465004
 20
-5.056375
 40
3.200000
  1
STRETCH
 50
0.000000
 41
1.052632
 51
0.000000
  7
STANDARD
  0
TEXT
  8
0
 10
92.465004
 20
-9.856375
 40
3.200000
  1
  PLACE
 50
0.000000
 41
1.052632
 51
0.000000
  7
STANDARD
  0
TEXT
  8
0
 10
102.668526
 20
-16.436377
 40
3.200000
  1
A
 50
0.000000
 41
1.052632
 51
0.000000
  7
STANDARD
  0
TEXT
  8
0
 10
102.668526
 20
-22.436380
 40
3.200000
  1
B
 50
0.000000
 41
1.052632
 51
0.000000
  7
STANDARD
  0
TEXT
  8
0
 10
167.568527
 20
-22.436378
 40
3.200000
  1
25
 50
0.000000
 41
1.052632
 51
0.000000
  7
STANDARD
  0
TEXT
  8
0
 10
155.568527
 20
-22.436378
 40
3.200000
  1
20
 50
0.000000
 41
1.052632
 51
0.000000
  7
STANDARD
  0
TEXT
  8
0
 10
143.568527
 20
-22.436378
 40
3.200000
  1
10
 50
0.000000
 41
1.052632
 51
0.000000
  7
STANDARD
  0
TEXT
  8
0
 10
133.168518
 20
-22.436377
 40
3.200000
  1
5
 50
0.000000
 41
1.052632
 51
0.000000
  7
STANDARD
  0
TEXT
  8
0
 10
121.168526
 20
-22.436377
 40
3.200000
  1
0
 50
0.000000
 41
1.052632
 51
0.000000
  7
STANDARD
  0
TEXT
  8
0
 10
179.568527
 20
-22.436378
 40
3.200000
  1
30
 50
0.000000
 41
1.052632
 51
0.000000
  7
STANDARD
  0
TEXT
  8
0
 10
133.168518
 20
-16.436377
 40
3.200000
  1
5
 50
0.000000
 41
1.052632
 51
0.000000
  7
STANDARD
  0
TEXT
  8
0
 10
-132.332047
 20
-69.268105
 40
4.500000
  1
ZE102
 50
0.000000
 41
1.052632
 51
0.000000
  7
STANDARD
  0
TEXT
  8
0
 10
-168.332047
 20
-43.918102
 40
4.500000
  1
SENSOR
 50
0.000000
 41
1.052632
 51
0.000000
  7
STANDARD
  0
TEXT
  8
0
 10
-168.332047
 20
-50.668102
 40
4.500000
  1
 SWITCH:ZE135
 50
0.000000
 41
1.052632
 51
0.000000
  7
STANDARD
  0
TEXT
  8
0
 10
-132.332047
 20
-57.268101
 40
4.500000
  1
ZE155
 50
0.000000
 41
1.052632
 51
0.000000
  7
STANDARD
  0
TEXT
  8
0
 10
-132.332047
 20
-63.268097
 40
4.500000
  1
ZE101
 50
0.000000
 41
1.052632
 51
0.000000
  7
STANDARD
  0
TEXT
  8
0
 10
-31.332045
 20
-43.918102
 40
4.500000
  1
SENSOR
 50
0.000000
 41
1.052632
 51
0.000000
  7
STANDARD
  0
TEXT
  8
0
 10
-31.332047
 20
-50.668102
 40
4.500000
  1
 SWITCH:ZE235
 50
0.000000
 41
1.052632
 51
0.000000
  7
STANDARD
  0
TEXT
  8
0
 10
4.667954
 20
-57.268101
 40
4.500000
  1
ZE255
 50
0.000000
 41
1.052632
 51
0.000000
  7
STANDARD
  0
TEXT
  8
0
 10
4.667954
 20
-63.268097
 40
4.500000
  1
ZE201
 50
0.000000
 41
1.052632
 51
0.000000
  7
STANDARD
  0
TEXT
  8
0
 10
4.667954
 20
-69.268105
 40
4.500000
  1
ZE202
 50
0.000000
 41
1.052632
 51
0.000000
  7
STANDARD
  0
ENDSEC
  0
EOF
